  0
SECTION
  2
HEADER
  9
$ACADVER
  1
AC1015
  9
$ACADMAINTVER
 70
     6
  9
$DWGCODEPAGE
  3
ANSI_1252
  9
$INSBASE
 10
0.0
 20
0.0
 30
0.0
  9
$EXTMIN
 10
61.727475
 20
7.65304
 30
0.0
  9
$EXTMAX
 10
71.732641
 20
24.085841
 30
0.0
  9
$LIMMIN
 10
0.0
 20
0.0
  9
$LIMMAX
 10
0.0
 20
0.0
  9
$ORTHOMODE
 70
     0
  9
$REGENMODE
 70
     1
  9
$FILLMODE
 70
     1
  9
$QTEXTMODE
 70
     0
  9
$MIRRTEXT
 70
     1
  9
$LTSCALE
 40
1.0
  9
$ATTMODE
 70
     1
  9
$TEXTSIZE
 40
0.2
  9
$TRACEWID
 40
0.05
  9
$TEXTSTYLE
  7
Standard
  9
$CLAYER
  8
0
  9
$CELTYPE
  6
Continuous
  9
$CECOLOR
 62
   256
  9
$CELTSCALE
 40
1.0
  9
$DISPSILH
 70
     0
  9
$DIMSCALE
 40
1.0
  9
$DIMASZ
 40
0.18
  9
$DIMEXO
 40
0.0625
  9
$DIMDLI
 40
0.38
  9
$DIMRND
 40
0.0
  9
$DIMDLE
 40
0.0
  9
$DIMEXE
 40
0.18
  9
$DIMTP
 40
0.0
  9
$DIMTM
 40
0.0
  9
$DIMTXT
 40
0.18
  9
$DIMCEN
 40
0.09
  9
$DIMTSZ
 40
0.0
  9
$DIMTOL
 70
     0
  9
$DIMLIM
 70
     0
  9
$DIMTIH
 70
     1
  9
$DIMTOH
 70
     1
  9
$DIMSE1
 70
     0
  9
$DIMSE2
 70
     0
  9
$DIMTAD
 70
     0
  9
$DIMZIN
 70
     0
  9
$DIMBLK
  1

  9
$DIMASO
 70
     1
  9
$DIMSHO
 70
     1
  9
$DIMPOST
  1

  9
$DIMAPOST
  1

  9
$DIMALT
 70
     0
  9
$DIMALTD
 70
     2
  9
$DIMALTF
 40
25.4
  9
$DIMLFAC
 40
1.0
  9
$DIMTOFL
 70
     0
  9
$DIMTVP
 40
0.0
  9
$DIMTIX
 70
     0
  9
$DIMSOXD
 70
     0
  9
$DIMSAH
 70
     0
  9
$DIMBLK1
  1

  9
$DIMBLK2
  1

  9
$DIMSTYLE
  2
Standard
  9
$DIMCLRD
 70
     0
  9
$DIMCLRE
 70
     0
  9
$DIMCLRT
 70
     0
  9
$DIMTFAC
 40
1.0
  9
$DIMGAP
 40
0.09
  9
$DIMJUST
 70
     0
  9
$DIMSD1
 70
     0
  9
$DIMSD2
 70
     0
  9
$DIMTOLJ
 70
     1
  9
$DIMTZIN
 70
     0
  9
$DIMALTZ
 70
     0
  9
$DIMALTTZ
 70
     0
  9
$DIMUPT
 70
     0
  9
$DIMDEC
 70
     4
  9
$DIMTDEC
 70
     4
  9
$DIMALTU
 70
     2
  9
$DIMALTTD
 70
     2
  9
$DIMTXSTY
  7
Standard
  9
$DIMAUNIT
 70
     0
  9
$DIMADEC
 70
     0
  9
$DIMALTRND
 40
0.0
  9
$DIMAZIN
 70
     0
  9
$DIMDSEP
 70
     0
  9
$DIMATFIT
 70
     3
  9
$DIMFRAC
 70
     0
  9
$DIMLDRBLK
  1

  9
$DIMLUNIT
 70
     2
  9
$DIMLWD
 70
     0
  9
$DIMLWE
 70
     0
  9
$DIMTMOVE
 70
     0
  9
$LUNITS
 70
     2
  9
$LUPREC
 70
     4
  9
$SKETCHINC
 40
0.1
  9
$FILLETRAD
 40
0.0
  9
$AUNITS
 70
     0
  9
$AUPREC
 70
     0
  9
$MENU
  1
acad
  9
$ELEVATION
 40
0.0
  9
$PELEVATION
 40
0.0
  9
$THICKNESS
 40
0.0
  9
$LIMCHECK
 70
     0
  9
$CHAMFERA
 40
0.0
  9
$CHAMFERB
 40
0.0
  9
$CHAMFERC
 40
0.0
  9
$CHAMFERD
 40
0.0
  9
$SKPOLY
 70
     0
  9
$TDCREATE
 40
0.000000000
  9
$TDUCREATE
 40
0.000000000
  9
$TDUPDATE
 40
0.000000000
  9
$TDUUPDATE
 40
0.000000000
  9
$TDINDWG
 40
0.0000000000
  9
$TDUSRTIMER
 40
0.0000000000
  9
$USRTIMER
 70
     1
  9
$ANGBASE
 50
0.0
  9
$ANGDIR
 70
     0
  9
$PDMODE
 70
     2
  9
$PDSIZE
 40
-1.0
  9
$PLINEWID
 40
0.0
  9
$SPLFRAME
 70
     0
  9
$SPLINETYPE
 70
     6
  9
$SPLINESEGS
 70
     8
  9
$HANDSEED
  5
472
  9
$SURFTAB1
 70
     6
  9
$SURFTAB2
 70
     6
  9
$SURFTYPE
 70
     6
  9
$SURFU
 70
     6
  9
$SURFV
 70
     6
  9
$UCSBASE
  2

  9
$UCSNAME
  2

  9
$UCSORG
 10
0.0
 20
0.0
 30
0.0
  9
$UCSXDIR
 10
1.0
 20
0.0
 30
0.0
  9
$UCSYDIR
 10
0.0
 20
1.0
 30
0.0
  9
$UCSORTHOREF
  2

  9
$UCSORTHOVIEW
 70
     0
  9
$UCSORGTOP
 10
0.0
 20
0.0
 30
0.0
  9
$UCSORGBOTTOM
 10
0.0
 20
0.0
 30
0.0
  9
$UCSORGLEFT
 10
0.0
 20
0.0
 30
0.0
  9
$UCSORGRIGHT
 10
0.0
 20
0.0
 30
0.0
  9
$UCSORGFRONT
 10
0.0
 20
0.0
 30
0.0
  9
$UCSORGBACK
 10
0.0
 20
0.0
 30
0.0
  9
$PUCSBASE
  2

  9
$PUCSNAME
  2

  9
$PUCSORG
 10
0.0
 20
0.0
 30
0.0
  9
$PUCSXDIR
 10
1.0
 20
0.0
 30
0.0
  9
$PUCSYDIR
 10
0.0
 20
1.0
 30
0.0
  9
$PUCSORTHOREF
  2

  9
$PUCSORTHOVIEW
 70
     0
  9
$PUCSORGTOP
 10
0.0
 20
0.0
 30
0.0
  9
$PUCSORGBOTTOM
 10
0.0
 20
0.0
 30
0.0
  9
$PUCSORGLEFT
 10
0.0
 20
0.0
 30
0.0
  9
$PUCSORGRIGHT
 10
0.0
 20
0.0
 30
0.0
  9
$PUCSORGFRONT
 10
0.0
 20
0.0
 30
0.0
  9
$PUCSORGBACK
 10
0.0
 20
0.0
 30
0.0
  9
$USERI1
 70
     0
  9
$USERI2
 70
     0
  9
$USERI3
 70
     0
  9
$USERI4
 70
     0
  9
$USERI5
 70
     0
  9
$USERR1
 40
0.0
  9
$USERR2
 40
0.0
  9
$USERR3
 40
0.0
  9
$USERR4
 40
0.0
  9
$USERR5
 40
0.0
  9
$WORLDVIEW
 70
     1
  9
$SHADEDGE
 70
     3
  9
$SHADEDIF
 70
    70
  9
$TILEMODE
 70
     1
  9
$MAXACTVP
 70
    16
  9
$PINSBASE
 10
0.0
 20
0.0
 30
0.0
  9
$PLIMCHECK
 70
     0
  9
$PEXTMIN
 10
1.000000E+20
 20
1.000000E+20
 30
1.000000E+20
  9
$PEXTMAX
 10
-1.000000E+20
 20
-1.000000E+20
 30
-1.000000E+20
  9
$PLIMMIN
 10
0.0
 20
0.0
  9
$PLIMMAX
 10
12.0
 20
9.0
  9
$UNITMODE
 70
     0
  9
$VISRETAIN
 70
     0
  9
$PLINEGEN
 70
     1
  9
$PSLTSCALE
 70
     0
  9
$TREEDEPTH
 70
  3020
  9
$CMLSTYLE
  2
Standard
  9
$CMLJUST
 70
     0
  9
$CMLSCALE
 40
1.0
  9
$PROXYGRAPHICS
 70
     0
  9
$MEASUREMENT
 70
     0
  9
$CELWEIGHT
370
     0
  9
$ENDCAPS
280
     0
  9
$JOINSTYLE
280
     0
  9
$LWDISPLAY
290
     1
  9
$INSUNITS
 70
     0
  9
$HYPERLINKBASE
  1

  9
$STYLESHEET
  1

  9
$XEDIT
290
     1
  9
$CEPSNTYPE
380
     0
  9
$PSTYLEMODE
290
     1
  9
$FINGERPRINTGUID
  2

  9
$VERSIONGUID
  2

  9
$EXTNAMES
290
     1
  9
$PSVPSCALE
 40
0.0
  0
ENDSEC
  0
SECTION
  2
CLASSES
  0
CLASS
  1
LWPOLYLINE
  2
AcDbPolyline
  3
AutoCAD 2000
 90
        0
280
     0
281
     1
  0
CLASS
  1
IMAGE
  2
AcDbRasterImage
  3
ISM
 90
      127
280
     0
281
     1
  0
CLASS
  1
OLE2FRAME
  2
AcDbOle2Frame
  3
AutoCAD 2000
 90
        0
280
     0
281
     1
  0
CLASS
  1
HATCH
  2
AcDbHatch
  3
AutoCAD 2000
 90
        0
280
     0
281
     1
  0
CLASS
  1
DICTIONARYVAR
  2
AcDbDictionaryVar
  3
AutoCAD 2000
 90
        0
280
     0
281
     0
  0
CLASS
  1
RASTERVARIABLES
  2
AcDbRasterVariables
  3
ISM
 90
        0
280
     0
281
     0
  0
CLASS
  1
IMAGEDEF
  2
AcDbRasterImageDef
  3
ISM
 90
        0
280
     0
281
     0
  0
CLASS
  1
IMAGEDEF_REACTOR
  2
AcDbRasterImageDefReactor
  3
ISM
 90
        1
280
     0
281
     0
  0
CLASS
  1
IDBUFFER
  2
AcDbIdBuffer
  3
AutoCAD 2000
 90
        0
280
     0
281
     0
  0
CLASS
  1
SPATIAL_FILTER
  2
AcDbSpatialFilter
  3
AutoCAD 2000
 90
        0
280
     0
281
     0
  0
CLASS
  1
XRECORD
  2
AcDbXrecord
  3
AutoCAD 2000
 90
        0
280
     0
281
     0
  0
CLASS
  1
SORTENTSTABLE
  2
AcDbSortentsTable
  3
AutoCAD 2000
 90
        0
280
     0
281
     0
  0
CLASS
  1
LAYER_INDEX
  2
AcDbLayerIndex
  3
AutoCAD 2000
 90
        0
280
     0
281
     0
  0
CLASS
  1
SPATIAL_INDEX
  2
AcDbSpatialIndex
  3
AutoCAD 2000
 90
        0
280
     0
281
     0
  0
CLASS
  1
OBJECT_PTR
  2
CAseDLPNTableRecord
  3
"ASE-LPNTableRecord"
 90
        1
280
     0
281
     0
  0
CLASS
  1
LAYOUT
  2
AcDbLayout
  3
AutoCAD 2000
 90
        0
280
     0
281
     0
  0
CLASS
  1
PLOTSETTINGS
  2
AcDbPlotSettings
  3
AutoCAD 2000
 90
        0
280
     0
281
     0
  0
CLASS
  1
ACDBDICTIONARYWDFLT
  2
AcDbDictionaryWithDefault
  3
AutoCAD 2000
 90
        0
280
     0
281
     0
  0
CLASS
  1
ACDBPLACEHOLDER
  2
AcDbPlaceHolder
  3
AutoCAD 2000
 90
        0
280
     0
281
     0
  0
CLASS
  1
VBA_PROJECT
  2
AcDbVbaProject
  3
acadvba
 90
        0
280
     0
281
     0
  0
CLASS
  1
WIPEOUT
  2
AcDbWipeout
  3
WipeOut|AutoCAD Express Tool|expresstools@autodesk.com
 90
      127
280
     0
281
     1
  0
CLASS
  1
WIPEOUTVARIABLES
  2
AcDbWipeoutVariables
  3
WipeOut|AutoCAD Express Tool|expresstools@autodesk.com
 90
        0
280
     0
281
     0
  0
CLASS
  1
RTEXT
  2
RText
  3
RText|AutoCAD Express Tool|expresstools@autodesk.com
 90
        0
280
     0
281
     1
  0
CLASS
  1
ARCALIGNEDTEXT
  2
AcDbArcAlignedText
  3
ATEXT|AutoCAD Express Tool|expresstools@autodesk.com
 90
        0
280
     0
281
     1
  0
ENDSEC
  0
SECTION
  2
TABLES
  0
TABLE
  2
VPORT
  5
7
100
AcDbSymbolTable
 70
     2
  0
VPORT
  5
15
100
AcDbSymbolTableRecord
100
AcDbViewportTableRecord
  2
*ACTIVE
 70
     0
 10
0.0
 20
0.0
 11
1.0
 21
1.0
 12
6.591288
 22
4.579184
 13
0.0
 23
0.0
 14
1.0
 24
1.0
 15
0.0
 25
0.0
 16
0.0
 26
0.0
 36
1.0
 17
0.0
 27
0.0
 37
0.0
 40
9.158369
 41
0.688564
 42
50.0
 43
0.0
 44
0.0
 50
0.0
 51
0.0
 71
     0
 72
   100
 73
     1
 74
     1
 75
     0
 76
     0
 77
     0
 78
     0
281
     0
 65
     0
110
0.0
120
0.0
130
0.0
111
1.0
121
0.0
131
0.0
112
0.0
122
1.0
132
0.0
345
0
346
0
 79
     0
146
0.0
  0
VPORT
  5
471
100
AcDbSymbolTableRecord
100
AcDbViewportTableRecord
  2
MYVPORT
 70
     0
 10
0.0
 20
0.0
 11
1.0
 21
1.0
 12
6.21
 22
9.02
 13
0.0
 23
0.0
 14
1.0
 24
1.0
 15
0.0
 25
0.0
 16
0.0
 26
0.0
 36
1.0
 17
0.0
 27
0.0
 37
0.0
 40
18.04
 41
0.688564
 42
50.0
 43
0.0
 44
0.0
 50
0.0
 51
0.0
 71
     0
 72
   100
 73
     1
 74
     1
 75
     0
 76
     0
 77
     0
 78
     0
281
     0
 65
     0
110
0.0
120
0.0
130
0.0
111
1.0
121
0.0
131
0.0
112
0.0
122
1.0
132
0.0
345
0
346
0
 79
     0
146
0.0
  0
ENDTAB
  0
TABLE
  2
LTYPE
  5
4
100
AcDbSymbolTable
 70
     6
  0
LTYPE
  5
11
100
AcDbSymbolTableRecord
100
AcDbLinetypeTableRecord
  2
ByBlock
 70
    64
  3

 72
    65
 73
     0
 40
0.0
  0
LTYPE
  5
12
100
AcDbSymbolTableRecord
100
AcDbLinetypeTableRecord
  2
ByLayer
 70
    64
  3

 72
    65
 73
     0
 40
0.0
  0
LTYPE
  5
13
100
AcDbSymbolTableRecord
100
AcDbLinetypeTableRecord
  2
Continuous
 70
    64
  3
Solid line
 72
    65
 73
     0
 40
0.0
  0
LTYPE
  5
86
100
AcDbSymbolTableRecord
100
AcDbLinetypeTableRecord
  2
LT22
 70
    64
  3
Visual CADD Translation
 72
    65
 73
     2
 40
0.122
 49
0.079
 74
     0
 49
-0.043
 74
     0
  0
LTYPE
  5
1C8
100
AcDbSymbolTableRecord
100
AcDbLinetypeTableRecord
  2
DIVIDE
 70
    64
  3
Visual CADD Translation
 72
    65
 73
     6
 40
1.0
 49
0.6
 74
     0
 49
-0.133
 74
     0
 49
0.0
 74
     0
 49
-0.134
 74
     0
 49
0.0
 74
     0
 49
-0.133
 74
     0
  0
LTYPE
  5
272
100
AcDbSymbolTableRecord
100
AcDbLinetypeTableRecord
  2
LT8
 70
    64
  3
Visual CADD Translation
 72
    65
 73
     6
 40
0.51
 49
0.3
 74
     0
 49
-0.04
 74
     0
 49
0.045
 74
     0
 49
-0.04
 74
     0
 49
0.045
 74
     0
 49
-0.04
 74
     0
  0
ENDTAB
  0
TABLE
  2
LAYER
  5
2
100
AcDbSymbolTable
 70
     8
  0
LAYER
  5
14
100
AcDbSymbolTableRecord
100
AcDbLayerTableRecord
  2
0
 70
     0
 62
     7
  6
Continuous
290
     1
370
    -3
390
1D
  0
LAYER
  5
24
100
AcDbSymbolTableRecord
100
AcDbLayerTableRecord
  2
1
 70
     0
 62
     7
  6
Continuous
290
     1
370
    -3
390
1D
  0
LAYER
  5
25
100
AcDbSymbolTableRecord
100
AcDbLayerTableRecord
  2
2
 70
     0
 62
     7
  6
Continuous
290
     1
370
    -3
390
1D
  0
LAYER
  5
26
100
AcDbSymbolTableRecord
100
AcDbLayerTableRecord
  2
3
 70
     0
 62
     7
  6
Continuous
290
     1
370
    -3
390
1D
  0
LAYER
  5
27
100
AcDbSymbolTableRecord
100
AcDbLayerTableRecord
  2
4
 70
     0
 62
     7
  6
Continuous
290
     1
370
    -3
390
1D
  0
LAYER
  5
28
100
AcDbSymbolTableRecord
100
AcDbLayerTableRecord
  2
14
 70
     0
 62
     7
  6
Continuous
290
     1
370
    -3
390
1D
  0
LAYER
  5
29
100
AcDbSymbolTableRecord
100
AcDbLayerTableRecord
  2
100
 70
     0
 62
     7
  6
Continuous
290
     1
370
    -3
390
1D
  0
LAYER
  5
2DC
100
AcDbSymbolTableRecord
100
AcDbLayerTableRecord
  2
9
 70
     0
 62
     7
  6
Continuous
290
     1
370
    -3
390
1D
  0
ENDTAB
  0
TABLE
  2
STYLE
  5
3
100
AcDbSymbolTable
 70
     2
  0
STYLE
  5
17
100
AcDbSymbolTableRecord
100
AcDbTextStyleTableRecord
  2
Standard
 70
     0
 40
0.0
 41
1.0
 50
0.0
 71
     0
 42
0.0
  3
txt
  4

  0
STYLE
  5
31
100
AcDbSymbolTableRecord
100
AcDbTextStyleTableRecord
  2
Vcadd_SIMP
 70
     0
 40
0.0
 41
1.0
 50
0.0
 71
     0
 42
0.0
  3
SIMP
  4

  0
ENDTAB
  0
TABLE
  2
VIEW
  5
5
100
AcDbSymbolTable
 70
     0
  0
ENDTAB
  0
TABLE
  2
UCS
  5
6
100
AcDbSymbolTable
 70
     1
  0
UCS
  5
470
100
AcDbSymbolTableRecord
100
AcDbUCSTableRecord
  2
MYUCS
 70
     0
 10
0.0
 20
0.0
 30
0.0
 11
0.0
 21
1.0
 31
0.0
 12
0.0
 22
0.0
 32
1.0
 79
     0
146
0.0
  0
ENDTAB
  0
TABLE
  2
APPID
  5
8
100
AcDbSymbolTable
 70
     1
  0
APPID
  5
16
100
AcDbSymbolTableRecord
100
AcDbRegAppTableRecord
  2
ACAD
 70
     0
  0
ENDTAB
  0
TABLE
  2
DIMSTYLE
  5
9
100
AcDbSymbolTable
 70
     2
100
AcDbDimStyleTable
 71
     0
  0
DIMSTYLE
105
18
100
AcDbSymbolTableRecord
100
AcDbDimStyleTableRecord
  2
Standard
 70
     0
  3

  4

 40
1.0
 41
0.18
 42
0.0625
 43
0.38
 44
0.18
 45
0.0
 46
0.0
 47
0.0
 48
0.0
 71
     0
 72
     0
 73
     1
 74
     1
 75
     0
 76
     0
 77
     0
 78
     0
 79
     0
140
0.18
141
0.09
142
0.0
143
25.4
144
1.0
145
0.0
146
1.0
147
0.09
148
0.0
170
     0
171
     2
172
     0
173
     0
174
     0
175
     0
176
     0
177
     0
178
     0
179
     0
271
     4
272
     4
273
     2
274
     2
275
     0
276
     0
277
     2
278
    46
279
     0
280
     0
281
     0
282
     0
283
     1
284
     0
285
     0
286
     0
288
     0
289
     3
340
17
341
0
342
0
343
0
344
0
371
    -2
372
    -2
  0
DIMSTYLE
105
32
100
AcDbSymbolTableRecord
100
AcDbDimStyleTableRecord
  2
VCADD_DIMSTYLE
 70
     0
  3

  4

 40
1.0
 41
0.188
 42
0.0
 43
0.0
 44
0.0
 45
0.0
 46
0.0
 47
0.0
 48
0.0
 71
     0
 72
     0
 73
     1
 74
     1
 75
     0
 76
     0
 77
     0
 78
     3
 79
     1
140
0.142
141
0.0
142
0.0
143
1.0
144
1.0
145
0.0
146
1.0
147
0.5
148
0.0
170
     0
171
     3
172
     0
173
     0
174
     1
175
     0
176
     1
177
     1
178
     7
179
     3
271
     3
272
     4
273
     2
274
     2
275
     0
276
     0
277
     2
278
    46
279
     0
280
     0
281
     0
282
     0
283
     1
284
     0
285
     0
286
     0
288
     0
289
     3
340
31
341
0
342
0
343
0
344
0
371
    -2
372
    -2
  0
ENDTAB
  0
TABLE
  2
BLOCK_RECORD
  5
1
100
AcDbSymbolTable
 70
     4
  0
BLOCK_RECORD
  5
A
100
AcDbSymbolTableRecord
100
AcDbBlockTableRecord
  2
*MODEL_SPACE
340
20
  0
BLOCK_RECORD
  5
B
100
AcDbSymbolTableRecord
100
AcDbBlockTableRecord
  2
*PAPER_SPACE
340
21
  0
BLOCK_RECORD
  5
2A
100
AcDbSymbolTableRecord
100
AcDbBlockTableRecord
  2
_CLOSED
340
0
  0
BLOCK_RECORD
  5
24F
100
AcDbSymbolTableRecord
100
AcDbBlockTableRecord
  2
MAU
340
0
102
{BLKREFS
331
25C
331
26D
102
}
  0
BLOCK_RECORD
  5
25E
100
AcDbSymbolTableRecord
100
AcDbBlockTableRecord
  2
MAL
340
0
102
{BLKREFS
331
26B
102
}
  0
BLOCK_RECORD
  5
2DA
100
AcDbSymbolTableRecord
100
AcDbBlockTableRecord
  2
ARROW
340
0
102
{BLKREFS
331
2E2
331
2E3
331
2E4
331
2E5
331
2E6
331
2E7
331
2E8
331
2E9
331
2EA
331
2EB
331
2EC
331
2ED
331
2EE
331
2EF
331
2F0
331
2F1
331
2F2
331
2F3
331
2F4
331
2F5
331
2F6
331
2F7
331
2F8
331
2F9
331
2FA
331
2FB
331
2FC
331
2FD
331
2FE
331
2FF
331
300
331
301
331
304
331
3BD
331
3FF
331
406
102
}
  0
ENDTAB
  0
ENDSEC
  0
SECTION
  2
BLOCKS
  0
BLOCK
  5
D
100
AcDbEntity
  8
0
390
0
100
AcDbBlockBegin
  2
*MODEL_SPACE
 70
     0
 10
0.0
 20
0.0
 30
0.0
  3
*MODEL_SPACE
  1

  0
ENDBLK
  5
E
100
AcDbEntity
  8
0
390
0
100
AcDbBlockEnd
  0
BLOCK
  5
F
100
AcDbEntity
 67
     1
  8
0
390
0
100
AcDbBlockBegin
  2
*PAPER_SPACE
 70
     0
 10
0.0
 20
0.0
 30
0.0
  3
*PAPER_SPACE
  1

  0
ENDBLK
  5
10
100
AcDbEntity
 67
     1
  8
0
390
0
100
AcDbBlockEnd
  0
BLOCK
  5
2B
100
AcDbEntity
  8
0
390
0
100
AcDbBlockBegin
  2
_CLOSED
 70
     0
 10
0.0
 20
0.0
 30
0.0
  3
_CLOSED
  1

  0
LINE
  5
2C
100
AcDbEntity
  8
0
370
    -2
390
0
  6
ByBlock
 62
     0
100
AcDbLine
 10
-1.0
 20
0.166667
 30
0.0
 11
0.0
 21
0.0
 31
0.0
  0
LINE
  5
2D
100
AcDbEntity
  8
0
370
    -2
390
0
  6
ByBlock
 62
     0
100
AcDbLine
 10
0.0
 20
0.0
 30
0.0
 11
-1.0
 21
-0.166667
 31
0.0
  0
LINE
  5
2E
100
AcDbEntity
  8
0
370
    -2
390
0
  6
ByBlock
 62
     0
100
AcDbLine
 10
-1.0
 20
0.166667
 30
0.0
 11
-1.0
 21
-0.166667
 31
0.0
  0
LINE
  5
2F
100
AcDbEntity
  8
0
370
    -2
390
0
  6
ByBlock
 62
     0
100
AcDbLine
 10
0.0
 20
0.0
 30
0.0
 11
-1.0
 21
0.0
 31
0.0
  0
ENDBLK
  5
30
100
AcDbEntity
  8
0
390
0
100
AcDbBlockEnd
  0
BLOCK
  5
250
100
AcDbEntity
  8
0
390
0
100
AcDbBlockBegin
  2
MAU
 70
     0
 10
0.0
 20
0.0
 30
0.0
  3
MAU
  1

  0
LINE
  5
251
100
AcDbEntity
  8
0
370
     0
390
0
  6
Continuous
 62
     2
100
AcDbLine
 10
0.0
 20
0.0
 30
0.0
 11
-0.024965
 21
-0.169856
 31
0.0
  0
LINE
  5
252
100
AcDbEntity
  8
0
370
     0
390
0
  6
Continuous
 62
     2
100
AcDbLine
 10
0.0
 20
0.0
 30
0.0
 11
0.022192
 21
-0.169856
 31
0.0
  0
LINE
  5
253
100
AcDbEntity
  8
0
370
     0
390
0
  6
Continuous
 62
     2
100
AcDbLine
 10
0.022192
 20
-0.169856
 30
0.0
 11
-0.024965
 21
-0.169856
 31
0.0
  0
LINE
  5
254
100
AcDbEntity
  8
0
370
     0
390
0
  6
Continuous
 62
     7
100
AcDbLine
 10
-0.015773
 20
-0.160825
 30
0.0
 11
0.013481
 21
-0.160825
 31
0.0
  0
LINE
  5
255
100
AcDbEntity
  8
0
370
     0
390
0
  6
Continuous
 62
     7
100
AcDbLine
 10
0.013481
 20
-0.160825
 30
0.0
 11
-0.000196
 21
-0.036413
 31
0.0
  0
LINE
  5
256
100
AcDbEntity
  8
0
370
     0
390
0
  6
Continuous
 62
     7
100
AcDbLine
 10
-0.015773
 20
-0.160825
 30
0.0
 11
-0.000196
 21
-0.036413
 31
0.0
  0
LINE
  5
257
100
AcDbEntity
  8
0
370
     0
390
0
  6
Continuous
 62
     7
100
AcDbLine
 10
-0.006656
 20
-0.149436
 30
0.0
 11
-0.000576
 21
-0.078031
 31
0.0
  0
LINE
  5
258
100
AcDbEntity
  8
0
370
     0
390
0
  6
Continuous
 62
     7
100
AcDbLine
 10
-0.006656
 20
-0.149436
 30
0.0
 11
0.005122
 21
-0.149436
 31
0.0
  0
LINE
  5
259
100
AcDbEntity
  8
0
370
     0
390
0
  6
Continuous
 62
     7
100
AcDbLine
 10
0.005122
 20
-0.149436
 30
0.0
 11
-0.000576
 21
-0.078031
 31
0.0
  0
LINE
  5
25A
100
AcDbEntity
  8
0
370
     0
390
0
  6
Continuous
 62
     7
100
AcDbLine
 10
-0.000957
 20
-0.142427
 30
0.0
 11
-0.000957
 21
-0.119647
 31
0.0
  0
ENDBLK
  5
25B
100
AcDbEntity
  8
0
390
0
100
AcDbBlockEnd
  0
BLOCK
  5
25F
100
AcDbEntity
  8
0
390
0
100
AcDbBlockBegin
  2
MAL
 70
     0
 10
0.0
 20
0.0
 30
0.0
  3
MAL
  1

  0
LINE
  5
260
100
AcDbEntity
  8
0
370
     0
390
0
  6
Continuous
 62
     2
100
AcDbLine
 10
0.0
 20
0.0
 30
0.0
 11
0.169856
 21
0.024965
 31
0.0
  0
LINE
  5
261
100
AcDbEntity
  8
0
370
     0
390
0
  6
Continuous
 62
     2
100
AcDbLine
 10
0.0
 20
0.0
 30
0.0
 11
0.169856
 21
-0.022192
 31
0.0
  0
LINE
  5
262
100
AcDbEntity
  8
0
370
     0
390
0
  6
Continuous
 62
     2
100
AcDbLine
 10
0.169856
 20
-0.022192
 30
0.0
 11
0.169856
 21
0.024965
 31
0.0
  0
LINE
  5
263
100
AcDbEntity
  8
0
370
     0
390
0
  6
Continuous
 62
     7
100
AcDbLine
 10
0.160825
 20
0.015773
 30
0.0
 11
0.160825
 21
-0.013481
 31
0.0
  0
LINE
  5
264
100
AcDbEntity
  8
0
370
     0
390
0
  6
Continuous
 62
     7
100
AcDbLine
 10
0.160825
 20
-0.013481
 30
0.0
 11
0.036413
 21
0.000196
 31
0.0
  0
LINE
  5
265
100
AcDbEntity
  8
0
370
     0
390
0
  6
Continuous
 62
     7
100
AcDbLine
 10
0.160825
 20
0.015773
 30
0.0
 11
0.036413
 21
0.000196
 31
0.0
  0
LINE
  5
266
100
AcDbEntity
  8
0
370
     0
390
0
  6
Continuous
 62
     7
100
AcDbLine
 10
0.149436
 20
0.006656
 30
0.0
 11
0.078031
 21
0.000576
 31
0.0
  0
LINE
  5
267
100
AcDbEntity
  8
0
370
     0
390
0
  6
Continuous
 62
     7
100
AcDbLine
 10
0.149436
 20
0.006656
 30
0.0
 11
0.149436
 21
-0.005122
 31
0.0
  0
LINE
  5
268
100
AcDbEntity
  8
0
370
     0
390
0
  6
Continuous
 62
     7
100
AcDbLine
 10
0.149436
 20
-0.005122
 30
0.0
 11
0.078031
 21
0.000576
 31
0.0
  0
LINE
  5
269
100
AcDbEntity
  8
0
370
     0
390
0
  6
Continuous
 62
     7
100
AcDbLine
 10
0.142427
 20
0.000957
 30
0.0
 11
0.119647
 21
0.000957
 31
0.0
  0
ENDBLK
  5
26A
100
AcDbEntity
  8
0
390
0
100
AcDbBlockEnd
  0
BLOCK
  5
2DB
100
AcDbEntity
  8
0
390
0
100
AcDbBlockBegin
  2
ARROW
 70
     0
 10
0.0
 20
0.0
 30
0.0
  3
ARROW
  1

  0
LINE
  5
2DD
100
AcDbEntity
  8
9
370
     0
390
0
  6
Continuous
 62
     5
100
AcDbLine
 10
0.0
 20
0.0
 30
0.0
 11
-0.160849
 21
0.031523
 31
0.0
  0
LINE
  5
2DE
100
AcDbEntity
  8
9
370
     0
390
0
  6
Continuous
 62
     5
100
AcDbLine
 10
-0.160849
 20
0.031523
 30
0.0
 11
-0.160849
 21
-0.035463
 31
0.0
  0
LINE
  5
2DF
100
AcDbEntity
  8
9
370
     0
390
0
  6
Continuous
 62
     5
100
AcDbLine
 10
0.0
 20
0.0
 30
0.0
 11
-0.160849
 21
-0.035463
 31
0.0
  0
HATCH
  5
2E0
100
AcDbEntity
  8
9
370
     0
390
0
  6
Continuous
 62
     5
100
AcDbHatch
 10
0.0
 20
0.0
 30
0.0
210
0.0
220
0.0
230
1.0
  2
SOLID
 70
     1
 71
     0
 91
        1
 92
        1
 93
        3
 72
     1
 10
0.0
 20
0.0
 11
-0.1608486175537109
 21
0.0315227508544922
 72
     1
 10
-0.1608486175537109
 20
0.0315227508544922
 11
-0.1608486175537109
 21
-0.0354633331298828
 72
     1
 10
-0.1608486175537109
 20
-0.0354633331298828
 11
0.0
 21
0.0
 97
        0
 75
     0
 76
     1
 98
        1
 10
0.0
 20
0.0
  0
ENDBLK
  5
2E1
100
AcDbEntity
  8
0
390
0
100
AcDbBlockEnd
  0
ENDSEC
  0
SECTION
  2
ENTITIES
  0
VIEWPORT
  5
33
100
AcDbEntity
 67
     1
  8
0
390
0
  6
Continuous
 62
     0
100
AcDbViewport
 10
4.5
 20
3.259162
 30
0.0
 40
12.857143
 41
9.311892
 68
     1
 69
     1
 12
762.9316
 22
546.5183
 13
1169.457242
 23
377.488
 14
0.5
 24
0.5
 15
12.0
 25
12.0
 16
0.0
 26
0.0
 36
1.0
 17
0.0
 27
0.0
 37
0.0
 42
50.0
 43
-55.0
 44
-55.0
 45
1084.5
 50
0.0
 51
0.0
 72
   500
 90
        0
340
0
  1

281
     0
 71
     1
 74
     0
110
0.0
120
0.0
130
0.0
111
1.0
121
0.0
131
0.0
112
0.0
122
1.0
132
0.0
345
0
346
0
 79
     0
146
0.0
  0
LINE
  5
34
100
AcDbEntity
  8
0
370
    15
390
0
  6
Continuous
 62
     6
100
AcDbLine
 10
71.732641
 20
24.085841
 30
0.0
 11
71.732641
 21
8.082139
 31
0.0
  0
LINE
  5
35
100
AcDbEntity
  8
0
370
    15
390
0
  6
Continuous
 62
     6
100
AcDbLine
 10
61.727475
 20
8.082139
 30
0.0
 11
61.727475
 21
24.085841
 31
0.0
  0
LINE
  5
36
100
AcDbEntity
  8
0
370
    15
390
0
  6
Continuous
 62
     6
100
AcDbLine
 10
71.732641
 20
8.082139
 30
0.0
 11
61.727475
 21
8.082139
 31
0.0
  0
LINE
  5
37
100
AcDbEntity
  8
0
370
    15
390
0
  6
Continuous
 62
     6
100
AcDbLine
 10
71.732641
 20
24.085841
 30
0.0
 11
61.727475
 21
24.085841
 31
0.0
  0
LINE
  5
38
100
AcDbEntity
  8
0
370
    15
390
0
  6
Continuous
 62
     2
100
AcDbLine
 10
63.102475
 20
8.082139
 30
0.0
 11
63.102475
 21
18.707137
 31
0.0
  0
LINE
  5
39
100
AcDbEntity
  8
0
370
    15
390
0
  6
Continuous
 62
     7
100
AcDbLine
 10
63.102475
 20
8.082139
 30
0.0
 11
63.102475
 21
8.082139
 31
0.0
  0
LINE
  5
3A
100
AcDbEntity
  8
0
370
    15
390
0
  6
Continuous
 62
     7
100
AcDbLine
 10
63.102475
 20
10.832139
 30
0.0
 11
61.727475
 21
10.832139
 31
0.0
  0
LINE
  5
3B
100
AcDbEntity
  8
0
370
    15
390
0
  6
Continuous
 62
     7
100
AcDbLine
 10
62.008478
 20
13.832139
 30
0.0
 11
62.008478
 21
12.207139
 31
0.0
  0
LINE
  5
3C
100
AcDbEntity
  8
0
370
    15
390
0
  6
Continuous
 62
     7
100
AcDbLine
 10
62.289476
 20
13.832139
 30
0.0
 11
62.289476
 21
12.207139
 31
0.0
  0
LINE
  5
3D
100
AcDbEntity
  8
0
370
    15
390
0
  6
Continuous
 62
     7
100
AcDbLine
 10
62.289476
 20
12.207139
 30
0.0
 11
62.289476
 21
10.832139
 31
0.0
  0
LINE
  5
3E
100
AcDbEntity
  8
0
370
    15
390
0
  6
Continuous
 62
     7
100
AcDbLine
 10
62.66448
 20
13.832139
 30
0.0
 11
62.66448
 21
10.832139
 31
0.0
  0
LINE
  5
3F
100
AcDbEntity
  8
0
370
    15
390
0
  6
Continuous
 62
     7
100
AcDbLine
 10
62.289476
 20
12.207139
 30
0.0
 11
61.727475
 21
12.207139
 31
0.0
  0
LINE
  5
40
100
AcDbEntity
  8
0
370
    15
390
0
  6
Continuous
 62
     7
100
AcDbLine
 10
62.289476
 20
12.207139
 30
0.0
 11
62.66448
 21
12.207139
 31
0.0
  0
LINE
  5
41
100
AcDbEntity
  8
0
370
    15
390
0
  6
Continuous
 62
     7
100
AcDbLine
 10
62.66448
 20
13.457139
 30
0.0
 11
62.289476
 21
13.457139
 31
0.0
  0
LINE
  5
42
100
AcDbEntity
  8
0
370
    15
390
0
  6
Continuous
 62
     7
100
AcDbLine
 10
61.727475
 20
13.290139
 30
0.0
 11
62.008478
 21
13.290139
 31
0.0
  0
LINE
  5
43
100
AcDbEntity
  8
0
370
    15
390
0
  6
Continuous
 62
     7
100
AcDbLine
 10
61.727475
 20
12.748139
 30
0.0
 11
62.008478
 21
12.748139
 31
0.0
  0
LINE
  5
44
100
AcDbEntity
  8
0
370
    15
390
0
  6
Continuous
 62
     7
100
AcDbLine
 10
62.008478
 20
12.748139
 30
0.0
 11
62.289476
 21
12.748139
 31
0.0
  0
LINE
  5
45
100
AcDbEntity
  8
0
370
    15
390
0
  6
Continuous
 62
     7
100
AcDbLine
 10
62.008478
 20
13.290139
 30
0.0
 11
62.289476
 21
13.290139
 31
0.0
  0
LINE
  5
46
100
AcDbEntity
  8
0
370
    15
390
0
  6
Continuous
 62
     7
100
AcDbLine
 10
62.66448
 20
10.832139
 30
0.0
 11
62.66448
 21
8.082139
 31
0.0
  0
LINE
  5
47
100
AcDbEntity
  8
0
370
    15
390
0
  6
Continuous
 62
     7
100
AcDbLine
 10
63.102475
 20
10.270135
 30
0.0
 11
62.66448
 21
10.270135
 31
0.0
  0
LINE
  5
48
100
AcDbEntity
  8
0
370
    15
390
0
  6
Continuous
 62
     7
100
AcDbLine
 10
71.357641
 20
10.832139
 30
0.0
 11
71.357641
 21
8.082139
 31
0.0
  0
LINE
  5
49
100
AcDbEntity
  8
0
370
    15
390
0
  6
Continuous
 62
     7
100
AcDbLine
 10
71.357641
 20
10.270135
 30
0.0
 11
71.729825
 21
10.270135
 31
0.0
  0
LINE
  5
4A
100
AcDbEntity
  8
0
370
    15
390
0
  6
Continuous
 62
     7
100
AcDbLine
 10
71.357641
 20
10.832139
 30
0.0
 11
71.732641
 21
10.832139
 31
0.0
  0
LINE
  5
4B
100
AcDbEntity
  8
0
370
    15
390
0
  6
Continuous
 62
     7
100
AcDbLine
 10
62.025148
 20
11.698335
 30
0.0
 11
61.901418
 21
11.410836
 31
0.0
  0
ARC
  5
4C
100
AcDbEntity
  8
0
370
    15
390
0
  6
Continuous
 62
     7
100
AcDbCircle
 10
62.201646
 20
11.281637
 30
0.0
 40
0.32685
100
AcDbArc
 50
156.691388
 51
236.831276
  0
ARC
  5
4D
100
AcDbEntity
  8
0
370
    15
390
0
  6
Continuous
 62
     7
100
AcDbCircle
 10
61.716261
 20
11.800942
 30
0.0
 40
0.32548
100
AcDbArc
 50
341.619899
 51
418.316354
  0
LINE
  5
4E
100
AcDbEntity
  8
0
370
    15
390
0
  6
Continuous
 62
     7
100
AcDbLine
 10
62.022401
 20
11.570832
 30
0.0
 11
61.927709
 21
11.62021
 31
0.0
  0
LINE
  5
4F
100
AcDbEntity
  8
0
370
    15
390
0
  6
Continuous
 62
     7
100
AcDbLine
 10
61.994993
 20
11.511972
 30
0.0
 11
61.903882
 21
11.563333
 31
0.0
  0
TEXT
  5
50
100
AcDbEntity
  8
0
370
    15
390
0
  6
Continuous
 62
     7
100
AcDbText
 10
62.982999
 20
13.793794
 30
0.0
 40
0.062
  1
TITLE
 50
-90.0
  7
Vcadd_SIMP
100
AcDbText
  0
TEXT
  5
51
100
AcDbEntity
  8
0
370
    15
390
0
  6
Continuous
 62
     7
100
AcDbText
 10
62.98303
 20
10.792604
 30
0.0
 40
0.062
  1
REVISION
 50
-90.0
  7
Vcadd_SIMP
100
AcDbText
  0
TEXT
  5
52
100
AcDbEntity
  8
0
370
    15
390
0
  6
Continuous
 62
     7
100
AcDbText
 10
62.562887
 20
13.802308
 30
0.0
 40
0.062
  1
SCALE
 50
-90.0
  7
Vcadd_SIMP
100
AcDbText
  0
TEXT
  5
53
100
AcDbEntity
  8
0
370
    15
390
0
  6
Continuous
 62
     7
100
AcDbText
 10
62.562887
 20
13.802308
 30
0.0
 40
0.062
  1
      REF.                
 50
-90.0
  7
Vcadd_SIMP
100
AcDbText
  0
TEXT
  5
54
100
AcDbEntity
  8
0
370
    15
390
0
  6
Continuous
 62
     7
100
AcDbText
 10
62.562887
 20
12.168527
 30
0.0
 40
0.062
  1
MATERIAL
 50
-90.0
  7
Vcadd_SIMP
100
AcDbText
  0
TEXT
  5
55
100
AcDbEntity
  8
0
370
    15
390
0
  6
Continuous
 62
     7
100
AcDbText
 10
62.195531
 20
13.797242
 30
0.0
 40
0.062
  1
DRAWN    
 50
-90.0
  7
Vcadd_SIMP
100
AcDbText
  0
TEXT
  5
56
100
AcDbEntity
  8
0
370
    15
390
0
  6
Continuous
 62
     7
100
AcDbText
 10
62.195531
 20
13.261552
 30
0.0
 40
0.062
  1
CHECK 
 50
-90.0
  7
Vcadd_SIMP
100
AcDbText
  0
TEXT
  5
57
100
AcDbEntity
  8
0
370
    15
390
0
  6
Continuous
 62
     7
100
AcDbText
 10
62.195531
 20
12.720796
 30
0.0
 40
0.062
  1
RELEASE
 50
-90.0
  7
Vcadd_SIMP
100
AcDbText
  0
TEXT
  5
58
100
AcDbEntity
  8
0
370
    15
390
0
  6
Continuous
 62
     7
100
AcDbText
 10
61.906316
 20
13.791207
 30
0.0
 40
0.062
  1
DATE     
 50
-90.0
  7
Vcadd_SIMP
100
AcDbText
  0
TEXT
  5
59
100
AcDbEntity
  8
0
370
    15
390
0
  6
Continuous
 62
     7
100
AcDbText
 10
61.906316
 20
13.255525
 30
0.0
 40
0.062
  1
DATE  
 50
-90.0
  7
Vcadd_SIMP
100
AcDbText
  0
TEXT
  5
5A
100
AcDbEntity
  8
0
370
    15
390
0
  6
Continuous
 62
     7
100
AcDbText
 10
61.906316
 20
12.714768
 30
0.0
 40
0.062
  1
DATE
 50
-90.0
  7
Vcadd_SIMP
100
AcDbText
  0
TEXT
  5
5B
100
AcDbEntity
  8
0
370
    15
390
0
  6
Continuous
 62
     7
100
AcDbText
 10
62.195531
 20
12.171792
 30
0.0
 40
0.062
  1
HEAT TREAT & FINISH
 50
-90.0
  7
Vcadd_SIMP
100
AcDbText
  0
TEXT
  5
5C
100
AcDbEntity
  8
0
370
    15
390
0
  6
Continuous
 62
     7
100
AcDbText
 10
62.98303
 20
10.606599
 30
0.0
 40
0.062
  1
      PART NO.
 50
-90.0
  7
Vcadd_SIMP
100
AcDbText
  0
TEXT
  5
5D
100
AcDbEntity
  8
0
370
    15
390
0
  6
Continuous
 62
     7
100
AcDbText
 10
71.612073
 20
10.805055
 30
0.0
 40
0.062
  1
REVISION PART NO.
 50
-90.0
  7
Vcadd_SIMP
100
AcDbText
  0
TEXT
  5
5E
100
AcDbEntity
  8
0
370
    15
390
0
  6
Continuous
 62
     7
100
AcDbText
 10
62.360296
 20
13.677484
 30
0.0
 40
0.094
  1
:1
 50
-90.0
  7
Vcadd_SIMP
100
AcDbText
  0
TEXT
  5
5F
100
AcDbEntity
  8
0
370
    15
390
0
  6
Continuous
 62
     7
100
AcDbText
 10
61.771531
 20
13.783021
 30
0.0
 40
0.06
  1
10-27-8
 50
-90.0
  7
Vcadd_SIMP
100
AcDbText
  0
TEXT
  5
60
100
AcDbEntity
  8
0
370
    15
390
0
  6
Continuous
 62
     7
100
AcDbText
 10
62.039556
 20
13.709085
 30
0.0
 40
0.09
  1
RG
 50
-90.0
  7
Vcadd_SIMP
100
AcDbText
  0
TEXT
  5
61
100
AcDbEntity
  8
0
370
    15
390
0
  6
Continuous
 62
     7
100
AcDbText
 10
61.771531
 20
13.363023
 30
0.0
 40
0.06
  1
7
 50
-90.0
  7
Vcadd_SIMP
100
AcDbText
  0
LINE
  5
62
100
AcDbEntity
  8
14
370
    15
390
0
  6
Continuous
 62
     7
100
AcDbLine
 10
63.397725
 20
12.978507
 30
0.0
 11
64.477727
 21
12.978507
 31
0.0
  0
LINE
  5
63
100
AcDbEntity
  8
14
370
    15
390
0
  6
Continuous
 62
     7
100
AcDbLine
 10
64.453732
 20
12.978507
 30
0.0
 11
64.453732
 21
12.822507
 31
0.0
  0
LINE
  5
64
100
AcDbEntity
  8
14
370
    15
390
0
  6
Continuous
 62
     7
100
AcDbLine
 10
63.421723
 20
12.822507
 30
0.0
 11
64.453732
 21
12.822507
 31
0.0
  0
LINE
  5
65
100
AcDbEntity
  8
14
370
    15
390
0
  6
Continuous
 62
     7
100
AcDbLine
 10
63.421723
 20
12.822507
 30
0.0
 11
63.421723
 21
12.978507
 31
0.0
  0
LINE
  5
66
100
AcDbEntity
  8
14
370
    15
390
0
  6
Continuous
 62
     7
100
AcDbLine
 10
64.405232
 20
12.774009
 30
0.0
 11
64.453732
 21
12.822507
 31
0.0
  0
LINE
  5
67
100
AcDbEntity
  8
14
370
    15
390
0
  6
Continuous
 62
     7
100
AcDbLine
 10
63.470223
 20
12.774007
 30
0.0
 11
63.421723
 21
12.822507
 31
0.0
  0
LINE
  5
68
100
AcDbEntity
  8
14
370
    15
390
0
  6
Continuous
 62
     7
100
AcDbLine
 10
63.470223
 20
12.774007
 30
0.0
 11
64.405232
 21
12.774009
 31
0.0
  0
LINE
  5
69
100
AcDbEntity
  8
14
370
    15
390
0
  6
Continuous
 62
     7
100
AcDbLine
 10
64.405232
 20
11.635507
 30
0.0
 11
64.405232
 21
12.774009
 31
0.0
  0
LINE
  5
6A
100
AcDbEntity
  8
14
370
    15
390
0
  6
Continuous
 62
     7
100
AcDbLine
 10
63.470223
 20
11.635507
 30
0.0
 11
64.405232
 21
11.635507
 31
0.0
  0
LINE
  5
6B
100
AcDbEntity
  8
14
370
    15
390
0
  6
Continuous
 62
     7
100
AcDbLine
 10
63.470223
 20
11.635507
 30
0.0
 11
63.470223
 21
12.774007
 31
0.0
  0
LINE
  5
6C
100
AcDbEntity
  8
14
370
    15
390
0
  6
Continuous
 62
     7
100
AcDbLine
 10
63.489724
 20
11.616006
 30
0.0
 11
63.470223
 21
11.635507
 31
0.0
  0
LINE
  5
6D
100
AcDbEntity
  8
14
370
    15
390
0
  6
Continuous
 62
     7
100
AcDbLine
 10
64.385732
 20
11.616006
 30
0.0
 11
64.405232
 21
11.635507
 31
0.0
  0
LINE
  5
6E
100
AcDbEntity
  8
14
370
    15
390
0
  6
Continuous
 62
     7
100
AcDbLine
 10
63.489724
 20
11.616006
 30
0.0
 11
64.385732
 21
11.616006
 31
0.0
  0
LINE
  5
6F
100
AcDbEntity
  8
14
370
    15
390
0
  6
Continuous
 62
     7
100
AcDbLine
 10
64.385732
 20
10.697506
 30
0.0
 11
64.385732
 21
11.616006
 31
0.0
  0
LINE
  5
70
100
AcDbEntity
  8
14
370
    15
390
0
  6
Continuous
 62
     7
100
AcDbLine
 10
63.489724
 20
10.697506
 30
0.0
 11
63.489724
 21
11.616006
 31
0.0
  0
LINE
  5
71
100
AcDbEntity
  8
14
370
    15
390
0
  6
Continuous
 62
     7
100
AcDbLine
 10
64.385732
 20
10.697506
 30
0.0
 11
63.489724
 21
10.697506
 31
0.0
  0
LINE
  5
72
100
AcDbEntity
  8
14
370
    15
390
0
  6
Continuous
 62
     7
100
AcDbLine
 10
63.510224
 20
10.677006
 30
0.0
 11
63.489724
 21
10.697506
 31
0.0
  0
LINE
  5
73
100
AcDbEntity
  8
14
370
    15
390
0
  6
Continuous
 62
     7
100
AcDbLine
 10
64.365231
 20
10.677008
 30
0.0
 11
64.385732
 21
10.697506
 31
0.0
  0
LINE
  5
74
100
AcDbEntity
  8
14
370
    15
390
0
  6
Continuous
 62
     7
100
AcDbLine
 10
64.365231
 20
10.677008
 30
0.0
 11
63.510224
 21
10.677006
 31
0.0
  0
LINE
  5
75
100
AcDbEntity
  8
14
370
    15
390
0
  6
Continuous
 62
     7
100
AcDbLine
 10
64.365231
 20
9.744506
 30
0.0
 11
64.365231
 21
10.677008
 31
0.0
  0
LINE
  5
76
100
AcDbEntity
  8
14
370
    15
390
0
  6
Continuous
 62
     7
100
AcDbLine
 10
63.510224
 20
9.744506
 30
0.0
 11
63.510224
 21
10.677006
 31
0.0
  0
LINE
  5
77
100
AcDbEntity
  8
14
370
    15
390
0
  6
Continuous
 62
     7
100
AcDbLine
 10
64.365231
 20
9.744506
 30
0.0
 11
63.510224
 21
9.744506
 31
0.0
  0
LINE
  5
78
100
AcDbEntity
  8
14
370
    15
390
0
  6
Continuous
 62
     7
100
AcDbLine
 10
63.531228
 20
9.343506
 30
0.0
 11
64.344228
 21
9.343506
 31
0.0
  0
LINE
  5
79
100
AcDbEntity
  8
14
370
    15
390
0
  6
Continuous
 62
     7
100
AcDbLine
 10
63.531228
 20
9.723507
 30
0.0
 11
63.531228
 21
9.343506
 31
0.0
  0
LINE
  5
7A
100
AcDbEntity
  8
14
370
    15
390
0
  6
Continuous
 62
     7
100
AcDbLine
 10
63.531228
 20
9.723507
 30
0.0
 11
63.510224
 21
9.744506
 31
0.0
  0
LINE
  5
7B
100
AcDbEntity
  8
14
370
    15
390
0
  6
Continuous
 62
     7
100
AcDbLine
 10
64.344228
 20
9.723509
 30
0.0
 11
64.344228
 21
9.343506
 31
0.0
  0
LINE
  5
7C
100
AcDbEntity
  8
14
370
    15
390
0
  6
Continuous
 62
     7
100
AcDbLine
 10
64.344228
 20
9.723508
 30
0.0
 11
64.365231
 21
9.744506
 31
0.0
  0
LINE
  5
7D
100
AcDbEntity
  8
14
370
    15
390
0
  6
Continuous
 62
     7
100
AcDbLine
 10
64.344228
 20
9.723509
 30
0.0
 11
63.531228
 21
9.723507
 31
0.0
  0
LINE
  5
7E
100
AcDbEntity
  8
14
370
    15
390
0
  6
Continuous
 62
     7
100
AcDbLine
 10
63.937726
 20
12.479001
 30
0.0
 11
63.937726
 21
12.368459
 31
0.0
  0
LINE
  5
7F
100
AcDbEntity
  8
14
370
    15
390
0
  6
Continuous
 62
     7
100
AcDbLine
 10
63.937726
 20
12.313188
 30
0.0
 11
63.937726
 21
11.511753
 31
0.0
  0
LINE
  5
80
100
AcDbEntity
  8
14
370
    15
390
0
  6
Continuous
 62
     7
100
AcDbLine
 10
63.937726
 20
11.442663
 30
0.0
 11
63.937726
 21
11.345937
 31
0.0
  0
LINE
  5
81
100
AcDbEntity
  8
14
370
    15
390
0
  6
Continuous
 62
     7
100
AcDbLine
 10
63.937726
 20
11.276847
 30
0.0
 11
63.937726
 21
9.950332
 31
0.0
  0
LINE
  5
82
100
AcDbEntity
  8
14
370
    15
390
0
  6
Continuous
 62
     7
100
AcDbLine
 10
63.937726
 20
9.87056
 30
0.0
 11
63.937726
 21
9.769009
 31
0.0
  0
LINE
  5
83
100
AcDbEntity
  8
14
370
    15
390
0
  6
Continuous
 62
     7
100
AcDbLine
 10
63.937726
 20
9.167703
 30
0.0
 11
64.24223
 21
9.343506
 31
0.0
  0
LINE
  5
84
100
AcDbEntity
  8
14
370
    15
390
0
  6
Continuous
 62
     7
100
AcDbLine
 10
63.937726
 20
9.167702
 30
0.0
 11
63.633225
 21
9.343506
 31
0.0
  0
POINT
  5
85
100
AcDbEntity
  8
100
370
    15
390
0
  6
Continuous
 62
     7
100
AcDbPoint
 10
63.937726
 20
12.978507
 30
0.0
  0
LINE
  5
87
100
AcDbEntity
  8
14
370
    15
390
0
  6
LT22
 62
     7
100
AcDbLine
 10
64.437726
 20
12.353507
 30
0.0
 11
64.437726
 21
12.806507
 31
0.0
  0
LINE
  5
88
100
AcDbEntity
  8
14
370
    15
390
0
  6
LT22
 62
     7
100
AcDbLine
 10
63.437726
 20
12.353507
 30
0.0
 11
63.437726
 21
12.806507
 31
0.0
  0
LINE
  5
89
100
AcDbEntity
  8
14
370
    15
390
0
  6
LT22
 62
     7
100
AcDbLine
 10
63.937726
 20
8.423086
 30
0.0
 11
64.250226
 21
8.603506
 31
0.0
  0
LINE
  5
8A
100
AcDbEntity
  8
14
370
    15
390
0
  6
LT22
 62
     7
100
AcDbLine
 10
63.625226
 20
8.603506
 30
0.0
 11
64.250226
 21
8.603506
 31
0.0
  0
LINE
  5
8B
100
AcDbEntity
  8
14
370
    15
390
0
  6
LT22
 62
     7
100
AcDbLine
 10
63.625226
 20
8.603506
 30
0.0
 11
63.937726
 21
8.423087
 31
0.0
  0
LINE
  5
8C
100
AcDbEntity
  8
14
370
    15
390
0
  6
LT22
 62
     7
100
AcDbLine
 10
64.250226
 20
9.207236
 30
0.0
 11
64.250226
 21
8.603506
 31
0.0
  0
LINE
  5
8D
100
AcDbEntity
  8
14
370
    15
390
0
  6
LT22
 62
     7
100
AcDbLine
 10
63.625226
 20
9.207236
 30
0.0
 11
63.625226
 21
8.603506
 31
0.0
  0
LINE
  5
8E
100
AcDbEntity
  8
1
370
    15
390
0
  6
Continuous
 62
     7
100
AcDbLine
 10
64.593726
 20
13.150507
 30
0.0
 11
63.281726
 21
13.150507
 31
0.0
  0
LINE
  5
8F
100
AcDbEntity
  8
1
370
    15
390
0
  6
Continuous
 62
     7
100
AcDbLine
 10
63.281726
 20
13.150507
 30
0.0
 11
63.397725
 21
13.083535
 31
0.0
  0
LINE
  5
90
100
AcDbEntity
  8
1
370
    15
390
0
  6
Continuous
 62
     7
100
AcDbLine
 10
64.593726
 20
13.150507
 30
0.0
 11
64.477727
 21
13.083535
 31
0.0
  0
LINE
  5
91
100
AcDbEntity
  8
1
370
    15
390
0
  6
Continuous
 62
     7
100
AcDbLine
 10
63.397725
 20
13.083535
 30
0.0
 11
64.477727
 21
13.083535
 31
0.0
  0
LINE
  5
92
100
AcDbEntity
  8
14
370
    15
390
0
  6
Continuous
 62
     7
100
AcDbLine
 10
63.397725
 20
12.978507
 30
0.0
 11
63.397725
 21
13.083535
 31
0.0
  0
LINE
  5
93
100
AcDbEntity
  8
14
370
    15
390
0
  6
Continuous
 62
     7
100
AcDbLine
 10
64.477727
 20
12.978507
 30
0.0
 11
64.477727
 21
13.083535
 31
0.0
  0
LINE
  5
94
100
AcDbEntity
  8
14
370
    15
390
0
  6
Continuous
 62
     7
100
AcDbLine
 10
63.937726
 20
13.767776
 30
0.0
 11
63.937726
 21
12.520456
 31
0.0
  0
LINE
  5
95
100
AcDbEntity
  8
1
370
    15
390
0
  6
Continuous
 62
     7
100
AcDbLine
 10
64.687726
 20
13.767776
 30
0.0
 11
64.687726
 21
13.416507
 31
0.0
  0
LINE
  5
96
100
AcDbEntity
  8
1
370
    15
390
0
  6
Continuous
 62
     7
100
AcDbLine
 10
63.187726
 20
13.767776
 30
0.0
 11
63.187726
 21
13.416507
 31
0.0
  0
LINE
  5
97
100
AcDbEntity
  8
1
370
    15
390
0
  6
Continuous
 62
     7
100
AcDbLine
 10
64.687726
 20
13.416507
 30
0.0
 11
63.187726
 21
13.416507
 31
0.0
  0
LINE
  5
98
100
AcDbEntity
  8
1
370
    15
390
0
  6
Continuous
 62
     7
100
AcDbLine
 10
63.187726
 20
13.416507
 30
0.0
 11
63.281726
 21
13.362237
 31
0.0
  0
LINE
  5
99
100
AcDbEntity
  8
1
370
    15
390
0
  6
Continuous
 62
     7
100
AcDbLine
 10
63.281726
 20
13.362237
 30
0.0
 11
63.281726
 21
13.150507
 31
0.0
  0
LINE
  5
9A
100
AcDbEntity
  8
1
370
    15
390
0
  6
Continuous
 62
     7
100
AcDbLine
 10
63.281726
 20
13.362237
 30
0.0
 11
64.593726
 21
13.362237
 31
0.0
  0
LINE
  5
9B
100
AcDbEntity
  8
1
370
    15
390
0
  6
Continuous
 62
     7
100
AcDbLine
 10
64.593726
 20
13.362237
 30
0.0
 11
64.593726
 21
13.150507
 31
0.0
  0
LINE
  5
9C
100
AcDbEntity
  8
1
370
    15
390
0
  6
Continuous
 62
     7
100
AcDbLine
 10
64.687726
 20
13.416507
 30
0.0
 11
64.593726
 21
13.362237
 31
0.0
  0
LINE
  5
9D
100
AcDbEntity
  8
14
370
    15
390
0
  6
Continuous
 62
     7
100
AcDbLine
 10
63.937726
 20
8.41092
 30
0.0
 11
63.937726
 21
9.681966
 31
0.0
  0
LINE
  5
9E
100
AcDbEntity
  8
1
370
    15
390
0
  6
Continuous
 62
     1
100
AcDbLine
 10
68.077671
 20
20.097931
 30
0.0
 11
68.174671
 21
20.194923
 31
0.0
  0
LINE
  5
9F
100
AcDbEntity
  8
1
370
    15
390
0
  6
LT22
 62
     1
100
AcDbLine
 10
68.142658
 20
19.126922
 30
0.0
 11
68.142658
 21
20.162925
 31
0.0
  0
LINE
  5
A0
100
AcDbEntity
  8
1
370
    15
390
0
  6
Continuous
 62
     1
100
AcDbLine
 10
68.077671
 20
17.820923
 30
0.0
 11
68.077671
 21
20.097931
 31
0.0
  0
LINE
  5
A1
100
AcDbEntity
  8
1
370
    15
390
0
  6
Continuous
 62
     1
100
AcDbLine
 10
68.038669
 20
17.781921
 30
0.0
 11
68.077671
 21
17.820923
 31
0.0
  0
LINE
  5
A2
100
AcDbEntity
  8
1
370
    15
390
0
  6
Continuous
 62
     1
100
AcDbLine
 10
68.038669
 20
15.944923
 30
0.0
 11
68.038669
 21
17.781921
 31
0.0
  0
LINE
  5
A3
100
AcDbEntity
  8
1
370
    15
390
0
  6
Continuous
 62
     1
100
AcDbLine
 10
67.997669
 20
15.90393
 30
0.0
 11
68.038669
 21
15.944923
 31
0.0
  0
LINE
  5
A4
100
AcDbEntity
  8
1
370
    15
390
0
  6
Continuous
 62
     1
100
AcDbLine
 10
67.997669
 20
14.038923
 30
0.0
 11
67.997669
 21
15.90393
 31
0.0
  0
LINE
  5
A5
100
AcDbEntity
  8
1
370
    15
390
0
  6
Continuous
 62
     1
100
AcDbLine
 10
67.955661
 20
13.996931
 30
0.0
 11
67.955661
 21
13.236921
 31
0.0
  0
LINE
  5
A6
100
AcDbEntity
  8
1
370
    15
390
0
  6
Continuous
 62
     1
100
AcDbLine
 10
67.955661
 20
13.996923
 30
0.0
 11
67.997669
 21
14.038923
 31
0.0
  0
LINE
  5
A7
100
AcDbEntity
  8
1
370
    15
390
0
  6
Continuous
 62
     1
100
AcDbLine
 10
67.142658
 20
19.569442
 30
0.0
 11
67.142658
 21
19.348358
 31
0.0
  0
LINE
  5
A8
100
AcDbEntity
  8
1
370
    15
390
0
  6
Continuous
 62
     1
100
AcDbLine
 10
67.142658
 20
19.176285
 30
0.0
 11
67.142658
 21
17.573417
 31
0.0
  0
LINE
  5
A9
100
AcDbEntity
  8
1
370
    15
390
0
  6
Continuous
 62
     1
100
AcDbLine
 10
67.142658
 20
17.435234
 30
0.0
 11
67.142658
 21
17.241783
 31
0.0
  0
LINE
  5
AA
100
AcDbEntity
  8
1
370
    15
390
0
  6
Continuous
 62
     1
100
AcDbLine
 10
67.142658
 20
17.103607
 30
0.0
 11
67.142658
 21
14.450575
 31
0.0
  0
LINE
  5
AB
100
AcDbEntity
  8
1
370
    15
390
0
  6
Continuous
 62
     1
100
AcDbLine
 10
67.751667
 20
13.236921
 30
0.0
 11
67.955661
 21
13.236921
 31
0.0
  0
LINE
  5
AC
100
AcDbEntity
  8
1
370
    15
390
0
  6
Continuous
 62
     1
100
AcDbLine
 10
68.174671
 20
20.470573
 30
0.0
 11
68.195667
 21
20.506927
 31
0.0
  0
LINE
  5
AD
100
AcDbEntity
  8
1
370
    15
390
0
  6
Continuous
 62
     1
100
AcDbLine
 10
68.174671
 20
20.470573
 30
0.0
 11
68.174671
 21
20.194923
 31
0.0
  0
LINE
  5
AE
100
AcDbEntity
  8
1
370
    15
390
0
  6
Continuous
 62
     1
100
AcDbLine
 10
67.142658
 20
14.068922
 30
0.0
 11
67.142658
 21
14.291029
 31
0.0
  0
LINE
  5
AF
100
AcDbEntity
  8
1
370
    15
390
0
  6
Continuous
 62
     1
100
AcDbLine
 10
67.751667
 20
12.137342
 30
0.0
 11
67.751667
 21
13.236921
 31
0.0
  0
LINE
  5
B0
100
AcDbEntity
  8
2
370
    15
390
0
  6
Continuous
 62
     7
100
AcDbLine
 10
68.171665
 20
20.506927
 30
0.0
 11
68.171665
 21
20.412925
 31
0.0
  0
LINE
  5
B1
100
AcDbEntity
  8
2
370
    15
390
0
  6
Continuous
 62
     7
100
AcDbLine
 10
68.150669
 20
19.360924
 30
0.0
 11
68.046665
 21
19.256927
 31
0.0
  0
LINE
  5
B2
100
AcDbEntity
  8
2
370
    15
390
0
  6
Continuous
 62
     7
100
AcDbLine
 10
68.150669
 20
20.110389
 30
0.0
 11
68.150669
 21
19.360924
 31
0.0
  0
LINE
  5
B3
100
AcDbEntity
  8
2
370
    15
390
0
  6
Continuous
 62
     7
100
AcDbLine
 10
68.150669
 20
20.110389
 30
0.0
 11
68.059665
 21
20.162925
 31
0.0
  0
LINE
  5
B4
100
AcDbEntity
  8
2
370
    15
390
0
  6
Continuous
 62
     7
100
AcDbLine
 10
68.046665
 20
18.964927
 30
0.0
 11
68.02666
 21
18.944923
 31
0.0
  0
LINE
  5
B5
100
AcDbEntity
  8
2
370
    15
390
0
  6
Continuous
 62
     7
100
AcDbLine
 10
68.171665
 20
20.412925
 30
0.0
 11
68.099659
 21
20.412925
 31
0.0
  0
ARC
  5
B6
100
AcDbEntity
  8
2
370
    15
390
0
  6
Continuous
 62
     7
100
AcDbCircle
 10
68.099676
 20
20.372915
 30
0.0
 40
0.04001
100
AcDbArc
 50
90.024396
 51
179.986533
  0
LINE
  5
B7
100
AcDbEntity
  8
2
370
    15
390
0
  6
Continuous
 62
     7
100
AcDbLine
 10
68.059665
 20
20.162925
 30
0.0
 11
68.059665
 21
20.372925
 31
0.0
  0
LINE
  5
B8
100
AcDbEntity
  8
2
370
    15
390
0
  6
Continuous
 62
     7
100
AcDbLine
 10
68.046665
 20
19.256927
 30
0.0
 11
68.046665
 21
18.964927
 31
0.0
  0
LINE
  5
B9
100
AcDbEntity
  8
2
370
    15
390
0
  6
LT22
 62
     7
100
AcDbLine
 10
68.064197
 20
20.160309
 30
0.0
 11
68.064197
 21
19.27446
 31
0.0
  0
LINE
  5
BA
100
AcDbEntity
  8
2
370
    15
390
0
  6
Continuous
 62
     7
100
AcDbLine
 10
68.034671
 20
17.654876
 30
0.0
 11
68.034671
 21
17.804878
 31
0.0
  0
LINE
  5
BB
100
AcDbEntity
  8
2
370
    15
390
0
  6
Continuous
 62
     7
100
AcDbLine
 10
68.034671
 20
17.654876
 30
0.0
 11
67.928669
 21
17.654876
 31
0.0
  0
LINE
  5
BC
100
AcDbEntity
  8
2
370
    15
390
0
  6
Continuous
 62
     7
100
AcDbLine
 10
67.928669
 20
17.654876
 30
0.0
 11
67.928669
 21
17.260879
 31
0.0
  0
LINE
  5
BD
100
AcDbEntity
  8
2
370
    15
390
0
  6
Continuous
 62
     7
100
AcDbLine
 10
67.928669
 20
17.260879
 30
0.0
 11
68.034671
 21
17.260879
 31
0.0
  0
LINE
  5
BE
100
AcDbEntity
  8
2
370
    15
390
0
  6
Continuous
 62
     7
100
AcDbLine
 10
68.034671
 20
17.260879
 30
0.0
 11
68.034671
 21
17.110878
 31
0.0
  0
LINE
  5
BF
100
AcDbEntity
  8
2
370
    15
390
0
  6
Continuous
 62
     7
100
AcDbLine
 10
67.994663
 20
15.774879
 30
0.0
 11
67.994663
 21
15.924881
 31
0.0
  0
LINE
  5
C0
100
AcDbEntity
  8
2
370
    15
390
0
  6
Continuous
 62
     7
100
AcDbLine
 10
67.994663
 20
15.774879
 30
0.0
 11
67.88866
 21
15.774879
 31
0.0
  0
LINE
  5
C1
100
AcDbEntity
  8
2
370
    15
390
0
  6
Continuous
 62
     7
100
AcDbLine
 10
67.88866
 20
15.774879
 30
0.0
 11
67.88866
 21
15.380882
 31
0.0
  0
LINE
  5
C2
100
AcDbEntity
  8
2
370
    15
390
0
  6
Continuous
 62
     7
100
AcDbLine
 10
67.88866
 20
15.380882
 30
0.0
 11
67.994663
 21
15.380882
 31
0.0
  0
LINE
  5
C3
100
AcDbEntity
  8
2
370
    15
390
0
  6
Continuous
 62
     7
100
AcDbLine
 10
67.994663
 20
15.380882
 30
0.0
 11
67.994663
 21
15.230886
 31
0.0
  0
LINE
  5
C4
100
AcDbEntity
  8
2
370
    15
390
0
  6
Continuous
 62
     7
100
AcDbLine
 10
67.951664
 20
13.472875
 30
0.0
 11
67.841663
 21
13.472875
 31
0.0
  0
LINE
  5
C5
100
AcDbEntity
  8
2
370
    15
390
0
  6
Continuous
 62
     7
100
AcDbLine
 10
67.841663
 20
13.472875
 30
0.0
 11
67.841663
 21
13.86688
 31
0.0
  0
LINE
  5
C6
100
AcDbEntity
  8
2
370
    15
390
0
  6
Continuous
 62
     7
100
AcDbLine
 10
67.841663
 20
13.86688
 30
0.0
 11
67.951664
 21
13.86688
 31
0.0
  0
LINE
  5
C7
100
AcDbEntity
  8
2
370
    15
390
0
  6
Continuous
 62
     7
100
AcDbLine
 10
67.951664
 20
13.86688
 30
0.0
 11
67.951664
 21
14.016882
 31
0.0
  0
ARC
  5
C8
100
AcDbEntity
  8
2
370
    15
390
0
  6
Continuous
 62
     7
100
AcDbCircle
 10
68.000665
 20
17.884886
 30
0.0
 40
0.080008
100
AcDbArc
 50
180.004136
 51
269.995864
  0
LINE
  5
C9
100
AcDbEntity
  8
2
370
    15
390
0
  6
Continuous
 62
     7
100
AcDbLine
 10
68.034671
 20
17.804878
 30
0.0
 11
68.00066
 21
17.804878
 31
0.0
  0
LINE
  5
CA
100
AcDbEntity
  8
2
370
    15
390
0
  6
Continuous
 62
     7
100
AcDbLine
 10
68.034671
 20
17.110878
 30
0.0
 11
67.975391
 21
17.110878
 31
0.0
  0
ARC
  5
CB
100
AcDbEntity
  8
2
370
    15
390
0
  6
Continuous
 62
     7
100
AcDbCircle
 10
67.975397
 20
17.03087
 30
0.0
 40
0.080008
100
AcDbArc
 50
90.004136
 51
179.990399
  0
LINE
  5
CC
100
AcDbEntity
  8
2
370
    15
390
0
  6
Continuous
 62
     7
100
AcDbLine
 10
67.994663
 20
15.924881
 30
0.0
 11
67.975391
 21
15.924881
 31
0.0
  0
ARC
  5
CD
100
AcDbEntity
  8
2
370
    15
390
0
  6
Continuous
 62
     7
100
AcDbCircle
 10
67.975397
 20
16.004888
 30
0.0
 40
0.080008
100
AcDbArc
 50
180.004136
 51
269.995864
  0
LINE
  5
CE
100
AcDbEntity
  8
2
370
    15
390
0
  6
Continuous
 62
     7
100
AcDbLine
 10
67.968662
 20
15.230886
 30
0.0
 11
67.968662
 21
15.230886
 31
0.0
  0
LINE
  5
CF
100
AcDbEntity
  8
2
370
    15
390
0
  6
Continuous
 62
     7
100
AcDbLine
 10
67.920658
 20
17.88488
 30
0.0
 11
67.919941
 21
17.980049
 31
0.0
  0
ARC
  5
D0
100
AcDbEntity
  8
2
370
    15
390
0
  6
Continuous
 62
     7
100
AcDbCircle
 10
68.688394
 20
18.180681
 30
0.0
 40
0.794213
100
AcDbArc
 50
165.164105
 51
194.632473
  0
LINE
  5
D1
100
AcDbEntity
  8
2
370
    15
390
0
  6
Continuous
 62
     7
100
AcDbLine
 10
67.895389
 20
16.773277
 30
0.0
 11
67.895389
 21
17.030884
 31
0.0
  0
LINE
  5
D2
100
AcDbEntity
  8
2
370
    15
390
0
  6
Continuous
 62
     7
100
AcDbLine
 10
67.895389
 20
16.33728
 30
0.0
 11
67.895389
 21
16.004883
 31
0.0
  0
ARC
  5
D3
100
AcDbEntity
  8
2
370
    15
390
0
  6
Continuous
 62
     7
100
AcDbCircle
 10
68.819101
 20
16.555279
 30
0.0
 40
0.949087
100
AcDbArc
 50
166.721014
 51
193.278986
  0
LINE
  5
D4
100
AcDbEntity
  8
2
370
    15
390
0
  6
Continuous
 62
     7
100
AcDbLine
 10
67.88866
 20
15.050375
 30
0.0
 11
67.88866
 21
15.150884
 31
0.0
  0
LINE
  5
D5
100
AcDbEntity
  8
2
370
    15
390
0
  6
Continuous
 62
     7
100
AcDbLine
 10
67.88866
 20
14.646375
 30
0.0
 11
67.88866
 21
14.052877
 31
0.0
  0
ARC
  5
D6
100
AcDbEntity
  8
2
370
    15
390
0
  6
Continuous
 62
     7
100
AcDbCircle
 10
68.708948
 20
14.848375
 30
0.0
 40
0.844794
100
AcDbArc
 50
166.165912
 51
193.834088
  0
LINE
  5
D7
100
AcDbEntity
  8
2
370
    15
390
0
  6
Continuous
 62
     7
100
AcDbLine
 10
67.951664
 20
13.285917
 30
0.0
 11
67.951664
 21
13.271734
 31
0.0
  0
LINE
  5
D8
100
AcDbEntity
  8
2
370
    15
390
0
  6
Continuous
 62
     7
100
AcDbLine
 10
67.951664
 20
13.472875
 30
0.0
 11
67.951664
 21
13.285917
 31
0.0
  0
LINE
  5
D9
100
AcDbEntity
  8
2
370
    15
390
0
  6
Continuous
 62
     7
100
AcDbLine
 10
67.951664
 20
13.271734
 30
0.0
 11
67.925663
 21
13.245733
 31
0.0
  0
LINE
  5
DA
100
AcDbEntity
  8
2
370
    15
390
0
  6
Continuous
 62
     7
100
AcDbLine
 10
67.968662
 20
15.230886
 30
0.0
 11
67.994663
 21
15.230886
 31
0.0
  0
LINE
  5
DB
100
AcDbEntity
  8
2
370
    15
390
0
  6
Continuous
 62
     7
100
AcDbLine
 10
67.88866
 20
14.096884
 30
0.0
 11
67.88866
 21
14.052877
 31
0.0
  0
LINE
  5
DC
100
AcDbEntity
  8
2
370
    15
390
0
  6
Continuous
 62
     7
100
AcDbLine
 10
67.925663
 20
14.016882
 30
0.0
 11
67.924655
 21
14.016882
 31
0.0
  0
LINE
  5
DD
100
AcDbEntity
  8
2
370
    15
390
0
  6
Continuous
 62
     7
100
AcDbLine
 10
67.951664
 20
14.016882
 30
0.0
 11
67.917469
 21
14.016882
 31
0.0
  0
ARC
  5
DE
100
AcDbEntity
  8
2
370
    15
390
0
  6
Continuous
 62
     7
100
AcDbCircle
 10
67.924659
 20
14.052881
 30
0.0
 40
0.035999
100
AcDbArc
 50
180.005382
 51
269.994618
  0
ELLIPSE
  5
DF
100
AcDbEntity
  8
2
370
    15
390
0
  6
Continuous
 62
     7
100
AcDbEllipse
 10
67.404613
 20
14.846861
 30
0.0
 11
0.0
 21
0.2029953002929688
 31
0.0
210
0.0
220
0.0
230
1.0
 40
0.622355
 41
0.0
 42
6.2831853071795862
  0
LINE
  5
E0
100
AcDbEntity
  8
2
370
    15
390
0
  6
Continuous
 62
     7
100
AcDbLine
 10
67.404613
 20
14.810323
 30
0.0
 11
67.404613
 21
14.883398
 31
0.0
  0
LINE
  5
E1
100
AcDbEntity
  8
2
370
    15
390
0
  6
Continuous
 62
     7
100
AcDbLine
 10
67.368076
 20
14.846861
 30
0.0
 11
67.44115
 21
14.846861
 31
0.0
  0
LINE
  5
E2
100
AcDbEntity
  8
2
370
    15
390
0
  6
Continuous
 62
     7
100
AcDbLine
 10
67.483203
 20
14.846861
 30
0.0
 11
67.55521
 21
14.846861
 31
0.0
  0
LINE
  5
E3
100
AcDbEntity
  8
2
370
    15
390
0
  6
Continuous
 62
     7
100
AcDbLine
 10
67.326023
 20
14.846861
 30
0.0
 11
67.254016
 21
14.846861
 31
0.0
  0
LINE
  5
E4
100
AcDbEntity
  8
2
370
    15
390
0
  6
Continuous
 62
     7
100
AcDbLine
 10
67.404613
 20
14.616949
 30
0.0
 11
67.404613
 21
14.768263
 31
0.0
  0
LINE
  5
E5
100
AcDbEntity
  8
2
370
    15
390
0
  6
Continuous
 62
     7
100
AcDbLine
 10
67.404613
 20
15.079908
 30
0.0
 11
67.404613
 21
14.925451
 31
0.0
  0
ELLIPSE
  5
E6
100
AcDbEntity
  8
2
370
    15
390
0
  6
Continuous
 62
     7
100
AcDbEllipse
 10
67.404613
 20
16.555282
 30
0.0
 11
0.0
 21
0.2029953002929688
 31
0.0
210
0.0
220
0.0
230
1.0
 40
0.622355
 41
0.0
 42
6.2831853071795862
  0
LINE
  5
E7
100
AcDbEntity
  8
2
370
    15
390
0
  6
Continuous
 62
     7
100
AcDbLine
 10
67.404613
 20
16.518745
 30
0.0
 11
67.404613
 21
16.591819
 31
0.0
  0
LINE
  5
E8
100
AcDbEntity
  8
2
370
    15
390
0
  6
Continuous
 62
     7
100
AcDbLine
 10
67.368076
 20
16.555282
 30
0.0
 11
67.44115
 21
16.555282
 31
0.0
  0
LINE
  5
E9
100
AcDbEntity
  8
2
370
    15
390
0
  6
Continuous
 62
     7
100
AcDbLine
 10
67.483211
 20
16.555282
 30
0.0
 11
67.55521
 21
16.555282
 31
0.0
  0
LINE
  5
EA
100
AcDbEntity
  8
2
370
    15
390
0
  6
Continuous
 62
     7
100
AcDbLine
 10
67.326023
 20
16.555282
 30
0.0
 11
67.254016
 21
16.555282
 31
0.0
  0
LINE
  5
EB
100
AcDbEntity
  8
2
370
    15
390
0
  6
Continuous
 62
     7
100
AcDbLine
 10
67.404613
 20
16.325378
 30
0.0
 11
67.404613
 21
16.476684
 31
0.0
  0
LINE
  5
EC
100
AcDbEntity
  8
2
370
    15
390
0
  6
Continuous
 62
     7
100
AcDbLine
 10
67.404613
 20
16.78833
 30
0.0
 11
67.404613
 21
16.63388
 31
0.0
  0
ELLIPSE
  5
ED
100
AcDbEntity
  8
2
370
    15
390
0
  6
Continuous
 62
     7
100
AcDbEllipse
 10
67.404613
 20
18.181511
 30
0.0
 11
0.0
 21
0.2029953002929688
 31
0.0
210
0.0
220
0.0
230
1.0
 40
0.622355
 41
0.0
 42
6.2831853071795862
  0
LINE
  5
EE
100
AcDbEntity
  8
2
370
    15
390
0
  6
Continuous
 62
     7
100
AcDbLine
 10
67.404613
 20
18.144973
 30
0.0
 11
67.404613
 21
18.218048
 31
0.0
  0
LINE
  5
EF
100
AcDbEntity
  8
2
370
    15
390
0
  6
Continuous
 62
     7
100
AcDbLine
 10
67.368076
 20
18.181511
 30
0.0
 11
67.44115
 21
18.181511
 31
0.0
  0
LINE
  5
F0
100
AcDbEntity
  8
2
370
    15
390
0
  6
Continuous
 62
     7
100
AcDbLine
 10
67.483211
 20
18.181511
 30
0.0
 11
67.55521
 21
18.181511
 31
0.0
  0
LINE
  5
F1
100
AcDbEntity
  8
2
370
    15
390
0
  6
Continuous
 62
     7
100
AcDbLine
 10
67.326023
 20
18.181511
 30
0.0
 11
67.254016
 21
18.181511
 31
0.0
  0
LINE
  5
F2
100
AcDbEntity
  8
2
370
    15
390
0
  6
Continuous
 62
     7
100
AcDbLine
 10
67.404613
 20
17.951606
 30
0.0
 11
67.404613
 21
18.102913
 31
0.0
  0
LINE
  5
F3
100
AcDbEntity
  8
2
370
    15
390
0
  6
Continuous
 62
     7
100
AcDbLine
 10
67.404613
 20
18.414558
 30
0.0
 11
67.404613
 21
18.260109
 31
0.0
  0
LINE
  5
F4
100
AcDbEntity
  8
2
370
    15
390
0
  6
Continuous
 62
     7
100
AcDbLine
 10
67.920658
 20
18.944923
 30
0.0
 11
67.920658
 21
18.384041
 31
0.0
  0
LINE
  5
F5
100
AcDbEntity
  8
2
370
    15
390
0
  6
Continuous
 62
     7
100
AcDbLine
 10
67.841663
 20
13.504217
 30
0.0
 11
67.947666
 21
13.504217
 31
0.0
  0
LINE
  5
F6
100
AcDbEntity
  8
2
370
    15
390
0
  6
Continuous
 62
     7
100
AcDbLine
 10
67.947666
 20
13.504217
 30
0.0
 11
67.947666
 21
13.582212
 31
0.0
  0
ARC
  5
F7
100
AcDbEntity
  8
2
370
    15
390
0
  6
Continuous
 62
     7
100
AcDbCircle
 10
67.927661
 20
13.582204
 30
0.0
 40
0.020005
100
AcDbArc
 50
0.024395
 51
90.0
  0
ARC
  5
F8
100
AcDbEntity
  8
2
370
    15
390
0
  6
Continuous
 62
     7
100
AcDbCircle
 10
67.861668
 20
13.582204
 30
0.0
 40
0.020005
100
AcDbArc
 50
90.0
 51
179.975605
  0
LINE
  5
F9
100
AcDbEntity
  8
2
370
    15
390
0
  6
Continuous
 62
     7
100
AcDbLine
 10
67.841663
 20
13.504217
 30
0.0
 11
67.841663
 21
13.582212
 31
0.0
  0
ARC
  5
FA
100
AcDbEntity
  8
2
370
    15
390
0
  6
Continuous
 62
     7
100
AcDbCircle
 10
67.894664
 20
13.666299
 30
0.0
 40
0.072086
100
AcDbArc
 50
242.758144
 51
297.241856
  0
LINE
  5
FB
100
AcDbEntity
  8
2
370
    15
390
0
  6
Continuous
 62
     7
100
AcDbLine
 10
67.841663
 20
13.835195
 30
0.0
 11
67.947666
 21
13.835195
 31
0.0
  0
LINE
  5
FC
100
AcDbEntity
  8
2
370
    15
390
0
  6
Continuous
 62
     7
100
AcDbLine
 10
67.947666
 20
13.835195
 30
0.0
 11
67.947666
 21
13.757192
 31
0.0
  0
ARC
  5
FD
100
AcDbEntity
  8
2
370
    15
390
0
  6
Continuous
 62
     7
100
AcDbCircle
 10
67.927661
 20
13.757201
 30
0.0
 40
0.020005
100
AcDbArc
 50
270.0
 51
359.975605
  0
ARC
  5
FE
100
AcDbEntity
  8
2
370
    15
390
0
  6
Continuous
 62
     7
100
AcDbCircle
 10
67.861668
 20
13.757201
 30
0.0
 40
0.020005
100
AcDbArc
 50
180.024395
 51
270.0
  0
LINE
  5
FF
100
AcDbEntity
  8
2
370
    15
390
0
  6
Continuous
 62
     7
100
AcDbLine
 10
67.841663
 20
13.835195
 30
0.0
 11
67.841663
 21
13.757192
 31
0.0
  0
ARC
  5
100
100
AcDbEntity
  8
2
370
    15
390
0
  6
Continuous
 62
     7
100
AcDbCircle
 10
67.894664
 20
13.673174
 30
0.0
 40
0.072025
100
AcDbArc
 50
62.733119
 51
117.266881
  0
LINE
  5
101
100
AcDbEntity
  8
2
370
    15
390
0
  6
Continuous
 62
     7
100
AcDbLine
 10
67.88866
 20
15.412468
 30
0.0
 11
67.994663
 21
15.412468
 31
0.0
  0
LINE
  5
102
100
AcDbEntity
  8
2
370
    15
390
0
  6
Continuous
 62
     7
100
AcDbLine
 10
67.994663
 20
15.412468
 30
0.0
 11
67.994663
 21
15.490471
 31
0.0
  0
ARC
  5
103
100
AcDbEntity
  8
2
370
    15
390
0
  6
Continuous
 62
     7
100
AcDbCircle
 10
67.974658
 20
15.49047
 30
0.0
 40
0.020005
100
AcDbArc
 50
0.002535
 51
90.0
  0
ARC
  5
104
100
AcDbEntity
  8
2
370
    15
390
0
  6
Continuous
 62
     7
100
AcDbCircle
 10
67.908665
 20
15.49047
 30
0.0
 40
0.020005
100
AcDbArc
 50
90.0
 51
179.997465
  0
LINE
  5
105
100
AcDbEntity
  8
2
370
    15
390
0
  6
Continuous
 62
     7
100
AcDbLine
 10
67.88866
 20
15.412468
 30
0.0
 11
67.88866
 21
15.490471
 31
0.0
  0
ARC
  5
106
100
AcDbEntity
  8
2
370
    15
390
0
  6
Continuous
 62
     7
100
AcDbCircle
 10
67.941661
 20
15.574496
 30
0.0
 40
0.072025
100
AcDbArc
 50
242.733119
 51
297.266881
  0
LINE
  5
107
100
AcDbEntity
  8
2
370
    15
390
0
  6
Continuous
 62
     7
100
AcDbLine
 10
67.88866
 20
15.743454
 30
0.0
 11
67.994663
 21
15.743454
 31
0.0
  0
LINE
  5
108
100
AcDbEntity
  8
2
370
    15
390
0
  6
Continuous
 62
     7
100
AcDbLine
 10
67.994663
 20
15.743454
 30
0.0
 11
67.994663
 21
15.665458
 31
0.0
  0
ARC
  5
109
100
AcDbEntity
  8
2
370
    15
390
0
  6
Continuous
 62
     7
100
AcDbCircle
 10
67.974658
 20
15.665459
 30
0.0
 40
0.020005
100
AcDbArc
 50
270.0
 51
359.997465
  0
ARC
  5
10A
100
AcDbEntity
  8
2
370
    15
390
0
  6
Continuous
 62
     7
100
AcDbCircle
 10
67.908665
 20
15.665459
 30
0.0
 40
0.020005
100
AcDbArc
 50
180.002535
 51
270.0
  0
LINE
  5
10B
100
AcDbEntity
  8
2
370
    15
390
0
  6
Continuous
 62
     7
100
AcDbLine
 10
67.88866
 20
15.743454
 30
0.0
 11
67.88866
 21
15.665458
 31
0.0
  0
ARC
  5
10C
100
AcDbEntity
  8
2
370
    15
390
0
  6
Continuous
 62
     7
100
AcDbCircle
 10
67.941661
 20
15.581433
 30
0.0
 40
0.072025
100
AcDbArc
 50
62.733119
 51
117.266881
  0
ARC
  5
10D
100
AcDbEntity
  8
2
370
    15
390
0
  6
Continuous
 62
     7
100
AcDbCircle
 10
67.968668
 20
15.150871
 30
0.0
 40
0.080008
100
AcDbArc
 50
90.004136
 51
179.990399
  0
LINE
  5
10E
100
AcDbEntity
  8
2
370
    15
390
0
  6
Continuous
 62
     7
100
AcDbLine
 10
67.928669
 20
17.292877
 30
0.0
 11
68.034656
 21
17.292877
 31
0.0
  0
LINE
  5
10F
100
AcDbEntity
  8
2
370
    15
390
0
  6
Continuous
 62
     7
100
AcDbLine
 10
68.034656
 20
17.292877
 30
0.0
 11
68.034656
 21
17.37088
 31
0.0
  0
ARC
  5
110
100
AcDbEntity
  8
2
370
    15
390
0
  6
Continuous
 62
     7
100
AcDbCircle
 10
68.014664
 20
17.370884
 30
0.0
 40
0.019992
100
AcDbArc
 50
359.987074
 51
449.991062
  0
ARC
  5
111
100
AcDbEntity
  8
2
370
    15
390
0
  6
Continuous
 62
     7
100
AcDbCircle
 10
67.948661
 20
17.370884
 30
0.0
 40
0.019992
100
AcDbArc
 50
90.008938
 51
180.012926
  0
LINE
  5
112
100
AcDbEntity
  8
2
370
    15
390
0
  6
Continuous
 62
     7
100
AcDbLine
 10
67.928669
 20
17.292877
 30
0.0
 11
67.928669
 21
17.37088
 31
0.0
  0
ARC
  5
113
100
AcDbEntity
  8
2
370
    15
390
0
  6
Continuous
 62
     7
100
AcDbCircle
 10
67.981662
 20
17.454998
 30
0.0
 40
0.072117
100
AcDbArc
 50
242.764206
 51
297.235794
  0
LINE
  5
114
100
AcDbEntity
  8
2
370
    15
390
0
  6
Continuous
 62
     7
100
AcDbLine
 10
67.928669
 20
17.623863
 30
0.0
 11
68.034656
 21
17.623863
 31
0.0
  0
LINE
  5
115
100
AcDbEntity
  8
2
370
    15
390
0
  6
Continuous
 62
     7
100
AcDbLine
 10
68.034656
 20
17.623863
 30
0.0
 11
68.034656
 21
17.54586
 31
0.0
  0
ARC
  5
116
100
AcDbEntity
  8
2
370
    15
390
0
  6
Continuous
 62
     7
100
AcDbCircle
 10
68.014664
 20
17.545856
 30
0.0
 40
0.019992
100
AcDbArc
 50
270.008938
 51
360.012926
  0
ARC
  5
117
100
AcDbEntity
  8
2
370
    15
390
0
  6
Continuous
 62
     7
100
AcDbCircle
 10
67.948661
 20
17.545856
 30
0.0
 40
0.019992
100
AcDbArc
 50
179.987074
 51
269.991062
  0
LINE
  5
118
100
AcDbEntity
  8
2
370
    15
390
0
  6
Continuous
 62
     7
100
AcDbLine
 10
67.928669
 20
17.623863
 30
0.0
 11
67.928669
 21
17.54586
 31
0.0
  0
ARC
  5
119
100
AcDbEntity
  8
2
370
    15
390
0
  6
Continuous
 62
     7
100
AcDbCircle
 10
67.981662
 20
17.46181
 30
0.0
 40
0.072056
100
AcDbArc
 50
62.739187
 51
117.260813
  0
LINE
  5
11A
100
AcDbEntity
  8
2
370
    15
390
0
  6
Continuous
 62
     7
100
AcDbLine
 10
68.171665
 20
20.412925
 30
0.0
 11
68.099659
 21
20.412925
 31
0.0
  0
ARC
  5
11B
100
AcDbEntity
  8
2
370
    15
390
0
  6
Continuous
 62
     7
100
AcDbCircle
 10
68.099676
 20
20.372915
 30
0.0
 40
0.04001
100
AcDbArc
 50
90.024396
 51
179.986533
  0
LINE
  5
11C
100
AcDbEntity
  8
2
370
    15
390
0
  6
Continuous
 62
     7
100
AcDbLine
 10
68.059665
 20
20.162925
 30
0.0
 11
68.059665
 21
20.372925
 31
0.0
  0
LINE
  5
11D
100
AcDbEntity
  8
2
370
    15
390
0
  6
Continuous
 62
     7
100
AcDbLine
 10
68.059665
 20
20.169143
 30
0.0
 11
68.165668
 21
20.169143
 31
0.0
  0
LINE
  5
11E
100
AcDbEntity
  8
2
370
    15
390
0
  6
Continuous
 62
     7
100
AcDbLine
 10
68.165668
 20
20.169143
 30
0.0
 11
68.165668
 21
20.247146
 31
0.0
  0
ARC
  5
11F
100
AcDbEntity
  8
2
370
    15
390
0
  6
Continuous
 62
     7
100
AcDbCircle
 10
68.145676
 20
20.247151
 30
0.0
 40
0.019992
100
AcDbArc
 50
359.987081
 51
450.034776
  0
ARC
  5
120
100
AcDbEntity
  8
2
370
    15
390
0
  6
Continuous
 62
     7
100
AcDbCircle
 10
68.079657
 20
20.247151
 30
0.0
 40
0.019992
100
AcDbArc
 50
89.965224
 51
180.012919
  0
LINE
  5
121
100
AcDbEntity
  8
2
370
    15
390
0
  6
Continuous
 62
     7
100
AcDbLine
 10
68.059665
 20
20.169143
 30
0.0
 11
68.059665
 21
20.247146
 31
0.0
  0
ARC
  5
122
100
AcDbEntity
  8
2
370
    15
390
0
  6
Continuous
 62
     7
100
AcDbCircle
 10
68.112667
 20
20.331233
 30
0.0
 40
0.072086
100
AcDbArc
 50
242.758142
 51
297.241858
  0
LINE
  5
123
100
AcDbEntity
  8
2
370
    15
390
0
  6
Continuous
 62
     7
100
AcDbLine
 10
67.142658
 20
20.412925
 30
0.0
 11
68.099659
 21
20.412925
 31
0.0
  0
LINE
  5
124
100
AcDbEntity
  8
2
370
    15
390
0
  6
Continuous
 62
     7
100
AcDbLine
 10
67.142658
 20
20.372925
 30
0.0
 11
68.059665
 21
20.372925
 31
0.0
  0
LINE
  5
125
100
AcDbEntity
  8
2
370
    15
390
0
  6
Continuous
 62
     7
100
AcDbLine
 10
67.142658
 20
20.162925
 30
0.0
 11
68.059665
 21
20.162925
 31
0.0
  0
LINE
  5
126
100
AcDbEntity
  8
2
370
    15
390
0
  6
Continuous
 62
     7
100
AcDbLine
 10
67.142658
 20
20.110389
 30
0.0
 11
68.150669
 21
20.110389
 31
0.0
  0
LINE
  5
127
100
AcDbEntity
  8
2
370
    15
390
0
  6
Continuous
 62
     7
100
AcDbLine
 10
67.142658
 20
19.360924
 30
0.0
 11
68.150669
 21
19.360924
 31
0.0
  0
LINE
  5
128
100
AcDbEntity
  8
2
370
    15
390
0
  6
Continuous
 62
     7
100
AcDbLine
 10
67.142658
 20
19.256927
 30
0.0
 11
68.046665
 21
19.256927
 31
0.0
  0
LINE
  5
129
100
AcDbEntity
  8
2
370
    15
390
0
  6
Continuous
 62
     7
100
AcDbLine
 10
67.142658
 20
18.964927
 30
0.0
 11
68.046665
 21
18.964927
 31
0.0
  0
LINE
  5
12A
100
AcDbEntity
  8
2
370
    15
390
0
  6
Continuous
 62
     7
100
AcDbLine
 10
67.142658
 20
18.944923
 30
0.0
 11
68.02666
 21
18.944923
 31
0.0
  0
LINE
  5
12B
100
AcDbEntity
  8
2
370
    15
390
0
  6
Continuous
 62
     7
100
AcDbLine
 10
67.142658
 20
17.804878
 30
0.0
 11
68.00066
 21
17.804878
 31
0.0
  0
LINE
  5
12C
100
AcDbEntity
  8
2
370
    15
390
0
  6
Continuous
 62
     7
100
AcDbLine
 10
67.142658
 20
17.654876
 30
0.0
 11
67.928669
 21
17.654876
 31
0.0
  0
LINE
  5
12D
100
AcDbEntity
  8
2
370
    15
390
0
  6
Continuous
 62
     7
100
AcDbLine
 10
67.142658
 20
17.260879
 30
0.0
 11
67.928669
 21
17.260879
 31
0.0
  0
LINE
  5
12E
100
AcDbEntity
  8
2
370
    15
390
0
  6
Continuous
 62
     7
100
AcDbLine
 10
67.142658
 20
17.110878
 30
0.0
 11
67.975391
 21
17.110878
 31
0.0
  0
LINE
  5
12F
100
AcDbEntity
  8
2
370
    15
390
0
  6
Continuous
 62
     7
100
AcDbLine
 10
67.142658
 20
15.924881
 30
0.0
 11
67.975391
 21
15.924881
 31
0.0
  0
LINE
  5
130
100
AcDbEntity
  8
2
370
    15
390
0
  6
Continuous
 62
     7
100
AcDbLine
 10
67.142658
 20
15.774879
 30
0.0
 11
67.88866
 21
15.774879
 31
0.0
  0
LINE
  5
131
100
AcDbEntity
  8
2
370
    15
390
0
  6
Continuous
 62
     7
100
AcDbLine
 10
67.142658
 20
15.380882
 30
0.0
 11
67.88866
 21
15.380882
 31
0.0
  0
LINE
  5
132
100
AcDbEntity
  8
2
370
    15
390
0
  6
Continuous
 62
     7
100
AcDbLine
 10
67.142658
 20
15.230886
 30
0.0
 11
67.968662
 21
15.230886
 31
0.0
  0
LINE
  5
133
100
AcDbEntity
  8
2
370
    15
390
0
  6
Continuous
 62
     7
100
AcDbLine
 10
67.142658
 20
14.016882
 30
0.0
 11
67.917469
 21
14.016882
 31
0.0
  0
LINE
  5
134
100
AcDbEntity
  8
2
370
    15
390
0
  6
Continuous
 62
     7
100
AcDbLine
 10
67.142658
 20
13.86688
 30
0.0
 11
67.841663
 21
13.86688
 31
0.0
  0
LINE
  5
135
100
AcDbEntity
  8
2
370
    15
390
0
  6
Continuous
 62
     7
100
AcDbLine
 10
67.142658
 20
13.472875
 30
0.0
 11
67.841663
 21
13.472875
 31
0.0
  0
LINE
  5
136
100
AcDbEntity
  8
2
370
    15
390
0
  6
Continuous
 62
     7
100
AcDbLine
 10
67.142658
 20
13.271734
 30
0.0
 11
67.951664
 21
13.271734
 31
0.0
  0
LINE
  5
137
100
AcDbEntity
  8
2
370
    15
390
0
  6
Continuous
 62
     7
100
AcDbLine
 10
67.142658
 20
13.245733
 30
0.0
 11
67.925663
 21
13.245733
 31
0.0
  0
LINE
  5
138
100
AcDbEntity
  8
2
370
    15
390
0
  6
Continuous
 62
     7
100
AcDbLine
 10
68.4417
 20
21.774788
 30
0.0
 11
68.252658
 21
21.883926
 31
0.0
  0
ARC
  5
139
100
AcDbEntity
  8
2
370
    15
390
0
  6
Continuous
 62
     7
100
AcDbCircle
 10
68.116939
 20
21.346169
 30
0.0
 40
0.537758
100
AcDbArc
 50
52.849143
 51
127.150857
  0
LINE
  5
13A
100
AcDbEntity
  8
2
370
    15
390
0
  6
Continuous
 62
     7
100
AcDbLine
 10
68.4417
 20
20.992065
 30
0.0
 11
68.252658
 21
20.882927
 31
0.0
  0
ARC
  5
13B
100
AcDbEntity
  8
2
370
    15
390
0
  6
Continuous
 62
     7
100
AcDbCircle
 10
68.116939
 20
21.420684
 30
0.0
 40
0.537758
100
AcDbArc
 50
232.849143
 51
307.150857
  0
LINE
  5
13C
100
AcDbEntity
  8
2
370
    15
390
0
  6
Continuous
 62
     7
100
AcDbLine
 10
67.792179
 20
21.774788
 30
0.0
 11
67.792179
 21
20.992065
 31
0.0
  0
LINE
  5
13D
100
AcDbEntity
  8
2
370
    15
390
0
  6
Continuous
 62
     7
100
AcDbLine
 10
68.4417
 20
21.774788
 30
0.0
 11
68.4417
 21
20.992065
 31
0.0
  0
LINE
  5
13E
100
AcDbEntity
  8
2
370
    15
390
0
  6
Continuous
 62
     7
100
AcDbLine
 10
67.142658
 20
20.882927
 30
0.0
 11
68.252658
 21
20.882927
 31
0.0
  0
ARC
  5
13F
100
AcDbEntity
  8
2
370
    15
390
0
  6
Continuous
 62
     7
100
AcDbCircle
 10
67.142675
 20
22.870157
 30
0.0
 40
1.98723
100
AcDbArc
 50
269.999512
 51
289.077016
  0
ARC
  5
140
100
AcDbEntity
  8
2
370
    15
390
0
  6
Continuous
 62
     7
100
AcDbCircle
 10
67.142606
 20
19.896428
 30
0.0
 40
1.987506
100
AcDbArc
 50
70.923647
 51
89.998515
  0
LINE
  5
141
100
AcDbEntity
  8
2
370
    15
390
0
  6
Continuous
 62
     7
100
AcDbLine
 10
67.142658
 20
21.883926
 30
0.0
 11
68.252658
 21
21.883926
 31
0.0
  0
LINE
  5
142
100
AcDbEntity
  8
1
370
    15
390
0
  6
Continuous
 62
     1
100
AcDbLine
 10
67.142658
 20
20.55101
 30
0.0
 11
67.142658
 21
19.69487
 31
0.0
  0
LINE
  5
143
100
AcDbEntity
  8
1
370
    15
390
0
  6
Continuous
 62
     7
100
AcDbLine
 10
66.207645
 20
20.097931
 30
0.0
 11
66.110645
 21
20.194923
 31
0.0
  0
LINE
  5
144
100
AcDbEntity
  8
1
370
    15
390
0
  6
LT22
 62
     7
100
AcDbLine
 10
66.142658
 20
19.126922
 30
0.0
 11
66.142658
 21
20.162925
 31
0.0
  0
LINE
  5
145
100
AcDbEntity
  8
1
370
    15
390
0
  6
Continuous
 62
     7
100
AcDbLine
 10
66.207645
 20
17.820923
 30
0.0
 11
66.207645
 21
20.097931
 31
0.0
  0
LINE
  5
146
100
AcDbEntity
  8
1
370
    15
390
0
  6
Continuous
 62
     7
100
AcDbLine
 10
66.089664
 20
20.506927
 30
0.0
 11
66.062656
 21
20.506927
 31
0.0
  0
LINE
  5
147
100
AcDbEntity
  8
1
370
    15
390
0
  6
Continuous
 62
     7
100
AcDbLine
 10
66.110645
 20
20.470573
 30
0.0
 11
66.089664
 21
20.506927
 31
0.0
  0
LINE
  5
148
100
AcDbEntity
  8
1
370
    15
390
0
  6
Continuous
 62
     7
100
AcDbLine
 10
66.110645
 20
20.470573
 30
0.0
 11
66.110645
 21
20.194923
 31
0.0
  0
LINE
  5
149
100
AcDbEntity
  8
1
370
    15
390
0
  6
Continuous
 62
     7
100
AcDbLine
 10
66.329654
 20
13.966161
 30
0.0
 11
66.329654
 21
13.236921
 31
0.0
  0
LINE
  5
14A
100
AcDbEntity
  8
1
370
    15
390
0
  6
Continuous
 62
     7
100
AcDbLine
 10
66.287647
 20
15.873909
 30
0.0
 11
66.287647
 21
14.038923
 31
0.0
  0
LINE
  5
14B
100
AcDbEntity
  8
1
370
    15
390
0
  6
Continuous
 62
     7
100
AcDbLine
 10
66.246646
 20
17.753372
 30
0.0
 11
66.246646
 21
15.944923
 31
0.0
  0
LINE
  5
14C
100
AcDbEntity
  8
1
370
    15
390
0
  6
Continuous
 62
     7
100
AcDbLine
 10
66.329654
 20
13.236921
 30
0.0
 11
66.639087
 21
13.236921
 31
0.0
  0
LINE
  5
14D
100
AcDbEntity
  8
1
370
    15
390
0
  6
Continuous
 62
     1
100
AcDbLine
 10
68.505161
 20
15.192922
 30
0.0
 11
67.997669
 21
15.192922
 31
0.0
  0
LINE
  5
14E
100
AcDbEntity
  8
1
370
    15
390
0
  6
Continuous
 62
     1
100
AcDbLine
 10
68.505161
 20
17.09893
 30
0.0
 11
68.038669
 21
17.09893
 31
0.0
  0
LINE
  5
14F
100
AcDbEntity
  8
1
370
    15
390
0
  6
Continuous
 62
     1
100
AcDbLine
 10
68.505161
 20
19.350929
 30
0.0
 11
68.077671
 21
19.350929
 31
0.0
  0
LINE
  5
150
100
AcDbEntity
  8
1
370
    15
390
0
  6
Continuous
 62
     1
100
AcDbLine
 10
68.505161
 20
20.506927
 30
0.0
 11
68.475589
 21
20.36177
 31
0.0
  0
LINE
  5
151
100
AcDbEntity
  8
1
370
    15
390
0
  6
Continuous
 62
     1
100
AcDbLine
 10
68.475589
 20
20.36177
 30
0.0
 11
68.416462
 21
20.140129
 31
0.0
  0
LINE
  5
152
100
AcDbEntity
  8
1
370
    15
390
0
  6
Continuous
 62
     1
100
AcDbLine
 10
68.416462
 20
20.140129
 30
0.0
 11
68.431247
 21
20.036689
 31
0.0
  0
LINE
  5
153
100
AcDbEntity
  8
1
370
    15
390
0
  6
Continuous
 62
     1
100
AcDbLine
 10
68.431247
 20
20.036689
 30
0.0
 11
68.446033
 21
19.962814
 31
0.0
  0
LINE
  5
154
100
AcDbEntity
  8
1
370
    15
390
0
  6
Continuous
 62
     1
100
AcDbLine
 10
68.446033
 20
19.962814
 30
0.0
 11
68.490375
 21
19.785499
 31
0.0
  0
LINE
  5
155
100
AcDbEntity
  8
1
370
    15
390
0
  6
Continuous
 62
     1
100
AcDbLine
 10
68.490375
 20
19.785499
 30
0.0
 11
68.475589
 21
19.667289
 31
0.0
  0
LINE
  5
156
100
AcDbEntity
  8
1
370
    15
390
0
  6
Continuous
 62
     1
100
AcDbLine
 10
68.475589
 20
19.667289
 30
0.0
 11
68.460811
 21
19.622963
 31
0.0
  0
LINE
  5
157
100
AcDbEntity
  8
1
370
    15
390
0
  6
Continuous
 62
     1
100
AcDbLine
 10
68.460811
 20
19.622963
 30
0.0
 11
68.460811
 21
19.54908
 31
0.0
  0
LINE
  5
158
100
AcDbEntity
  8
1
370
    15
390
0
  6
Continuous
 62
     1
100
AcDbLine
 10
68.460811
 20
19.54908
 30
0.0
 11
68.460811
 21
19.43087
 31
0.0
  0
LINE
  5
159
100
AcDbEntity
  8
1
370
    15
390
0
  6
Continuous
 62
     1
100
AcDbLine
 10
68.460811
 20
19.43087
 30
0.0
 11
68.505161
 21
19.350929
 31
0.0
  0
LINE
  5
15A
100
AcDbEntity
  8
1
370
    15
390
0
  6
Continuous
 62
     1
100
AcDbLine
 10
68.505161
 20
19.350929
 30
0.0
 11
68.446033
 21
19.105797
 31
0.0
  0
LINE
  5
15B
100
AcDbEntity
  8
1
370
    15
390
0
  6
Continuous
 62
     1
100
AcDbLine
 10
68.446033
 20
19.105797
 30
0.0
 11
68.431247
 21
19.031913
 31
0.0
  0
LINE
  5
15C
100
AcDbEntity
  8
1
370
    15
390
0
  6
Continuous
 62
     1
100
AcDbLine
 10
68.38689
 20
18.70684
 30
0.0
 11
68.38689
 21
18.58863
 31
0.0
  0
LINE
  5
15D
100
AcDbEntity
  8
1
370
    15
390
0
  6
Continuous
 62
     1
100
AcDbLine
 10
68.38689
 20
18.58863
 30
0.0
 11
68.401676
 21
18.529525
 31
0.0
  0
LINE
  5
15E
100
AcDbEntity
  8
1
370
    15
390
0
  6
Continuous
 62
     1
100
AcDbLine
 10
68.401676
 20
18.529525
 30
0.0
 11
68.401676
 21
18.293106
 31
0.0
  0
LINE
  5
15F
100
AcDbEntity
  8
1
370
    15
390
0
  6
Continuous
 62
     1
100
AcDbLine
 10
68.401676
 20
18.293106
 30
0.0
 11
68.38689
 21
18.115791
 31
0.0
  0
LINE
  5
160
100
AcDbEntity
  8
1
370
    15
390
0
  6
Continuous
 62
     1
100
AcDbLine
 10
68.38689
 20
18.115791
 30
0.0
 11
68.431247
 21
17.894157
 31
0.0
  0
LINE
  5
161
100
AcDbEntity
  8
1
370
    15
390
0
  6
Continuous
 62
     1
100
AcDbLine
 10
68.431247
 20
17.894157
 30
0.0
 11
68.460811
 21
17.731621
 31
0.0
  0
LINE
  5
162
100
AcDbEntity
  8
1
370
    15
390
0
  6
Continuous
 62
     1
100
AcDbLine
 10
68.460811
 20
17.731621
 30
0.0
 11
68.446033
 21
17.672508
 31
0.0
  0
LINE
  5
163
100
AcDbEntity
  8
1
370
    15
390
0
  6
Continuous
 62
     1
100
AcDbLine
 10
68.446033
 20
17.672508
 30
0.0
 11
68.431247
 21
17.613411
 31
0.0
  0
LINE
  5
164
100
AcDbEntity
  8
1
370
    15
390
0
  6
Continuous
 62
     1
100
AcDbLine
 10
68.431247
 20
17.613411
 30
0.0
 11
68.431247
 21
17.450874
 31
0.0
  0
LINE
  5
165
100
AcDbEntity
  8
1
370
    15
390
0
  6
Continuous
 62
     1
100
AcDbLine
 10
68.431247
 20
17.450874
 30
0.0
 11
68.460811
 21
17.391762
 31
0.0
  0
LINE
  5
166
100
AcDbEntity
  8
1
370
    15
390
0
  6
Continuous
 62
     1
100
AcDbLine
 10
68.460811
 20
17.391762
 30
0.0
 11
68.490375
 21
17.273559
 31
0.0
  0
LINE
  5
167
100
AcDbEntity
  8
1
370
    15
390
0
  6
Continuous
 62
     1
100
AcDbLine
 10
68.490375
 20
17.273559
 30
0.0
 11
68.490375
 21
17.170128
 31
0.0
  0
LINE
  5
168
100
AcDbEntity
  8
1
370
    15
390
0
  6
Continuous
 62
     1
100
AcDbLine
 10
68.490375
 20
17.170128
 30
0.0
 11
68.490375
 21
17.066688
 31
0.0
  0
LINE
  5
169
100
AcDbEntity
  8
1
370
    15
390
0
  6
Continuous
 62
     1
100
AcDbLine
 10
68.490375
 20
17.066688
 30
0.0
 11
68.460811
 21
16.992813
 31
0.0
  0
LINE
  5
16A
100
AcDbEntity
  8
1
370
    15
390
0
  6
Continuous
 62
     1
100
AcDbLine
 10
68.431247
 20
16.712066
 30
0.0
 11
68.431247
 21
16.505195
 31
0.0
  0
LINE
  5
16B
100
AcDbEntity
  8
1
370
    15
390
0
  6
Continuous
 62
     1
100
AcDbLine
 10
68.431247
 20
16.505195
 30
0.0
 11
68.446033
 21
16.357437
 31
0.0
  0
LINE
  5
16C
100
AcDbEntity
  8
1
370
    15
390
0
  6
Continuous
 62
     1
100
AcDbLine
 10
68.446033
 20
16.357437
 30
0.0
 11
68.490375
 21
16.224449
 31
0.0
  0
LINE
  5
16D
100
AcDbEntity
  8
1
370
    15
390
0
  6
Continuous
 62
     1
100
AcDbLine
 10
68.490375
 20
16.224449
 30
0.0
 11
68.490375
 21
16.106239
 31
0.0
  0
LINE
  5
16E
100
AcDbEntity
  8
1
370
    15
390
0
  6
Continuous
 62
     1
100
AcDbLine
 10
68.490375
 20
16.106239
 30
0.0
 11
68.475589
 21
15.958481
 31
0.0
  0
LINE
  5
16F
100
AcDbEntity
  8
1
370
    15
390
0
  6
Continuous
 62
     1
100
AcDbLine
 10
68.475589
 20
15.958481
 30
0.0
 11
68.446033
 21
15.855049
 31
0.0
  0
LINE
  5
170
100
AcDbEntity
  8
1
370
    15
390
0
  6
Continuous
 62
     1
100
AcDbLine
 10
68.446033
 20
15.855049
 30
0.0
 11
68.446033
 21
15.677734
 31
0.0
  0
LINE
  5
171
100
AcDbEntity
  8
1
370
    15
390
0
  6
Continuous
 62
     1
100
AcDbLine
 10
68.446033
 20
15.677734
 30
0.0
 11
68.460811
 21
15.544746
 31
0.0
  0
LINE
  5
172
100
AcDbEntity
  8
1
370
    15
390
0
  6
Continuous
 62
     1
100
AcDbLine
 10
68.460811
 20
15.544746
 30
0.0
 11
68.475589
 21
15.426536
 31
0.0
  0
LINE
  5
173
100
AcDbEntity
  8
1
370
    15
390
0
  6
Continuous
 62
     1
100
AcDbLine
 10
68.475589
 20
15.426536
 30
0.0
 11
68.490375
 21
15.293556
 31
0.0
  0
LINE
  5
174
100
AcDbEntity
  8
1
370
    15
390
0
  6
Continuous
 62
     1
100
AcDbLine
 10
68.490375
 20
15.293556
 30
0.0
 11
68.505161
 21
15.131017
 31
0.0
  0
LINE
  5
175
100
AcDbEntity
  8
1
370
    15
390
0
  6
Continuous
 62
     1
100
AcDbLine
 10
68.460811
 20
14.791166
 30
0.0
 11
68.446033
 21
14.51042
 31
0.0
  0
LINE
  5
176
100
AcDbEntity
  8
1
370
    15
390
0
  6
Continuous
 62
     1
100
AcDbLine
 10
68.446033
 20
14.51042
 30
0.0
 11
68.490375
 21
14.362653
 31
0.0
  0
LINE
  5
177
100
AcDbEntity
  8
1
370
    15
390
0
  6
Continuous
 62
     1
100
AcDbLine
 10
68.490375
 20
14.362653
 30
0.0
 11
68.490375
 21
14.274
 31
0.0
  0
LINE
  5
178
100
AcDbEntity
  8
1
370
    15
390
0
  6
Continuous
 62
     1
100
AcDbLine
 10
68.490375
 20
14.274
 30
0.0
 11
68.446033
 21
14.081907
 31
0.0
  0
LINE
  5
179
100
AcDbEntity
  8
1
370
    15
390
0
  6
Continuous
 62
     1
100
AcDbLine
 10
68.446033
 20
14.081907
 30
0.0
 11
68.446033
 21
13.993253
 31
0.0
  0
LINE
  5
17A
100
AcDbEntity
  8
1
370
    15
390
0
  6
Continuous
 62
     1
100
AcDbLine
 10
68.446033
 20
13.993253
 30
0.0
 11
68.446033
 21
13.801161
 31
0.0
  0
LINE
  5
17B
100
AcDbEntity
  8
1
370
    15
390
0
  6
Continuous
 62
     1
100
AcDbLine
 10
68.446033
 20
13.801161
 30
0.0
 11
68.460811
 21
13.682951
 31
0.0
  0
LINE
  5
17C
100
AcDbEntity
  8
1
370
    15
390
0
  6
Continuous
 62
     1
100
AcDbLine
 10
68.460811
 20
13.682951
 30
0.0
 11
68.446033
 21
13.535192
 31
0.0
  0
LINE
  5
17D
100
AcDbEntity
  8
1
370
    15
390
0
  6
Continuous
 62
     1
100
AcDbLine
 10
68.446033
 20
13.535192
 30
0.0
 11
68.416462
 21
13.446539
 31
0.0
  0
LINE
  5
17E
100
AcDbEntity
  8
1
370
    15
390
0
  6
Continuous
 62
     1
100
AcDbLine
 10
68.446033
 20
14.068922
 30
0.0
 11
67.997669
 21
14.068922
 31
0.0
  0
LINE
  5
17F
100
AcDbEntity
  8
1
370
    15
390
0
  6
Continuous
 62
     1
100
AcDbLine
 10
68.480297
 20
15.97493
 30
0.0
 11
68.038669
 21
15.97493
 31
0.0
  0
LINE
  5
180
100
AcDbEntity
  8
1
370
    15
390
0
  6
Continuous
 62
     1
100
AcDbLine
 10
68.439106
 20
17.850929
 30
0.0
 11
68.077671
 21
17.850929
 31
0.0
  0
LINE
  5
181
100
AcDbEntity
  8
1
370
    15
390
0
  6
Continuous
 62
     1
100
AcDbLine
 10
68.505161
 20
20.506927
 30
0.0
 11
68.521305
 21
20.588417
 31
0.0
  0
LINE
  5
182
100
AcDbEntity
  8
1
370
    15
390
0
  6
Continuous
 62
     1
100
AcDbLine
 10
68.416462
 20
13.446539
 30
0.0
 11
68.367694
 21
13.320616
 31
0.0
  0
LINE
  5
183
100
AcDbEntity
  8
1
370
    15
390
0
  6
Continuous
 62
     1
100
AcDbLine
 10
68.367694
 20
13.320616
 30
0.0
 11
68.34119
 21
13.188162
 31
0.0
  0
LINE
  5
184
100
AcDbEntity
  8
1
370
    15
390
0
  6
Continuous
 62
     1
100
AcDbLine
 10
68.34119
 20
13.188162
 30
0.0
 11
68.288181
 21
13.073362
 31
0.0
  0
LINE
  5
185
100
AcDbEntity
  8
1
370
    15
390
0
  6
Continuous
 62
     1
100
AcDbLine
 10
68.288181
 20
13.073362
 30
0.0
 11
68.235172
 21
12.967397
 31
0.0
  0
LINE
  5
186
100
AcDbEntity
  8
1
370
    15
390
0
  6
Continuous
 62
     1
100
AcDbLine
 10
68.235172
 20
12.967397
 30
0.0
 11
68.208667
 21
12.843771
 31
0.0
  0
LINE
  5
187
100
AcDbEntity
  8
1
370
    15
390
0
  6
Continuous
 62
     1
100
AcDbLine
 10
68.208667
 20
12.843771
 30
0.0
 11
68.137981
 21
12.676
 31
0.0
  0
LINE
  5
188
100
AcDbEntity
  8
1
370
    15
390
0
  6
Continuous
 62
     1
100
AcDbLine
 10
68.137981
 20
12.676
 30
0.0
 11
68.058467
 21
12.605352
 31
0.0
  0
LINE
  5
189
100
AcDbEntity
  8
1
370
    15
390
0
  6
Continuous
 62
     1
100
AcDbLine
 10
68.058467
 20
12.605352
 30
0.0
 11
67.934772
 21
12.481725
 31
0.0
  0
LINE
  5
18A
100
AcDbEntity
  8
1
370
    15
390
0
  6
Continuous
 62
     1
100
AcDbLine
 10
67.934772
 20
12.481725
 30
0.0
 11
67.890598
 21
12.331609
 31
0.0
  0
LINE
  5
18B
100
AcDbEntity
  8
1
370
    15
390
0
  6
Continuous
 62
     1
100
AcDbLine
 10
67.890598
 20
12.331609
 30
0.0
 11
67.802249
 21
12.20799
 31
0.0
  0
LINE
  5
18C
100
AcDbEntity
  8
1
370
    15
390
0
  6
Continuous
 62
     1
100
AcDbLine
 10
68.128406
 20
15.97493
 30
0.0
 11
67.997669
 21
15.844192
 31
0.0
  0
LINE
  5
18D
100
AcDbEntity
  8
1
370
    15
390
0
  6
Continuous
 62
     1
100
AcDbLine
 10
68.272022
 20
15.97493
 30
0.0
 11
67.997669
 21
15.700584
 31
0.0
  0
LINE
  5
18E
100
AcDbEntity
  8
1
370
    15
390
0
  6
Continuous
 62
     1
100
AcDbLine
 10
68.434787
 20
15.97493
 30
0.0
 11
67.997669
 21
15.537819
 31
0.0
  0
LINE
  5
18F
100
AcDbEntity
  8
1
370
    15
390
0
  6
Continuous
 62
     1
100
AcDbLine
 10
68.446033
 20
15.805984
 30
0.0
 11
67.997669
 21
15.357628
 31
0.0
  0
LINE
  5
190
100
AcDbEntity
  8
1
370
    15
390
0
  6
Continuous
 62
     1
100
AcDbLine
 10
68.450412
 20
15.638237
 30
0.0
 11
68.005115
 21
15.192922
 31
0.0
  0
LINE
  5
191
100
AcDbEntity
  8
1
370
    15
390
0
  6
Continuous
 62
     1
100
AcDbLine
 10
68.46825
 20
15.485252
 30
0.0
 11
68.175922
 21
15.192922
 31
0.0
  0
LINE
  5
192
100
AcDbEntity
  8
1
370
    15
390
0
  6
Continuous
 62
     1
100
AcDbLine
 10
68.486377
 20
15.329529
 30
0.0
 11
68.349781
 21
15.192922
 31
0.0
  0
LINE
  5
193
100
AcDbEntity
  8
1
370
    15
390
0
  6
Continuous
 62
     1
100
AcDbLine
 10
68.46072
 20
17.392135
 30
0.0
 11
68.167514
 21
17.09893
 31
0.0
  0
LINE
  5
194
100
AcDbEntity
  8
1
370
    15
390
0
  6
Continuous
 62
     1
100
AcDbLine
 10
68.431247
 20
17.530563
 30
0.0
 11
68.038669
 21
17.137993
 31
0.0
  0
LINE
  5
195
100
AcDbEntity
  8
1
370
    15
390
0
  6
Continuous
 62
     1
100
AcDbLine
 10
68.038669
 20
17.651771
 30
0.0
 11
68.237834
 21
17.850929
 31
0.0
  0
LINE
  5
196
100
AcDbEntity
  8
1
370
    15
390
0
  6
Continuous
 62
     1
100
AcDbLine
 10
68.038669
 20
17.480949
 30
0.0
 11
68.408649
 21
17.850929
 31
0.0
  0
LINE
  5
197
100
AcDbEntity
  8
1
370
    15
390
0
  6
Continuous
 62
     1
100
AcDbLine
 10
68.038669
 20
17.307098
 30
0.0
 11
68.461177
 21
17.729599
 31
0.0
  0
LINE
  5
198
100
AcDbEntity
  8
1
370
    15
390
0
  6
Continuous
 62
     1
100
AcDbLine
 10
68.49097
 20
17.25148
 30
0.0
 11
68.331104
 21
17.09893
 31
0.0
  0
LINE
  5
199
100
AcDbEntity
  8
1
370
    15
390
0
  6
Continuous
 62
     1
100
AcDbLine
 10
68.484378
 20
19.809463
 30
0.0
 11
68.077671
 21
19.402755
 31
0.0
  0
LINE
  5
19A
100
AcDbEntity
  8
1
370
    15
390
0
  6
Continuous
 62
     1
100
AcDbLine
 10
68.450794
 20
19.943771
 30
0.0
 11
68.077671
 21
19.570656
 31
0.0
  0
LINE
  5
19B
100
AcDbEntity
  8
1
370
    15
390
0
  6
Continuous
 62
     1
100
AcDbLine
 10
68.424167
 20
20.08625
 30
0.0
 11
68.077671
 21
19.739761
 31
0.0
  0
LINE
  5
19C
100
AcDbEntity
  8
1
370
    15
390
0
  6
Continuous
 62
     1
100
AcDbLine
 10
68.457309
 20
20.293251
 30
0.0
 11
68.077671
 21
19.913612
 31
0.0
  0
LINE
  5
19D
100
AcDbEntity
  8
1
370
    15
390
0
  6
Continuous
 62
     1
100
AcDbLine
 10
68.506443
 20
20.513199
 30
0.0
 11
68.077671
 21
20.084434
 31
0.0
  0
LINE
  5
19E
100
AcDbEntity
  8
1
370
    15
390
0
  6
Continuous
 62
     1
100
AcDbLine
 10
68.390033
 20
20.568924
 30
0.0
 11
68.174671
 21
20.353569
 31
0.0
  0
LINE
  5
19F
100
AcDbEntity
  8
1
370
    15
390
0
  6
Continuous
 62
     1
100
AcDbLine
 10
68.460811
 20
19.591408
 30
0.0
 11
68.219982
 21
19.350929
 31
0.0
  0
LINE
  5
1A0
100
AcDbEntity
  8
1
370
    15
390
0
  6
Continuous
 62
     1
100
AcDbLine
 10
68.472675
 20
19.397125
 30
0.0
 11
68.428943
 21
19.350929
 31
0.0
  0
LINE
  5
1A1
100
AcDbEntity
  8
1
370
    15
390
0
  6
Continuous
 62
     1
100
AcDbLine
 10
67.902408
 20
12.371732
 30
0.0
 11
67.751667
 21
12.220998
 31
0.0
  0
LINE
  5
1A2
100
AcDbEntity
  8
1
370
    15
390
0
  6
Continuous
 62
     1
100
AcDbLine
 10
68.211078
 20
12.849508
 30
0.0
 11
67.751667
 21
12.390104
 31
0.0
  0
LINE
  5
1A3
100
AcDbEntity
  8
1
370
    15
390
0
  6
Continuous
 62
     1
100
AcDbLine
 10
67.901493
 20
13.236921
 30
0.0
 11
67.751667
 21
13.087103
 31
0.0
  0
LINE
  5
1A4
100
AcDbEntity
  8
1
370
    15
390
0
  6
Continuous
 62
     1
100
AcDbLine
 10
67.955661
 20
13.750654
 30
0.0
 11
68.266414
 21
14.061399
 31
0.0
  0
LINE
  5
1A5
100
AcDbEntity
  8
1
370
    15
390
0
  6
Continuous
 62
     1
100
AcDbLine
 10
68.143726
 20
14.068922
 30
0.0
 11
67.955661
 21
13.880865
 31
0.0
  0
LINE
  5
1A6
100
AcDbEntity
  8
1
370
    15
390
0
  6
Continuous
 62
     1
100
AcDbLine
 10
68.42712
 20
14.068922
 30
0.0
 11
67.955661
 21
13.597471
 31
0.0
  0
LINE
  5
1A7
100
AcDbEntity
  8
1
370
    15
390
0
  6
Continuous
 62
     1
100
AcDbLine
 10
68.446033
 20
13.944227
 30
0.0
 11
67.955661
 21
13.453863
 31
0.0
  0
LINE
  5
1A8
100
AcDbEntity
  8
1
370
    15
390
0
  6
Continuous
 62
     1
100
AcDbLine
 10
68.448215
 20
13.783651
 30
0.0
 11
67.955661
 21
13.291097
 31
0.0
  0
LINE
  5
1A9
100
AcDbEntity
  8
1
370
    15
390
0
  6
Continuous
 62
     1
100
AcDbLine
 10
68.453373
 20
13.608618
 30
0.0
 11
67.751667
 21
12.906912
 31
0.0
  0
LINE
  5
1AA
100
AcDbEntity
  8
1
370
    15
390
0
  6
Continuous
 62
     1
100
AcDbLine
 10
68.386768
 20
13.369871
 30
0.0
 11
67.751667
 21
12.734777
 31
0.0
  0
LINE
  5
1AB
100
AcDbEntity
  8
1
370
    15
390
0
  6
Continuous
 62
     1
100
AcDbLine
 10
68.31142
 20
13.123708
 30
0.0
 11
67.751667
 21
12.563955
 31
0.0
  0
LINE
  5
1AC
100
AcDbEntity
  8
1
370
    15
390
0
  6
Continuous
 62
     7
100
AcDbLine
 10
67.142658
 20
20.329445
 30
0.0
 11
67.142658
 21
20.779426
 31
0.0
  0
ELLIPSE
  5
1AD
100
AcDbEntity
  8
1
370
    15
390
0
  6
Continuous
 62
     1
100
AcDbEllipse
 10
68.116474
 20
20.33633
 30
0.0
 11
0.001190185546875
 21
0.0759468078613281
 31
0.0
210
0.0
220
0.0
230
1.0
 40
0.750313
 41
0.0
 42
6.2831853071795862
  0
ELLIPSE
  5
1AE
100
AcDbEntity
  8
1
370
    15
390
0
  6
Continuous
 62
     1
100
AcDbEllipse
 10
67.983608
 20
17.45845
 30
0.0
 11
-0.0003128051757813
 21
0.0752105712890625
 31
0.0
210
0.0
220
0.0
230
1.0
 40
0.731791
 41
0.0
 42
6.2831853071795862
  0
ELLIPSE
  5
1AF
100
AcDbEntity
  8
1
370
    15
390
0
  6
Continuous
 62
     1
100
AcDbEllipse
 10
67.943485
 20
15.578377
 30
0.0
 11
-0.000823974609375
 21
0.0752716064453125
 31
0.0
210
0.0
220
0.0
230
1.0
 40
0.723191
 41
0.0
 42
6.2831853071795862
  0
ELLIPSE
  5
1B0
100
AcDbEntity
  8
1
370
    15
390
0
  6
Continuous
 62
     1
100
AcDbEllipse
 10
67.898029
 20
13.669386
 30
0.0
 11
0.00042724609375
 21
0.0749969482421875
 31
0.0
210
0.0
220
0.0
230
1.0
 40
0.759105
 41
0.0
 42
6.2831853071795862
  0
LINE
  5
1B1
100
AcDbEntity
  8
1
370
    15
390
0
  6
Continuous
 62
     1
100
AcDbLine
 10
67.142658
 20
20.621597
 30
0.0
 11
67.142658
 21
20.927238
 31
0.0
  0
LINE
  5
1B2
100
AcDbEntity
  8
1
370
    15
390
0
  6
LT22
 62
     1
100
AcDbLine
 10
68.455722
 20
20.850921
 30
0.0
 11
68.218662
 21
20.850921
 31
0.0
  0
LINE
  5
1B3
100
AcDbEntity
  8
1
370
    15
390
0
  6
LT22
 62
     1
100
AcDbLine
 10
68.218662
 20
20.714058
 30
0.0
 11
68.455722
 21
20.850921
 31
0.0
  0
LINE
  5
1B4
100
AcDbEntity
  8
1
370
    15
390
0
  6
LT22
 62
     1
100
AcDbLine
 10
68.455722
 20
21.273994
 30
0.0
 11
68.455722
 21
20.850921
 31
0.0
  0
LINE
  5
1B5
100
AcDbEntity
  8
1
370
    15
390
0
  6
Continuous
 62
     1
100
AcDbLine
 10
68.455722
 20
21.273994
 30
0.0
 11
68.4417
 21
21.273994
 31
0.0
  0
LINE
  5
1B6
100
AcDbEntity
  8
1
370
    15
390
0
  6
Continuous
 62
     1
100
AcDbLine
 10
67.802249
 20
12.20799
 30
0.0
 11
67.751667
 21
12.137342
 31
0.0
  0
LINE
  5
1B7
100
AcDbEntity
  8
1
370
    15
390
0
  6
Continuous
 62
     1
100
AcDbLine
 10
67.689663
 20
12.401731
 30
0.0
 11
67.142658
 21
12.401731
 31
0.0
  0
LINE
  5
1B8
100
AcDbEntity
  8
1
370
    15
390
0
  6
Continuous
 62
     1
100
AcDbLine
 10
67.689663
 20
12.401731
 30
0.0
 11
67.689663
 21
13.245733
 31
0.0
  0
LINE
  5
1B9
100
AcDbEntity
  8
1
370
    15
390
0
  6
Continuous
 62
     1
100
AcDbLine
 10
67.658664
 20
12.370733
 30
0.0
 11
67.689663
 21
12.401731
 31
0.0
  0
LINE
  5
1BA
100
AcDbEntity
  8
1
370
    15
390
0
  6
Continuous
 62
     1
100
AcDbLine
 10
67.658664
 20
12.370733
 30
0.0
 11
67.142658
 21
12.370733
 31
0.0
  0
LINE
  5
1BB
100
AcDbEntity
  8
1
370
    15
390
0
  6
LT22
 62
     1
100
AcDbLine
 10
67.689663
 20
12.057729
 30
0.0
 11
67.689663
 21
12.356062
 31
0.0
  0
LINE
  5
1BC
100
AcDbEntity
  8
1
370
    15
390
0
  6
LT22
 62
     1
100
AcDbLine
 10
67.689663
 20
12.057729
 30
0.0
 11
67.142658
 21
12.057729
 31
0.0
  0
LINE
  5
1BD
100
AcDbEntity
  8
1
370
    15
390
0
  6
LT22
 62
     1
100
AcDbLine
 10
67.658664
 20
12.026731
 30
0.0
 11
67.689663
 21
12.057729
 31
0.0
  0
LINE
  5
1BE
100
AcDbEntity
  8
1
370
    15
390
0
  6
LT22
 62
     1
100
AcDbLine
 10
67.658664
 20
12.026731
 30
0.0
 11
67.142658
 21
12.026731
 31
0.0
  0
LINE
  5
1BF
100
AcDbEntity
  8
1
370
    15
390
0
  6
LT22
 62
     1
100
AcDbLine
 10
67.142658
 20
11.756925
 30
0.0
 11
67.142658
 21
11.787924
 31
0.0
  0
LINE
  5
1C0
100
AcDbEntity
  8
1
370
    15
390
0
  6
LT22
 62
     1
100
AcDbLine
 10
67.142658
 20
11.787924
 30
0.0
 11
67.423664
 21
11.787924
 31
0.0
  0
LINE
  5
1C1
100
AcDbEntity
  8
1
370
    15
390
0
  6
LT22
 62
     1
100
AcDbLine
 10
67.423664
 20
11.787924
 30
0.0
 11
67.423664
 21
12.026731
 31
0.0
  0
LINE
  5
1C2
100
AcDbEntity
  8
1
370
    15
390
0
  6
LT22
 62
     1
100
AcDbLine
 10
67.392658
 20
11.756925
 30
0.0
 11
67.423664
 21
11.787924
 31
0.0
  0
LINE
  5
1C3
100
AcDbEntity
  8
1
370
    15
390
0
  6
LT22
 62
     1
100
AcDbLine
 10
67.392658
 20
11.756925
 30
0.0
 11
67.142658
 21
11.756925
 31
0.0
  0
LINE
  5
1C4
100
AcDbEntity
  8
1
370
    15
390
0
  6
Continuous
 62
     1
100
AcDbLine
 10
68.519107
 20
20.568924
 30
0.0
 11
68.218158
 21
20.568924
 31
0.0
  0
LINE
  5
1C5
100
AcDbEntity
  8
1
370
    15
390
0
  6
Continuous
 62
     7
100
AcDbLine
 10
66.329654
 20
13.966161
 30
0.0
 11
66.287647
 21
14.038923
 31
0.0
  0
LINE
  5
1C6
100
AcDbEntity
  8
1
370
    15
390
0
  6
Continuous
 62
     7
100
AcDbLine
 10
66.287647
 20
15.873909
 30
0.0
 11
66.246646
 21
15.944923
 31
0.0
  0
LINE
  5
1C7
100
AcDbEntity
  8
1
370
    15
390
0
  6
Continuous
 62
     7
100
AcDbLine
 10
66.246646
 20
17.753372
 30
0.0
 11
66.207645
 21
17.820923
 31
0.0
  0
CIRCLE
  5
1C9
100
AcDbEntity
  8
1
370
    15
390
0
  6
DIVIDE
 62
     1
100
AcDbCircle
 10
66.089588
 20
20.490478
 30
0.0
 40
0.101833
  0
LINE
  5
1CA
100
AcDbEntity
  8
1
370
    15
390
0
  6
LT22
 62
     1
100
AcDbLine
 10
66.170658
 20
20.541786
 30
0.0
 11
66.170658
 21
20.256927
 31
0.0
  0
LINE
  5
1CB
100
AcDbEntity
  8
1
370
    15
390
0
  6
LT22
 62
     1
100
AcDbLine
 10
66.170658
 20
20.541786
 30
0.0
 11
66.123661
 21
20.568924
 31
0.0
  0
LINE
  5
1CC
100
AcDbEntity
  8
1
370
    15
390
0
  6
LT22
 62
     1
100
AcDbLine
 10
66.266666
 20
20.2015
 30
0.0
 11
66.170658
 21
20.256927
 31
0.0
  0
LINE
  5
1CD
100
AcDbEntity
  8
1
370
    15
390
0
  6
LT22
 62
     1
100
AcDbLine
 10
66.266666
 20
20.2015
 30
0.0
 11
66.266666
 21
17.943924
 31
0.0
  0
LINE
  5
1CE
100
AcDbEntity
  8
1
370
    15
390
0
  6
LT22
 62
     1
100
AcDbLine
 10
66.306659
 20
17.92083
 30
0.0
 11
66.266666
 21
17.943924
 31
0.0
  0
LINE
  5
1CF
100
AcDbEntity
  8
1
370
    15
390
0
  6
LT22
 62
     1
100
AcDbLine
 10
66.306659
 20
17.92083
 30
0.0
 11
66.306659
 21
16.068924
 31
0.0
  0
LINE
  5
1D0
100
AcDbEntity
  8
1
370
    15
390
0
  6
LT22
 62
     1
100
AcDbLine
 10
66.34766
 20
16.045257
 30
0.0
 11
66.306659
 21
16.068924
 31
0.0
  0
LINE
  5
1D1
100
AcDbEntity
  8
1
370
    15
390
0
  6
LT22
 62
     1
100
AcDbLine
 10
66.34766
 20
16.045257
 30
0.0
 11
66.34766
 21
14.162924
 31
0.0
  0
LINE
  5
1D2
100
AcDbEntity
  8
1
370
    15
390
0
  6
LT22
 62
     1
100
AcDbLine
 10
66.389667
 20
14.138677
 30
0.0
 11
66.34766
 21
14.162924
 31
0.0
  0
LINE
  5
1D3
100
AcDbEntity
  8
1
370
    15
390
0
  6
LT22
 62
     1
100
AcDbLine
 10
66.389667
 20
14.138677
 30
0.0
 11
66.389667
 21
13.380926
 31
0.0
  0
LINE
  5
1D4
100
AcDbEntity
  8
1
370
    15
390
0
  6
LT22
 62
     1
100
AcDbLine
 10
66.389667
 20
13.380926
 30
0.0
 11
67.142658
 21
12.94618
 31
0.0
  0
LINE
  5
1D5
100
AcDbEntity
  8
1
370
    15
390
0
  6
DIVIDE
 62
     1
100
AcDbLine
 10
67.142658
 20
11.396078
 30
0.0
 11
66.517658
 21
11.756925
 31
0.0
  0
LINE
  5
1D6
100
AcDbEntity
  8
1
370
    15
390
0
  6
LT22
 62
     1
100
AcDbLine
 10
68.642658
 20
21.381927
 30
0.0
 11
68.4417
 21
21.381927
 31
0.0
  0
LINE
  5
1D7
100
AcDbEntity
  8
1
370
    15
390
0
  6
Continuous
 62
     1
100
AcDbLine
 10
68.521305
 20
20.588417
 30
0.0
 11
68.614826
 21
20.721367
 31
0.0
  0
LINE
  5
1D8
100
AcDbEntity
  8
1
370
    15
390
0
  6
Continuous
 62
     1
100
AcDbLine
 10
68.614826
 20
20.721367
 30
0.0
 11
68.697437
 21
20.798431
 31
0.0
  0
LINE
  5
1D9
100
AcDbEntity
  8
1
370
    15
390
0
  6
Continuous
 62
     1
100
AcDbLine
 10
68.697437
 20
20.798431
 30
0.0
 11
68.735981
 21
20.974563
 31
0.0
  0
LINE
  5
1DA
100
AcDbEntity
  8
1
370
    15
390
0
  6
Continuous
 62
     1
100
AcDbLine
 10
68.735981
 20
20.974563
 30
0.0
 11
68.791057
 21
21.183723
 31
0.0
  0
LINE
  5
1DB
100
AcDbEntity
  8
1
370
    15
390
0
  6
Continuous
 62
     1
100
AcDbLine
 10
68.791057
 20
21.183723
 30
0.0
 11
68.8241
 21
21.343345
 31
0.0
  0
LINE
  5
1DC
100
AcDbEntity
  8
1
370
    15
390
0
  6
Continuous
 62
     1
100
AcDbLine
 10
68.8241
 20
21.343345
 30
0.0
 11
68.796558
 21
21.491958
 31
0.0
  0
LINE
  5
1DD
100
AcDbEntity
  8
1
370
    15
390
0
  6
Continuous
 62
     1
100
AcDbLine
 10
68.796558
 20
21.491958
 30
0.0
 11
68.780048
 21
21.684601
 31
0.0
  0
LINE
  5
1DE
100
AcDbEntity
  8
1
370
    15
390
0
  6
Continuous
 62
     1
100
AcDbLine
 10
68.780048
 20
21.684601
 30
0.0
 11
68.780048
 21
21.838722
 31
0.0
  0
LINE
  5
1DF
100
AcDbEntity
  8
1
370
    15
390
0
  6
Continuous
 62
     1
100
AcDbLine
 10
68.780048
 20
21.838722
 30
0.0
 11
68.807575
 21
22.036873
 31
0.0
  0
LINE
  5
1E0
100
AcDbEntity
  8
1
370
    15
390
0
  6
LT22
 62
     1
100
AcDbLine
 10
68.455722
 20
21.273994
 30
0.0
 11
68.642658
 21
21.381927
 31
0.0
  0
LINE
  5
1E1
100
AcDbEntity
  8
2
370
    15
390
0
  6
Continuous
 62
     7
100
AcDbLine
 10
67.142658
 20
20.506927
 30
0.0
 11
68.218662
 21
20.506927
 31
0.0
  0
LINE
  5
1E2
100
AcDbEntity
  8
2
370
    15
390
0
  6
Continuous
 62
     7
100
AcDbLine
 10
68.218662
 20
20.882927
 30
0.0
 11
68.218662
 21
20.506927
 31
0.0
  0
LINE
  5
1E3
100
AcDbEntity
  8
1
370
    15
390
0
  6
LT22
 62
     1
100
AcDbLine
 10
67.142658
 20
11.756925
 30
0.0
 11
66.517658
 21
11.756925
 31
0.0
  0
LINE
  5
1E4
100
AcDbEntity
  8
1
370
    15
390
0
  6
Continuous
 62
     1
100
AcDbLine
 10
66.517658
 20
13.236921
 30
0.0
 11
66.517658
 21
11.756925
 31
0.0
  0
LINE
  5
1E5
100
AcDbEntity
  8
1
370
    15
390
0
  6
Continuous
 62
     1
100
AcDbLine
 10
66.207645
 20
20.097931
 30
0.0
 11
66.517658
 21
20.097931
 31
0.0
  0
LINE
  5
1E6
100
AcDbEntity
  8
1
370
    15
390
0
  6
Continuous
 62
     1
100
AcDbLine
 10
66.110645
 20
20.194923
 30
0.0
 11
66.517658
 21
20.194923
 31
0.0
  0
LINE
  5
1E7
100
AcDbEntity
  8
1
370
    15
390
0
  6
Continuous
 62
     1
100
AcDbLine
 10
66.246646
 20
17.753372
 30
0.0
 11
66.517658
 21
17.753372
 31
0.0
  0
LINE
  5
1E8
100
AcDbEntity
  8
1
370
    15
390
0
  6
Continuous
 62
     1
100
AcDbLine
 10
66.207645
 20
17.820923
 30
0.0
 11
66.517658
 21
17.820923
 31
0.0
  0
LINE
  5
1E9
100
AcDbEntity
  8
1
370
    15
390
0
  6
Continuous
 62
     1
100
AcDbLine
 10
66.287647
 20
15.873909
 30
0.0
 11
66.517658
 21
15.873909
 31
0.0
  0
LINE
  5
1EA
100
AcDbEntity
  8
1
370
    15
390
0
  6
Continuous
 62
     1
100
AcDbLine
 10
66.246646
 20
15.944923
 30
0.0
 11
66.517658
 21
15.944923
 31
0.0
  0
LINE
  5
1EB
100
AcDbEntity
  8
1
370
    15
390
0
  6
Continuous
 62
     1
100
AcDbLine
 10
66.287647
 20
14.038923
 30
0.0
 11
66.517658
 21
14.038923
 31
0.0
  0
LINE
  5
1EC
100
AcDbEntity
  8
1
370
    15
390
0
  6
Continuous
 62
     1
100
AcDbLine
 10
66.329654
 20
13.966161
 30
0.0
 11
66.517658
 21
13.966161
 31
0.0
  0
LINE
  5
1ED
100
AcDbEntity
  8
1
370
    15
390
0
  6
Continuous
 62
     1
100
AcDbLine
 10
66.142658
 20
19.126922
 30
0.0
 11
66.517658
 21
19.126922
 31
0.0
  0
LINE
  5
1EE
100
AcDbEntity
  8
4
370
    15
390
0
  6
Continuous
 62
     1
100
AcDbLine
 10
69.050542
 20
19.350929
 30
0.0
 11
69.050542
 21
17.858055
 31
0.0
  0
LINE
  5
1EF
100
AcDbEntity
  8
4
370
    15
390
0
  6
Continuous
 62
     1
100
AcDbLine
 10
68.578533
 20
17.09893
 30
0.0
 11
69.171454
 21
17.09893
 31
0.0
  0
LINE
  5
1F0
100
AcDbEntity
  8
4
370
    15
390
0
  6
Continuous
 62
     1
100
AcDbLine
 10
68.588087
 20
15.97493
 30
0.0
 11
69.171454
 21
15.97493
 31
0.0
  0
LINE
  5
1F1
100
AcDbEntity
  8
4
370
    15
390
0
  6
Continuous
 62
     1
100
AcDbLine
 10
68.588087
 20
15.192922
 30
0.0
 11
69.171454
 21
15.192922
 31
0.0
  0
LINE
  5
1F2
100
AcDbEntity
  8
4
370
    15
390
0
  6
Continuous
 62
     1
100
AcDbLine
 10
68.533704
 20
14.068922
 30
0.0
 11
69.171454
 21
14.068922
 31
0.0
  0
LINE
  5
1F3
100
AcDbEntity
  8
4
370
    15
390
0
  6
Continuous
 62
     1
100
AcDbLine
 10
68.587719
 20
19.350929
 30
0.0
 11
69.171454
 21
19.350929
 31
0.0
  0
LINE
  5
1F4
100
AcDbEntity
  8
4
370
    15
390
0
  6
Continuous
 62
     1
100
AcDbLine
 10
68.54289
 20
17.850929
 30
0.0
 11
69.171454
 21
17.850929
 31
0.0
  0
LINE
  5
1F5
100
AcDbEntity
  8
4
370
    15
390
0
  6
Continuous
 62
     1
100
AcDbLine
 10
69.050542
 20
15.192922
 30
0.0
 11
69.050542
 21
14.068922
 31
0.0
  0
LINE
  5
1F6
100
AcDbEntity
  8
4
370
    15
390
0
  6
Continuous
 62
     1
100
AcDbLine
 10
69.050542
 20
17.09893
 30
0.0
 11
69.050542
 21
15.97493
 31
0.0
  0
LINE
  5
1F7
100
AcDbEntity
  8
1
370
    15
390
0
  6
Continuous
 62
     1
100
AcDbLine
 10
68.431247
 20
19.031913
 30
0.0
 11
68.422867
 21
19.009581
 31
0.0
  0
LINE
  5
1F8
100
AcDbEntity
  8
1
370
    15
390
0
  6
Continuous
 62
     1
100
AcDbLine
 10
68.38689
 20
18.827499
 30
0.0
 11
68.38689
 21
18.70684
 31
0.0
  0
LINE
  5
1F9
100
AcDbEntity
  8
1
370
    15
390
0
  6
Continuous
 62
     1
100
AcDbLine
 10
68.460811
 20
16.992813
 30
0.0
 11
68.456239
 21
16.951672
 31
0.0
  0
LINE
  5
1FA
100
AcDbEntity
  8
1
370
    15
390
0
  6
Continuous
 62
     1
100
AcDbLine
 10
68.435405
 20
16.753618
 30
0.0
 11
68.431247
 21
16.712066
 31
0.0
  0
LINE
  5
1FB
100
AcDbEntity
  8
1
370
    15
390
0
  6
Continuous
 62
     1
100
AcDbLine
 10
68.471787
 20
14.835049
 30
0.0
 11
68.460811
 21
14.791166
 31
0.0
  0
LINE
  5
1FC
100
AcDbEntity
  8
1
370
    15
390
0
  6
Continuous
 62
     1
100
AcDbLine
 10
68.505161
 20
15.131017
 30
0.0
 11
68.505161
 21
15.06155
 31
0.0
  0
LINE
  5
1FD
100
AcDbEntity
  8
4
370
    15
390
0
  6
Continuous
 62
     1
100
AcDbLine
 10
68.023234
 20
13.236921
 30
0.0
 11
69.223265
 21
13.236921
 31
0.0
  0
LINE
  5
1FE
100
AcDbEntity
  8
4
370
    15
390
0
  6
Continuous
 62
     1
100
AcDbLine
 10
67.503638
 20
11.756925
 30
0.0
 11
68.647775
 21
11.756925
 31
0.0
  0
LINE
  5
1FF
100
AcDbEntity
  8
3
370
    15
390
0
  6
Continuous
 62
     1
100
AcDbLine
 10
70.637406
 20
14.630926
 30
0.0
 11
67.863269
 21
14.630926
 31
0.0
  0
LINE
  5
200
100
AcDbEntity
  8
3
370
    15
390
0
  6
Continuous
 62
     1
100
AcDbLine
 10
70.637406
 20
16.536926
 30
0.0
 11
67.911274
 21
16.536926
 31
0.0
  0
LINE
  5
201
100
AcDbEntity
  8
3
370
    15
390
0
  6
Continuous
 62
     1
100
AcDbLine
 10
67.974826
 20
18.600929
 30
0.0
 11
70.637406
 21
18.600929
 31
0.0
  0
LINE
  5
202
100
AcDbEntity
  8
4
370
    15
390
0
  6
Continuous
 62
     1
100
AcDbLine
 10
68.614424
 20
20.568924
 30
0.0
 11
69.339765
 21
20.568924
 31
0.0
  0
LINE
  5
203
100
AcDbEntity
  8
4
370
    15
390
0
  6
Continuous
 62
     1
100
AcDbLine
 10
69.050542
 20
15.727493
 30
0.0
 11
69.256848
 21
15.727493
 31
0.0
  0
LINE
  5
204
100
AcDbEntity
  8
4
370
    15
390
0
  6
Continuous
 62
     1
100
AcDbLine
 10
69.050542
 20
13.821485
 30
0.0
 11
69.256848
 21
13.821485
 31
0.0
  0
LINE
  5
205
100
AcDbEntity
  8
4
370
    15
390
0
  6
Continuous
 62
     1
100
AcDbLine
 10
69.050542
 20
14.068922
 30
0.0
 11
69.050542
 21
13.821485
 31
0.0
  0
LINE
  5
206
100
AcDbEntity
  8
4
370
    15
390
0
  6
Continuous
 62
     1
100
AcDbLine
 10
69.050542
 20
15.97493
 30
0.0
 11
69.050542
 21
15.727493
 31
0.0
  0
LINE
  5
207
100
AcDbEntity
  8
4
370
    15
390
0
  6
Continuous
 62
     1
100
AcDbLine
 10
69.050542
 20
17.858055
 30
0.0
 11
69.050542
 21
17.610619
 31
0.0
  0
LINE
  5
208
100
AcDbEntity
  8
4
370
    15
390
0
  6
Continuous
 62
     1
100
AcDbLine
 10
69.050542
 20
17.610619
 30
0.0
 11
69.256848
 21
17.610619
 31
0.0
  0
LINE
  5
209
100
AcDbEntity
  8
4
370
    15
390
0
  6
Continuous
 62
     1
100
AcDbLine
 10
69.210953
 20
20.568924
 30
0.0
 11
69.210953
 21
20.792433
 31
0.0
  0
LINE
  5
20A
100
AcDbEntity
  8
4
370
    15
390
0
  6
Continuous
 62
     1
100
AcDbLine
 10
69.210953
 20
20.506927
 30
0.0
 11
69.210953
 21
20.027215
 31
0.0
  0
LINE
  5
20B
100
AcDbEntity
  8
3
370
    15
390
0
  6
Continuous
 62
     1
100
AcDbLine
 10
69.344036
 20
20.027215
 30
0.0
 11
69.210953
 21
20.027215
 31
0.0
  0
LINE
  5
20C
100
AcDbEntity
  8
1
370
    15
390
0
  6
Continuous
 62
     1
100
AcDbLine
 10
68.780048
 20
22.133448
 30
0.0
 11
68.724979
 21
22.133448
 31
0.0
  0
LINE
  5
20D
100
AcDbEntity
  8
1
370
    15
390
0
  6
Continuous
 62
     1
100
AcDbLine
 10
68.724979
 20
22.133448
 30
0.0
 11
68.658893
 21
22.149958
 31
0.0
  0
LINE
  5
20E
100
AcDbEntity
  8
1
370
    15
390
0
  6
Continuous
 62
     1
100
AcDbLine
 10
68.658893
 20
22.149958
 30
0.0
 11
68.642658
 21
22.138948
 31
0.0
  0
LINE
  5
20F
100
AcDbEntity
  8
1
370
    15
390
0
  6
LT22
 62
     1
100
AcDbLine
 10
68.642658
 20
21.381927
 30
0.0
 11
68.642658
 21
22.138948
 31
0.0
  0
LINE
  5
210
100
AcDbEntity
  8
1
370
    15
390
0
  6
Continuous
 62
     1
100
AcDbLine
 10
68.807575
 20
22.036873
 30
0.0
 11
68.818091
 21
22.15246
 31
0.0
  0
LINE
  5
211
100
AcDbEntity
  8
1
370
    15
390
0
  6
Continuous
 62
     1
100
AcDbLine
 10
68.818091
 20
22.15246
 30
0.0
 11
68.780048
 21
22.133448
 31
0.0
  0
LINE
  5
212
100
AcDbEntity
  8
4
370
    15
390
0
  6
Continuous
 62
     1
100
AcDbLine
 10
66.127122
 20
12.773336
 30
0.0
 11
66.329654
 21
13.236921
 31
0.0
  0
TEXT
  5
213
100
AcDbEntity
  8
4
370
    15
390
0
  6
Continuous
 62
     7
100
AcDbText
 10
65.124304
 20
12.517297
 30
0.0
 40
0.142
  1
MAX.
  7
Vcadd_SIMP
100
AcDbText
  0
LINE
  5
214
100
AcDbEntity
  8
4
370
    15
390
0
  6
Continuous
 62
     1
100
AcDbLine
 10
66.008958
 20
12.773336
 30
0.0
 11
66.127122
 21
12.773336
 31
0.0
  0
LINE
  5
215
100
AcDbEntity
  8
3
370
    15
390
0
  6
Continuous
 62
     1
100
AcDbLine
 10
65.575107
 20
13.236921
 30
0.0
 11
64.907679
 21
13.236921
 31
0.0
  0
LINE
  5
216
100
AcDbEntity
  8
4
370
    15
390
0
  6
Continuous
 62
     1
100
AcDbLine
 10
66.261707
 20
13.236921
 30
0.0
 11
65.629269
 21
13.236921
 31
0.0
  0
LINE
  5
217
100
AcDbEntity
  8
4
370
    15
390
0
  6
Continuous
 62
     1
100
AcDbLine
 10
66.230366
 20
14.138137
 30
0.0
 11
65.852096
 21
14.793319
 31
0.0
  0
ARC
  5
218
100
AcDbEntity
  8
4
370
    15
390
0
  6
Continuous
 62
     1
100
AcDbCircle
 10
66.287647
 20
14.038923
 30
0.0
 40
0.740049
100
AcDbArc
 50
120.0
 51
142.596793
  0
ARC
  5
219
100
AcDbEntity
  8
4
370
    15
390
0
  6
Continuous
 62
     1
100
AcDbCircle
 10
66.287647
 20
14.038923
 30
0.0
 40
0.740049
100
AcDbArc
 50
68.241256
 51
90.0
  0
LINE
  5
21A
100
AcDbEntity
  8
4
370
    15
390
0
  6
Continuous
 62
     1
100
AcDbLine
 10
66.189365
 20
16.044137
 30
0.0
 11
65.811096
 21
16.699319
 31
0.0
  0
ARC
  5
21B
100
AcDbEntity
  8
4
370
    15
390
0
  6
Continuous
 62
     1
100
AcDbCircle
 10
66.246646
 20
15.944923
 30
0.0
 40
0.740049
100
AcDbArc
 50
120.0
 51
142.596793
  0
ARC
  5
21C
100
AcDbEntity
  8
4
370
    15
390
0
  6
Continuous
 62
     1
100
AcDbCircle
 10
66.246646
 20
15.944923
 30
0.0
 40
0.740049
100
AcDbArc
 50
68.241256
 51
90.0
  0
LINE
  5
21D
100
AcDbEntity
  8
4
370
    15
390
0
  6
Continuous
 62
     1
100
AcDbLine
 10
66.150364
 20
17.920136
 30
0.0
 11
65.772094
 21
18.575319
 31
0.0
  0
ARC
  5
21E
100
AcDbEntity
  8
4
370
    15
390
0
  6
Continuous
 62
     1
100
AcDbCircle
 10
66.207645
 20
17.820923
 30
0.0
 40
0.740049
100
AcDbArc
 50
120.0
 51
142.596793
  0
ARC
  5
21F
100
AcDbEntity
  8
4
370
    15
390
0
  6
Continuous
 62
     1
100
AcDbCircle
 10
66.207645
 20
17.820923
 30
0.0
 40
0.740049
100
AcDbArc
 50
68.241256
 51
90.0
  0
LINE
  5
220
100
AcDbEntity
  8
4
370
    15
390
0
  6
Continuous
 62
     1
100
AcDbLine
 10
66.18019
 20
15.944923
 30
0.0
 11
63.892255
 21
15.944923
 31
0.0
  0
LINE
  5
221
100
AcDbEntity
  8
4
370
    15
390
0
  6
Continuous
 62
     1
100
AcDbLine
 10
66.207645
 20
17.820923
 30
0.0
 11
63.892255
 21
17.820923
 31
0.0
  0
TEXT
  5
222
100
AcDbEntity
  8
4
370
    15
390
0
  6
Continuous
 62
     7
100
AcDbText
 10
63.948179
 20
20.528804
 30
0.0
 40
0.142
  1
L.S.
  7
Vcadd_SIMP
100
AcDbText
  0
LINE
  5
223
100
AcDbEntity
  8
4
370
    15
390
0
  6
Continuous
 62
     1
100
AcDbLine
 10
66.107015
 20
13.859239
 30
0.0
 11
66.329654
 21
13.966161
 31
0.0
  0
LINE
  5
224
100
AcDbEntity
  8
4
370
    15
390
0
  6
Continuous
 62
     7
100
AcDbLine
 10
65.550502
 20
13.611086
 30
0.0
 11
65.630526
 21
13.77942
 31
0.0
  0
LINE
  5
225
100
AcDbEntity
  8
0
370
    15
390
0
  6
Continuous
 62
     1
100
AcDbLine
 10
65.919337
 20
13.892003
 30
0.0
 11
65.805919
 21
13.694665
 31
0.0
  0
LINE
  5
226
100
AcDbEntity
  8
0
370
    15
390
0
  6
Continuous
 62
     1
100
AcDbLine
 10
65.841296
 20
13.892003
 30
0.0
 11
65.919337
 21
13.892003
 31
0.0
  0
LINE
  5
227
100
AcDbEntity
  8
0
370
    15
390
0
  6
Continuous
 62
     1
100
AcDbLine
 10
65.805934
 20
13.694679
 30
0.0
 11
65.758769
 21
13.776367
 31
0.0
  0
TEXT
  5
228
100
AcDbEntity
  8
4
370
    15
390
0
  6
Continuous
 62
     7
100
AcDbText
 10
65.510867
 20
13.626253
 30
0.0
 40
0.16275
  1
O
  7
Vcadd_SIMP
100
AcDbText
  0
LINE
  5
229
100
AcDbEntity
  8
4
370
    15
390
0
  6
Continuous
 62
     1
100
AcDbLine
 10
65.690509
 20
13.694681
 30
0.0
 11
66.329654
 21
13.694681
 31
0.0
  0
LINE
  5
22A
100
AcDbEntity
  8
0
370
    15
390
0
  6
Continuous
 62
     1
100
AcDbLine
 10
65.333684
 20
15.355462
 30
0.0
 11
65.207662
 21
15.136197
 31
0.0
  0
LINE
  5
22B
100
AcDbEntity
  8
0
370
    15
390
0
  6
Continuous
 62
     1
100
AcDbLine
 10
65.246968
 20
15.355462
 30
0.0
 11
65.333684
 21
15.355462
 31
0.0
  0
LINE
  5
22C
100
AcDbEntity
  8
0
370
    15
390
0
  6
Continuous
 62
     1
100
AcDbLine
 10
65.207677
 20
15.136212
 30
0.0
 11
65.155274
 21
15.226975
 31
0.0
  0
LINE
  5
22D
100
AcDbEntity
  8
4
370
    15
390
0
  6
Continuous
 62
     7
100
AcDbLine
 10
64.952245
 20
15.052605
 30
0.0
 11
65.03227
 21
15.220936
 31
0.0
  0
TEXT
  5
22E
100
AcDbEntity
  8
4
370
    15
390
0
  6
Continuous
 62
     7
100
AcDbText
 10
64.91261
 20
15.067772
 30
0.0
 40
0.16275
  1
O
  7
Vcadd_SIMP
100
AcDbText
  0
LINE
  5
22F
100
AcDbEntity
  8
4
370
    15
390
0
  6
Continuous
 62
     1
100
AcDbLine
 10
65.077254
 20
15.136197
 30
0.0
 11
66.287647
 21
15.136197
 31
0.0
  0
LINE
  5
230
100
AcDbEntity
  8
4
370
    15
390
0
  6
Continuous
 62
     7
100
AcDbLine
 10
64.959357
 20
16.83798
 30
0.0
 11
65.039382
 21
17.006315
 31
0.0
  0
LINE
  5
231
100
AcDbEntity
  8
0
370
    15
390
0
  6
Continuous
 62
     1
100
AcDbLine
 10
65.340796
 20
17.140841
 30
0.0
 11
65.214774
 21
16.921576
 31
0.0
  0
LINE
  5
232
100
AcDbEntity
  8
0
370
    15
390
0
  6
Continuous
 62
     1
100
AcDbLine
 10
65.25408
 20
17.140841
 30
0.0
 11
65.340796
 21
17.140841
 31
0.0
  0
LINE
  5
233
100
AcDbEntity
  8
0
370
    15
390
0
  6
Continuous
 62
     1
100
AcDbLine
 10
65.214789
 20
16.921591
 30
0.0
 11
65.162387
 21
17.012354
 31
0.0
  0
TEXT
  5
234
100
AcDbEntity
  8
4
370
    15
390
0
  6
Continuous
 62
     7
100
AcDbText
 10
64.919722
 20
16.853148
 30
0.0
 40
0.16275
  1
O
  7
Vcadd_SIMP
100
AcDbText
  0
LINE
  5
235
100
AcDbEntity
  8
4
370
    15
390
0
  6
Continuous
 62
     1
100
AcDbLine
 10
65.099336
 20
16.921576
 30
0.0
 11
66.246646
 21
16.921576
 31
0.0
  0
LINE
  5
236
100
AcDbEntity
  8
4
370
    15
390
0
  6
Continuous
 62
     7
100
AcDbLine
 10
64.965922
 20
18.664245
 30
0.0
 11
65.045947
 21
18.832576
 31
0.0
  0
TEXT
  5
237
100
AcDbEntity
  8
4
370
    15
390
0
  6
Continuous
 62
     7
100
AcDbText
 10
64.926287
 20
18.679412
 30
0.0
 40
0.16275
  1
O
  7
Vcadd_SIMP
100
AcDbText
  0
LINE
  5
238
100
AcDbEntity
  8
4
370
    15
390
0
  6
Continuous
 62
     1
100
AcDbLine
 10
65.104558
 20
18.747836
 30
0.0
 11
66.207645
 21
18.747836
 31
0.0
  0
LINE
  5
239
100
AcDbEntity
  8
4
370
    15
390
0
  6
Continuous
 62
     1
100
AcDbLine
 10
66.012689
 20
20.194923
 30
0.0
 11
65.845056
 21
20.194923
 31
0.0
  0
LINE
  5
23A
100
AcDbEntity
  8
3
370
    15
390
0
  6
Continuous
 62
     1
100
AcDbLine
 10
65.289589
 20
20.251613
 30
0.0
 11
65.05946
 21
20.251613
 31
0.0
  0
LINE
  5
23B
100
AcDbEntity
  8
4
370
    15
390
0
  6
Continuous
 62
     1
100
AcDbLine
 10
65.289589
 20
20.251613
 30
0.0
 11
65.479377
 21
20.336241
 31
0.0
  0
LINE
  5
23C
100
AcDbEntity
  8
4
370
    15
390
0
  6
Continuous
 62
     1
100
AcDbLine
 10
65.479377
 20
20.336241
 30
0.0
 11
66.110645
 21
20.336241
 31
0.0
  0
LINE
  5
23D
100
AcDbEntity
  8
4
370
    15
390
0
  6
Continuous
 62
     1
100
AcDbLine
 10
65.9341
 20
19.971703
 30
0.0
 11
63.892255
 21
19.971703
 31
0.0
  0
LINE
  5
23E
100
AcDbEntity
  8
4
370
    15
390
0
  6
Continuous
 62
     1
100
AcDbLine
 10
65.845056
 20
20.194923
 30
0.0
 11
65.9341
 21
19.971703
 31
0.0
  0
LINE
  5
23F
100
AcDbEntity
  8
4
370
    15
390
0
  6
Continuous
 62
     7
100
AcDbLine
 10
64.92387
 20
20.168018
 30
0.0
 11
65.003894
 21
20.336353
 31
0.0
  0
TEXT
  5
240
100
AcDbEntity
  8
4
370
    15
390
0
  6
Continuous
 62
     7
100
AcDbText
 10
64.884235
 20
20.183185
 30
0.0
 40
0.16275
  1
O
  7
Vcadd_SIMP
100
AcDbText
  0
LINE
  5
241
100
AcDbEntity
  8
4
370
    15
390
0
  6
Continuous
 62
     7
100
AcDbLine
 10
64.92387
 20
21.462857
 30
0.0
 11
65.003894
 21
21.631192
 31
0.0
  0
TEXT
  5
242
100
AcDbEntity
  8
4
370
    15
390
0
  6
Continuous
 62
     7
100
AcDbText
 10
64.884235
 20
21.478024
 30
0.0
 40
0.16275
  1
O
  7
Vcadd_SIMP
100
AcDbText
  0
LINE
  5
243
100
AcDbEntity
  8
0
370
    15
390
0
  6
Continuous
 62
     1
100
AcDbLine
 10
65.312878
 20
20.439082
 30
0.0
 11
65.205131
 21
20.251613
 31
0.0
  0
LINE
  5
244
100
AcDbEntity
  8
0
370
    15
390
0
  6
Continuous
 62
     1
100
AcDbLine
 10
65.238739
 20
20.439082
 30
0.0
 11
65.312878
 21
20.439082
 31
0.0
  0
LINE
  5
245
100
AcDbEntity
  8
0
370
    15
390
0
  6
Continuous
 62
     1
100
AcDbLine
 10
65.205147
 20
20.251624
 30
0.0
 11
65.160339
 21
20.329227
 31
0.0
  0
LINE
  5
246
100
AcDbEntity
  8
3
370
    15
390
0
  6
Continuous
 62
     1
100
AcDbLine
 10
64.836944
 20
21.546452
 30
0.0
 11
64.12751
 21
21.546452
 31
0.0
  0
LINE
  5
247
100
AcDbEntity
  8
4
370
    15
390
0
  6
Continuous
 62
     1
100
AcDbLine
 10
65.064275
 20
21.546452
 30
0.0
 11
66.062656
 21
21.546452
 31
0.0
  0
LINE
  5
248
100
AcDbEntity
  8
1
370
    15
390
0
  6
Continuous
 62
     7
100
AcDbLine
 10
62.480828
 20
21.338176
 30
0.0
 11
62.616036
 21
21.338176
 31
0.0
  0
LINE
  5
249
100
AcDbEntity
  8
1
370
    15
390
0
  6
Continuous
 62
     7
100
AcDbLine
 10
62.730432
 20
21.140029
 30
0.0
 11
62.616036
 21
21.338176
 31
0.0
  0
CIRCLE
  5
24A
100
AcDbEntity
  8
1
370
    15
390
0
  6
Continuous
 62
     1
100
AcDbCircle
 10
62.61007
 20
21.277412
 30
0.0
 40
0.276708
  0
LINE
  5
24B
100
AcDbEntity
  8
1
370
    15
390
0
  6
Continuous
 62
     7
100
AcDbLine
 10
62.480828
 20
21.338176
 30
0.0
 11
62.480828
 21
21.524158
 31
0.0
  0
LINE
  5
24C
100
AcDbEntity
  8
1
370
    15
390
0
  6
Continuous
 62
     7
100
AcDbLine
 10
62.730432
 20
21.028247
 30
0.0
 11
62.730432
 21
21.140029
 31
0.0
  0
LINE
  5
24D
100
AcDbEntity
  8
1
370
    15
390
0
  6
Continuous
 62
     1
100
AcDbLine
 10
62.616036
 20
21.373165
 30
0.0
 11
62.616036
 21
21.896495
 31
0.0
  0
LINE
  5
24E
100
AcDbEntity
  8
1
370
    15
390
0
  6
Continuous
 62
     1
100
AcDbLine
 10
62.334962
 20
21.825012
 30
0.0
 11
62.598886
 21
21.367881
 31
0.0
  0
INSERT
  5
25C
100
AcDbEntity
  8
3
370
    40
390
0
  6
Continuous
 62
     1
100
AcDbBlockReference
  2
MAU
 10
62.616036
 20
21.811172
 30
0.0
 42
-1.0
 50
270.0
  0
LINE
  5
25D
100
AcDbEntity
  8
3
370
    15
390
0
  6
Continuous
 62
     1
100
AcDbLine
 10
62.868714
 20
21.811172
 30
0.0
 11
62.616036
 21
21.811172
 31
0.0
  0
INSERT
  5
26B
100
AcDbEntity
  8
3
370
    53
390
0
  6
Continuous
 62
     1
100
AcDbBlockReference
  2
MAL
 10
62.380036
 20
21.74694
 30
0.0
 42
-1.0
 50
205.0
  0
LINE
  5
26C
100
AcDbEntity
  8
3
370
    15
390
0
  6
Continuous
 62
     1
100
AcDbLine
 10
62.166467
 20
21.636451
 30
0.0
 11
62.380036
 21
21.74694
 31
0.0
  0
INSERT
  5
26D
100
AcDbEntity
  8
3
370
    40
390
0
  6
Continuous
 62
     1
100
AcDbBlockReference
  2
MAU
 10
62.616036
 20
21.4528
 30
0.0
 42
-1.0
 50
270.0
  0
LINE
  5
26E
100
AcDbEntity
  8
3
370
    15
390
0
  6
Continuous
 62
     1
100
AcDbLine
 10
63.030358
 20
21.4528
 30
0.0
 11
62.616036
 21
21.4528
 31
0.0
  0
LINE
  5
26F
100
AcDbEntity
  8
4
370
    15
390
0
  6
Continuous
 62
     7
100
AcDbLine
 10
63.712145
 20
21.354221
 30
0.0
 11
63.79217
 21
21.522556
 31
0.0
  0
TEXT
  5
270
100
AcDbEntity
  8
4
370
    15
390
0
  6
Continuous
 62
     7
100
AcDbText
 10
63.67251
 20
21.369388
 30
0.0
 40
0.16275
  1
O
  7
Vcadd_SIMP
100
AcDbText
  0
LINE
  5
271
100
AcDbEntity
  8
3
370
    15
390
0
  6
Continuous
 62
     1
100
AcDbLine
 10
63.628274
 20
21.4528
 30
0.0
 11
63.030358
 21
21.4528
 31
0.0
  0
LINE
  5
273
100
AcDbEntity
  8
4
370
    15
390
0
  6
LT8
 62
     1
100
AcDbLine
 10
66.121809
 20
20.582559
 30
0.0
 11
63.692268
 21
21.260493
 31
0.0
  0
LINE
  5
274
100
AcDbEntity
  8
4
370
    15
390
0
  6
LT8
 62
     1
100
AcDbLine
 10
62.850951
 20
21.495252
 30
0.0
 11
62.657
 21
21.549372
 31
0.0
  0
LINE
  5
275
100
AcDbEntity
  8
4
370
    15
390
0
  6
LT8
 62
     1
100
AcDbLine
 10
66.063789
 20
20.38793
 30
0.0
 11
65.606588
 21
20.468085
 31
0.0
  0
LINE
  5
276
100
AcDbEntity
  8
4
370
    15
390
0
  6
LT8
 62
     1
100
AcDbLine
 10
64.953625
 20
20.582559
 30
0.0
 11
62.546763
 21
21.004518
 31
0.0
  0
ARC
  5
277
100
AcDbEntity
  8
4
370
    15
390
0
  6
Continuous
 62
     1
100
AcDbCircle
 10
66.207645
 20
20.097931
 30
0.0
 40
0.731923
100
AcDbArc
 50
315.0
 51
334.186528
  0
ARC
  5
278
100
AcDbEntity
  8
4
370
    15
390
0
  6
Continuous
 62
     1
100
AcDbCircle
 10
66.207645
 20
20.097931
 30
0.0
 40
0.731923
100
AcDbArc
 50
248.456372
 51
270.0
  0
LINE
  5
279
100
AcDbEntity
  8
4
370
    15
390
0
  6
Continuous
 62
     1
100
AcDbLine
 10
66.302347
 20
20.003229
 30
0.0
 11
66.840154
 21
19.465422
 31
0.0
  0
LINE
  5
27A
100
AcDbEntity
  8
4
370
    15
390
0
  6
Continuous
 62
     1
100
AcDbLine
 10
64.039303
 20
20.358169
 30
0.0
 11
63.838512
 21
20.358169
 31
0.0
  0
LINE
  5
27B
100
AcDbEntity
  8
4
370
    15
390
0
  6
Continuous
 62
     1
100
AcDbLine
 10
64.039303
 20
20.358169
 30
0.0
 11
63.838512
 21
20.358169
 31
0.0
  0
LINE
  5
27C
100
AcDbEntity
  8
4
370
    15
390
0
  6
Continuous
 62
     1
100
AcDbLine
 10
64.039303
 20
20.150642
 30
0.0
 11
63.838512
 21
20.150642
 31
0.0
  0
LINE
  5
27D
100
AcDbEntity
  8
4
370
    15
390
0
  6
Continuous
 62
     1
100
AcDbLine
 10
63.838512
 20
20.150642
 30
0.0
 11
63.815349
 21
20.150642
 31
0.0
  0
LINE
  5
27E
100
AcDbEntity
  8
4
370
    15
390
0
  6
Continuous
 62
     1
100
AcDbLine
 10
63.815349
 20
20.150642
 30
0.0
 11
63.815349
 21
20.358169
 31
0.0
  0
LINE
  5
27F
100
AcDbEntity
  8
4
370
    15
390
0
  6
Continuous
 62
     1
100
AcDbLine
 10
63.815349
 20
20.358169
 30
0.0
 11
63.873409
 21
20.358169
 31
0.0
  0
LINE
  5
280
100
AcDbEntity
  8
4
370
    15
390
0
  6
Continuous
 62
     1
100
AcDbLine
 10
64.039303
 20
20.150642
 30
0.0
 11
64.055759
 21
20.150642
 31
0.0
  0
LINE
  5
281
100
AcDbEntity
  8
4
370
    15
390
0
  6
Continuous
 62
     1
100
AcDbLine
 10
64.055759
 20
20.150642
 30
0.0
 11
64.055759
 21
20.358169
 31
0.0
  0
LINE
  5
282
100
AcDbEntity
  8
4
370
    15
390
0
  6
Continuous
 62
     1
100
AcDbLine
 10
64.055759
 20
20.358169
 30
0.0
 11
63.982441
 21
20.358169
 31
0.0
  0
TEXT
  5
283
100
AcDbEntity
  8
4
370
    15
390
0
  6
Continuous
 62
     7
100
AcDbText
 10
63.868526
 20
20.188094
 30
0.0
 40
0.142
  1
A
 50
360.0
  7
Vcadd_SIMP
100
AcDbText
  0
LINE
  5
284
100
AcDbEntity
  8
3
370
    15
390
0
  6
Continuous
 62
     1
100
AcDbLine
 10
64.836944
 20
20.251613
 30
0.0
 11
64.055759
 21
20.251613
 31
0.0
  0
TEXT
  5
285
100
AcDbEntity
  8
4
370
    15
390
0
  6
Continuous
 62
     7
100
AcDbText
 10
62.913865
 20
21.742439
 30
0.0
 40
0.142
  1
30^ **
  7
Vcadd_SIMP
100
AcDbText
  0
TEXT
  5
286
100
AcDbEntity
  8
4
370
    15
390
0
  6
Continuous
 62
     7
100
AcDbText
 10
65.841955
 20
18.483675
 30
0.0
 40
0.114
  1
30^  
  7
Vcadd_SIMP
100
AcDbText
  0
TEXT
  5
287
100
AcDbEntity
  8
4
370
    15
390
0
  6
Continuous
 62
     7
100
AcDbText
 10
65.841955
 20
18.312675
 30
0.0
 40
0.114
  1
 **
  7
Vcadd_SIMP
100
AcDbText
  0
TEXT
  5
288
100
AcDbEntity
  8
4
370
    15
390
0
  6
Continuous
 62
     7
100
AcDbText
 10
65.880957
 20
16.607676
 30
0.0
 40
0.114
  1
30^  
  7
Vcadd_SIMP
100
AcDbText
  0
TEXT
  5
289
100
AcDbEntity
  8
4
370
    15
390
0
  6
Continuous
 62
     7
100
AcDbText
 10
65.880957
 20
16.436676
 30
0.0
 40
0.114
  1
 **
  7
Vcadd_SIMP
100
AcDbText
  0
LINE
  5
28A
100
AcDbEntity
  8
4
370
    15
390
0
  6
Continuous
 62
     1
100
AcDbLine
 10
65.588341
 20
17.615438
 30
0.0
 11
65.959434
 21
17.615438
 31
0.0
  0
LINE
  5
28B
100
AcDbEntity
  8
4
370
    15
390
0
  6
Continuous
 62
     1
100
AcDbLine
 10
65.959434
 20
17.615438
 30
0.0
 11
66.246646
 21
17.753372
 31
0.0
  0
LINE
  5
28C
100
AcDbEntity
  8
4
370
    15
390
0
  6
Continuous
 62
     1
100
AcDbLine
 10
65.629341
 20
15.741257
 30
0.0
 11
66.011433
 21
15.741257
 31
0.0
  0
LINE
  5
28D
100
AcDbEntity
  8
4
370
    15
390
0
  6
Continuous
 62
     1
100
AcDbLine
 10
66.011433
 20
15.741257
 30
0.0
 11
66.287647
 21
15.873909
 31
0.0
  0
TEXT
  5
28E
100
AcDbEntity
  8
4
370
    15
390
0
  6
Continuous
 62
     7
100
AcDbText
 10
65.921957
 20
14.701676
 30
0.0
 40
0.114
  1
30^  
  7
Vcadd_SIMP
100
AcDbText
  0
TEXT
  5
28F
100
AcDbEntity
  8
4
370
    15
390
0
  6
Continuous
 62
     7
100
AcDbText
 10
65.921957
 20
14.530676
 30
0.0
 40
0.114
  1
 **
  7
Vcadd_SIMP
100
AcDbText
  0
LINE
  5
290
100
AcDbEntity
  8
4
370
    15
390
0
  6
Continuous
 62
     1
100
AcDbLine
 10
65.801427
 20
14.318942
 30
0.0
 11
66.107015
 21
13.859239
 31
0.0
  0
LINE
  5
291
100
AcDbEntity
  8
4
370
    15
390
0
  6
Continuous
 62
     1
100
AcDbLine
 10
65.610898
 20
14.318942
 30
0.0
 11
65.801427
 21
14.318942
 31
0.0
  0
LINE
  5
292
100
AcDbEntity
  8
4
370
    15
390
0
  6
Continuous
 62
     1
100
AcDbLine
 10
66.330829
 20
20.506927
 30
0.0
 11
66.330829
 21
20.278777
 31
0.0
  0
LINE
  5
293
100
AcDbEntity
  8
3
370
    15
390
0
  6
Continuous
 62
     1
100
AcDbLine
 10
66.223659
 20
20.568924
 30
0.0
 11
66.465738
 21
20.568924
 31
0.0
  0
LINE
  5
294
100
AcDbEntity
  8
3
370
    15
390
0
  6
Continuous
 62
     1
100
AcDbLine
 10
66.189663
 20
20.506927
 30
0.0
 11
66.577254
 21
20.506927
 31
0.0
  0
LINE
  5
295
100
AcDbEntity
  8
1
370
    15
390
0
  6
Continuous
 62
     1
100
AcDbLine
 10
67.142658
 20
22.027418
 30
0.0
 11
67.142658
 21
21.12027
 31
0.0
  0
LINE
  5
296
100
AcDbEntity
  8
4
370
    15
390
0
  6
Continuous
 62
     1
100
AcDbLine
 10
66.577254
 20
20.506927
 30
0.0
 11
66.577254
 21
22.396319
 31
0.0
  0
LINE
  5
297
100
AcDbEntity
  8
4
370
    15
390
0
  6
Continuous
 62
     1
100
AcDbLine
 10
66.330829
 20
22.619952
 30
0.0
 11
67.071676
 21
23.931404
 31
0.0
  0
LINE
  5
298
100
AcDbEntity
  8
3
370
    15
390
0
  6
Continuous
 62
     1
100
AcDbLine
 10
67.268489
 20
23.931404
 30
0.0
 11
67.071676
 21
23.931404
 31
0.0
  0
TEXT
  5
299
100
AcDbEntity
  8
0
370
    15
390
0
  6
Continuous
 62
     7
100
AcDbText
 10
62.372066
 20
13.344357
 30
0.0
 40
0.13536
  1
SERIES 2
 50
-90.0
  7
Vcadd_SIMP
100
AcDbText
  0
LINE
  5
29A
100
AcDbEntity
  8
1
370
    15
390
0
  6
Continuous
 62
     7
100
AcDbLine
 10
65.830658
 20
22.348925
 30
0.0
 11
65.830658
 21
22.617803
 31
0.0
  0
LINE
  5
29B
100
AcDbEntity
  8
1
370
    15
390
0
  6
Continuous
 62
     7
100
AcDbLine
 10
66.062656
 20
22.116927
 30
0.0
 11
65.830658
 21
22.348925
 31
0.0
  0
LINE
  5
29C
100
AcDbEntity
  8
1
370
    15
390
0
  6
LT22
 62
     1
100
AcDbLine
 10
65.891662
 20
22.617803
 30
0.0
 11
65.891662
 21
22.376212
 31
0.0
  0
LINE
  5
29D
100
AcDbEntity
  8
1
370
    15
390
0
  6
LT22
 62
     1
100
AcDbLine
 10
66.123661
 20
22.144214
 30
0.0
 11
65.891662
 21
22.376212
 31
0.0
  0
ARC
  5
29E
100
AcDbEntity
  8
4
370
    15
390
0
  6
Continuous
 62
     1
100
AcDbCircle
 10
66.062656
 20
22.116927
 30
0.0
 40
0.731923
100
AcDbArc
 50
315.0
 51
334.186528
  0
ARC
  5
29F
100
AcDbEntity
  8
4
370
    15
390
0
  6
Continuous
 62
     1
100
AcDbCircle
 10
66.062656
 20
22.116927
 30
0.0
 40
0.731923
100
AcDbArc
 50
248.456372
 51
270.0
  0
LINE
  5
2A0
100
AcDbEntity
  8
4
370
    15
390
0
  6
Continuous
 62
     1
100
AcDbLine
 10
66.157358
 20
22.022226
 30
0.0
 11
66.695165
 21
21.484419
 31
0.0
  0
TEXT
  5
2A1
100
AcDbEntity
  8
4
370
    15
390
0
  6
Continuous
 62
     7
100
AcDbText
 10
66.155306
 20
21.482507
 30
0.0
 40
0.142
  1
45^  
  7
Vcadd_SIMP
100
AcDbText
  0
LINE
  5
2A2
100
AcDbEntity
  8
4
370
    15
390
0
  6
Continuous
 62
     1
100
AcDbLine
 10
65.40435
 20
21.978993
 30
0.0
 11
65.775444
 21
21.978993
 31
0.0
  0
LINE
  5
2A3
100
AcDbEntity
  8
4
370
    15
390
0
  6
Continuous
 62
     1
100
AcDbLine
 10
65.775444
 20
21.978993
 30
0.0
 11
66.062656
 21
22.116927
 31
0.0
  0
LINE
  5
2A4
100
AcDbEntity
  8
1
370
    15
390
0
  6
Continuous
 62
     7
100
AcDbLine
 10
66.062656
 20
22.116927
 30
0.0
 11
66.062656
 21
20.506927
 31
0.0
  0
LINE
  5
2A5
100
AcDbEntity
  8
1
370
    15
390
0
  6
LT22
 62
     1
100
AcDbLine
 10
66.123661
 20
22.144214
 30
0.0
 11
66.123661
 21
20.568924
 31
0.0
  0
LINE
  5
2A6
100
AcDbEntity
  8
4
370
    15
390
0
  6
Continuous
 62
     1
100
AcDbLine
 10
66.330829
 20
20.568924
 30
0.0
 11
66.330829
 21
21.37238
 31
0.0
  0
LINE
  5
2A7
100
AcDbEntity
  8
4
370
    15
390
0
  6
Continuous
 62
     1
100
AcDbLine
 10
66.330829
 20
21.679379
 30
0.0
 11
66.330829
 21
22.619952
 31
0.0
  0
LINE
  5
2A8
100
AcDbEntity
  8
4
370
    15
390
0
  6
Continuous
 62
     1
100
AcDbLine
 10
66.465738
 20
20.568924
 30
0.0
 11
66.465738
 21
21.448396
 31
0.0
  0
LINE
  5
2A9
100
AcDbEntity
  8
4
370
    15
390
0
  6
Continuous
 62
     1
100
AcDbLine
 10
66.465738
 20
21.679379
 30
0.0
 11
66.465738
 21
22.480228
 31
0.0
  0
TEXT
  5
2AA
100
AcDbEntity
  8
4
370
    15
390
0
  6
Continuous
 62
     7
100
AcDbText
 10
64.153999
 20
21.567517
 30
0.0
 40
0.142
  1
27,38
  7
Vcadd_SIMP
100
AcDbText
  0
TEXT
  5
2AB
100
AcDbEntity
  8
4
370
    15
390
0
  6
Continuous
 62
     7
100
AcDbText
 10
64.153999
 20
21.390019
 30
0.0
 40
0.142
  1
27,43
  7
Vcadd_SIMP
100
AcDbText
  0
TEXT
  5
2AC
100
AcDbEntity
  8
4
370
    15
390
0
  6
Continuous
 62
     7
100
AcDbText
 10
64.637195
 20
21.925557
 30
0.0
 40
0.128
  1
0,80 R
  7
Vcadd_SIMP
100
AcDbText
  0
TEXT
  5
2AD
100
AcDbEntity
  8
4
370
    15
390
0
  6
Continuous
 62
     7
100
AcDbText
 10
63.322951
 20
19.893103
 30
0.0
 40
0.142
  1
3,96
  7
Vcadd_SIMP
100
AcDbText
  0
TEXT
  5
2AE
100
AcDbEntity
  8
4
370
    15
390
0
  6
Continuous
 62
     7
100
AcDbText
 10
64.153999
 20
20.272678
 30
0.0
 40
0.142
  1
26,19
  7
Vcadd_SIMP
100
AcDbText
  0
TEXT
  5
2AF
100
AcDbEntity
  8
4
370
    15
390
0
  6
Continuous
 62
     7
100
AcDbText
 10
64.153999
 20
20.09518
 30
0.0
 40
0.142
  1
26,24
  7
Vcadd_SIMP
100
AcDbText
  0
TEXT
  5
2B0
100
AcDbEntity
  8
4
370
    15
390
0
  6
Continuous
 62
     7
100
AcDbText
 10
64.986293
 20
20.356254
 30
0.0
 40
0.088
  1
1,6
  7
Vcadd_SIMP
100
AcDbText
  0
TEXT
  5
2B1
100
AcDbEntity
  8
4
370
    15
390
0
  6
Continuous
 62
     7
100
AcDbText
 10
64.156403
 20
18.768905
 30
0.0
 40
0.142
  1
23,70
  7
Vcadd_SIMP
100
AcDbText
  0
TEXT
  5
2B2
100
AcDbEntity
  8
4
370
    15
390
0
  6
Continuous
 62
     7
100
AcDbText
 10
64.156403
 20
18.591403
 30
0.0
 40
0.142
  1
23,80
  7
Vcadd_SIMP
100
AcDbText
  0
LINE
  5
2B3
100
AcDbEntity
  8
3
370
    15
390
0
  6
Continuous
 62
     1
100
AcDbLine
 10
64.827234
 20
18.747836
 30
0.0
 11
64.160503
 21
18.747836
 31
0.0
  0
TEXT
  5
2B4
100
AcDbEntity
  8
4
370
    15
390
0
  6
Continuous
 62
     7
100
AcDbText
 10
63.161012
 20
17.776179
 30
0.0
 40
0.142
  1
34,14
  7
Vcadd_SIMP
100
AcDbText
  0
TEXT
  5
2B5
100
AcDbEntity
  8
4
370
    15
390
0
  6
Continuous
 62
     7
100
AcDbText
 10
64.150693
 20
16.94264
 30
0.0
 40
0.142
  1
22,73
  7
Vcadd_SIMP
100
AcDbText
  0
TEXT
  5
2B6
100
AcDbEntity
  8
4
370
    15
390
0
  6
Continuous
 62
     7
100
AcDbText
 10
64.150693
 20
16.765143
 30
0.0
 40
0.142
  1
22,78
  7
Vcadd_SIMP
100
AcDbText
  0
LINE
  5
2B7
100
AcDbEntity
  8
3
370
    15
390
0
  6
Continuous
 62
     1
100
AcDbLine
 10
64.827234
 20
16.921576
 30
0.0
 11
64.143136
 21
16.921576
 31
0.0
  0
TEXT
  5
2B8
100
AcDbEntity
  8
4
370
    15
390
0
  6
Continuous
 62
     7
100
AcDbText
 10
63.174689
 20
15.888835
 30
0.0
 40
0.142
  1
57,94
  7
Vcadd_SIMP
100
AcDbText
  0
TEXT
  5
2B9
100
AcDbEntity
  8
4
370
    15
390
0
  6
Continuous
 62
     7
100
AcDbText
 10
63.162848
 20
13.982886
 30
0.0
 40
0.142
  1
82,14
  7
Vcadd_SIMP
100
AcDbText
  0
TEXT
  5
2BA
100
AcDbEntity
  8
4
370
    15
390
0
  6
Continuous
 62
     7
100
AcDbText
 10
64.166475
 20
15.157265
 30
0.0
 40
0.142
  1
21,69
  7
Vcadd_SIMP
100
AcDbText
  0
TEXT
  5
2BB
100
AcDbEntity
  8
4
370
    15
390
0
  6
Continuous
 62
     7
100
AcDbText
 10
64.166475
 20
14.979764
 30
0.0
 40
0.142
  1
21,74
  7
Vcadd_SIMP
100
AcDbText
  0
LINE
  5
2BC
100
AcDbEntity
  8
3
370
    15
390
0
  6
Continuous
 62
     1
100
AcDbLine
 10
64.827234
 20
15.136197
 30
0.0
 11
64.182392
 21
15.136197
 31
0.0
  0
TEXT
  5
2BD
100
AcDbEntity
  8
4
370
    15
390
0
  6
Continuous
 62
     7
100
AcDbText
 10
64.9738
 20
17.058012
 30
0.0
 40
0.088
  1
1,6
  7
Vcadd_SIMP
100
AcDbText
  0
TEXT
  5
2BE
100
AcDbEntity
  8
4
370
    15
390
0
  6
Continuous
 62
     7
100
AcDbText
 10
64.966687
 20
15.272633
 30
0.0
 40
0.088
  1
1,6
  7
Vcadd_SIMP
100
AcDbText
  0
TEXT
  5
2BF
100
AcDbEntity
  8
4
370
    15
390
0
  6
Continuous
 62
     7
100
AcDbText
 10
65.552341
 20
13.809175
 30
0.0
 40
0.088
  1
1,6
  7
Vcadd_SIMP
100
AcDbText
  0
TEXT
  5
2C0
100
AcDbEntity
  8
4
370
    15
390
0
  6
Continuous
 62
     7
100
AcDbText
 10
64.779943
 20
13.538247
 30
0.0
 40
0.142
  1
20,68
  7
Vcadd_SIMP
100
AcDbText
  0
LINE
  5
2C1
100
AcDbEntity
  8
3
370
    15
390
0
  6
Continuous
 62
     1
100
AcDbLine
 10
65.447075
 20
13.694681
 30
0.0
 11
64.783464
 21
13.694681
 31
0.0
  0
TEXT
  5
2C2
100
AcDbEntity
  8
4
370
    15
390
0
  6
Continuous
 62
     7
100
AcDbText
 10
64.911535
 20
13.26083
 30
0.0
 40
0.142
  1
92,28
  7
Vcadd_SIMP
100
AcDbText
  0
TEXT
  5
2C3
100
AcDbEntity
  8
4
370
    15
390
0
  6
Continuous
 62
     7
100
AcDbText
 10
64.911535
 20
13.08333
 30
0.0
 40
0.142
  1
92,38
  7
Vcadd_SIMP
100
AcDbText
  0
TEXT
  5
2C4
100
AcDbEntity
  8
4
370
    15
390
0
  6
Continuous
 62
     7
100
AcDbText
 10
70.681896
 20
14.56931
 30
0.0
 40
0.142
  1
74,63
  7
Vcadd_SIMP
100
AcDbText
  0
TEXT
  5
2C5
100
AcDbEntity
  8
4
370
    15
390
0
  6
Continuous
 62
     7
100
AcDbText
 10
70.681896
 20
16.481754
 30
0.0
 40
0.142
  1
50,39
  7
Vcadd_SIMP
100
AcDbText
  0
TEXT
  5
2C6
100
AcDbEntity
  8
4
370
    15
390
0
  6
Continuous
 62
     7
100
AcDbText
 10
69.256986
 20
15.660872
 30
0.0
 40
0.142
  1
14,27
  7
Vcadd_SIMP
100
AcDbText
  0
TEXT
  5
2C7
100
AcDbEntity
  8
4
370
    15
390
0
  6
Continuous
 62
     7
100
AcDbText
 10
69.256986
 20
13.754865
 30
0.0
 40
0.142
  1
14,27
  7
Vcadd_SIMP
100
AcDbText
  0
TEXT
  5
2C8
100
AcDbEntity
  8
4
370
    15
390
0
  6
Continuous
 62
     7
100
AcDbText
 10
69.246671
 20
17.547516
 30
0.0
 40
0.142
  1
19,05
  7
Vcadd_SIMP
100
AcDbText
  0
TEXT
  5
2C9
100
AcDbEntity
  8
4
370
    15
390
0
  6
Continuous
 62
     7
100
AcDbText
 10
70.681896
 20
18.558653
 30
0.0
 40
0.142
  1
24,21
  7
Vcadd_SIMP
100
AcDbText
  0
TEXT
  5
2CA
100
AcDbEntity
  8
4
370
    15
390
0
  6
Continuous
 62
     7
100
AcDbText
 10
63.315928
 20
20.447608
 30
0.0
 40
0.142
  1
0,00
  7
Vcadd_SIMP
100
AcDbText
  0
TEXT
  5
2CB
100
AcDbEntity
  8
4
370
    15
390
0
  6
Continuous
 62
     7
100
AcDbText
 10
70.681896
 20
20.452333
 30
0.0
 40
0.142
  1
0,00
  7
Vcadd_SIMP
100
AcDbText
  0
TEXT
  5
2CC
100
AcDbEntity
  8
0
370
    15
390
0
  6
Continuous
 62
     7
100
AcDbText
 10
62.360296
 20
13.771485
 30
0.0
 40
0.094
  1
2
 50
-90.0
  7
Vcadd_SIMP
100
AcDbText
  0
LINE
  5
2CD
100
AcDbEntity
  8
4
370
    15
390
0
  6
Continuous
 62
     1
100
AcDbLine
 10
66.234899
 20
14.038923
 30
0.0
 11
66.038468
 21
14.038923
 31
0.0
  0
LINE
  5
2CE
100
AcDbEntity
  8
4
370
    15
390
0
  6
Continuous
 62
     1
100
AcDbLine
 10
65.940388
 20
14.038923
 30
0.0
 11
63.892255
 21
14.038923
 31
0.0
  0
LINE
  5
2CF
100
AcDbEntity
  8
1
370
    15
390
0
  6
Continuous
 62
     1
100
AcDbLine
 10
65.830658
 20
22.348925
 30
0.0
 11
66.243135
 21
22.348925
 31
0.0
  0
LINE
  5
2D0
100
AcDbEntity
  8
1
370
    15
390
0
  6
Continuous
 62
     1
100
AcDbLine
 10
66.062656
 20
22.116927
 30
0.0
 11
66.22724
 21
22.116927
 31
0.0
  0
TEXT
  5
2D1
100
AcDbEntity
  8
4
370
    15
390
0
  6
Continuous
 62
     7
100
AcDbText
 10
66.300295
 20
19.463511
 30
0.0
 40
0.142
  1
45^  
  7
Vcadd_SIMP
100
AcDbText
  0
LINE
  5
2D2
100
AcDbEntity
  8
4
370
    15
390
0
  6
Continuous
 62
     1
100
AcDbLine
 10
68.647775
 20
11.756925
 30
0.0
 11
68.527776
 21
12.79834
 31
0.0
  0
LINE
  5
2D3
100
AcDbEntity
  8
4
370
    15
390
0
  6
Continuous
 62
     1
100
AcDbLine
 10
69.384106
 20
12.79834
 30
0.0
 11
68.527776
 21
12.79834
 31
0.0
  0
LINE
  5
2D4
100
AcDbEntity
  8
4
370
    15
390
0
  6
Continuous
 62
     1
100
AcDbLine
 10
62.398314
 20
21.338176
 30
0.0
 11
62.254408
 21
21.338176
 31
0.0
  0
TEXT
  5
2D5
100
AcDbEntity
  8
4
370
    15
390
0
  6
Continuous
 62
     7
100
AcDbText
 10
61.761319
 20
21.275286
 30
0.0
 40
0.142
  1
L.S.
  7
Vcadd_SIMP
100
AcDbText
  0
LINE
  5
2D6
100
AcDbEntity
  8
3
370
    15
390
0
  6
Continuous
 62
     1
100
AcDbLine
 10
66.826207
 20
22.829298
 30
0.0
 11
66.726851
 21
22.829298
 31
0.0
  0
LINE
  5
2D7
100
AcDbEntity
  8
4
370
    15
390
0
  6
Continuous
 62
     1
100
AcDbLine
 10
66.961516
 20
23.318658
 30
0.0
 11
66.855703
 21
23.318658
 31
0.0
  0
LINE
  5
2D8
100
AcDbEntity
  8
4
370
    15
390
0
  6
Continuous
 62
     1
100
AcDbLine
 10
66.577254
 20
22.396319
 30
0.0
 11
66.726851
 21
22.829298
 31
0.0
  0
LINE
  5
2D9
100
AcDbEntity
  8
4
370
    15
390
0
  6
Continuous
 62
     1
100
AcDbLine
 10
66.465738
 20
22.480228
 30
0.0
 11
66.855703
 21
23.318658
 31
0.0
  0
INSERT
  5
2E2
100
AcDbEntity
  8
4
370
     0
390
0
  6
Continuous
 62
     1
100
AcDbBlockReference
  2
ARROW
 10
69.050542
 20
19.350929
 30
0.0
 50
90.0
  0
INSERT
  5
2E3
100
AcDbEntity
  8
4
370
     0
390
0
  6
Continuous
 62
     1
100
AcDbBlockReference
  2
ARROW
 10
69.050542
 20
17.858055
 30
0.0
 50
270.0
  0
INSERT
  5
2E4
100
AcDbEntity
  8
4
370
     0
390
0
  6
Continuous
 62
     1
100
AcDbBlockReference
  2
ARROW
 10
69.050542
 20
15.97493
 30
0.0
 50
270.0
  0
INSERT
  5
2E5
100
AcDbEntity
  8
4
370
     0
390
0
  6
Continuous
 62
     1
100
AcDbBlockReference
  2
ARROW
 10
69.050542
 20
14.068922
 30
0.0
 50
270.0
  0
INSERT
  5
2E6
100
AcDbEntity
  8
4
370
     0
390
0
  6
Continuous
 62
     1
100
AcDbBlockReference
  2
ARROW
 10
69.050542
 20
17.09893
 30
0.0
 50
90.0
  0
INSERT
  5
2E7
100
AcDbEntity
  8
4
370
     0
390
0
  6
Continuous
 62
     1
100
AcDbBlockReference
  2
ARROW
 10
69.050542
 20
15.192922
 30
0.0
 50
90.0
  0
INSERT
  5
2E8
100
AcDbEntity
  8
4
370
     0
390
0
  6
Continuous
 62
     1
100
AcDbBlockReference
  2
ARROW
 10
66.517658
 20
12.043592
 30
0.0
  0
INSERT
  5
2E9
100
AcDbEntity
  8
4
370
     0
390
0
  6
Continuous
 62
     1
100
AcDbBlockReference
  2
ARROW
 10
69.210953
 20
20.506927
 30
0.0
 50
90.0
  0
INSERT
  5
2EA
100
AcDbEntity
  8
4
370
     0
390
0
  6
Continuous
 62
     1
100
AcDbBlockReference
  2
ARROW
 10
69.210953
 20
20.568924
 30
0.0
 50
270.0
  0
INSERT
  5
2EB
100
AcDbEntity
  8
4
370
     0
390
0
  6
Continuous
 62
     1
100
AcDbBlockReference
  2
ARROW
 10
66.329654
 20
13.236921
 30
0.0
 41
1.0
 42
1.0
 50
66.400351
  0
INSERT
  5
2EC
100
AcDbEntity
  8
4
370
     0
390
0
  6
Continuous
 62
     1
100
AcDbBlockReference
  2
ARROW
 10
66.287647
 20
14.778972
 30
0.0
 42
1.0
 50
170.387339
  0
INSERT
  5
2ED
100
AcDbEntity
  8
4
370
     0
390
0
  6
Continuous
 62
     1
100
AcDbBlockReference
  2
ARROW
 10
65.917622
 20
14.679824
 30
0.0
 41
1.0
 42
1.0
 50
39.172892
  0
INSERT
  5
2EE
100
AcDbEntity
  8
4
370
     0
390
0
  6
Continuous
 62
     1
100
AcDbBlockReference
  2
ARROW
 10
66.246646
 20
16.684972
 30
0.0
 42
1.0
 50
170.387339
  0
INSERT
  5
2EF
100
AcDbEntity
  8
4
370
     0
390
0
  6
Continuous
 62
     1
100
AcDbBlockReference
  2
ARROW
 10
65.876622
 20
16.585824
 30
0.0
 41
1.0
 42
1.0
 50
39.172892
  0
INSERT
  5
2F0
100
AcDbEntity
  8
4
370
     0
390
0
  6
Continuous
 62
     1
100
AcDbBlockReference
  2
ARROW
 10
66.207645
 20
18.560972
 30
0.0
 42
1.0
 50
170.387339
  0
INSERT
  5
2F1
100
AcDbEntity
  8
4
370
     0
390
0
  6
Continuous
 62
     1
100
AcDbBlockReference
  2
ARROW
 10
65.83762
 20
18.461824
 30
0.0
 41
1.0
 42
1.0
 50
39.172892
  0
INSERT
  5
2F2
100
AcDbEntity
  8
4
370
     0
390
0
  6
Continuous
 62
     1
100
AcDbBlockReference
  2
ARROW
 10
66.329654
 20
13.966161
 30
0.0
 41
1.0
 42
1.0
 50
25.652679
  0
INSERT
  5
2F3
100
AcDbEntity
  8
4
370
     0
390
0
  6
Continuous
 62
     1
100
AcDbBlockReference
  2
ARROW
 10
66.287647
 20
15.873909
 30
0.0
 41
1.0
 42
1.0
 50
25.652679
  0
INSERT
  5
2F4
100
AcDbEntity
  8
4
370
     0
390
0
  6
Continuous
 62
     1
100
AcDbBlockReference
  2
ARROW
 10
66.329654
 20
13.694681
 30
0.0
  0
INSERT
  5
2F5
100
AcDbEntity
  8
4
370
     0
390
0
  6
Continuous
 62
     1
100
AcDbBlockReference
  2
ARROW
 10
66.287647
 20
15.136197
 30
0.0
  0
INSERT
  5
2F6
100
AcDbEntity
  8
4
370
     0
390
0
  6
Continuous
 62
     1
100
AcDbBlockReference
  2
ARROW
 10
66.246646
 20
17.753372
 30
0.0
 41
1.0
 42
1.0
 50
25.652679
  0
INSERT
  5
2F7
100
AcDbEntity
  8
4
370
     0
390
0
  6
Continuous
 62
     1
100
AcDbBlockReference
  2
ARROW
 10
66.246646
 20
16.921576
 30
0.0
  0
INSERT
  5
2F8
100
AcDbEntity
  8
4
370
     0
390
0
  6
Continuous
 62
     1
100
AcDbBlockReference
  2
ARROW
 10
66.110645
 20
20.336241
 30
0.0
  0
INSERT
  5
2F9
100
AcDbEntity
  8
4
370
     0
390
0
  6
Continuous
 62
     1
100
AcDbBlockReference
  2
ARROW
 10
66.062656
 20
21.546452
 30
0.0
  0
INSERT
  5
2FA
100
AcDbEntity
  8
4
370
     0
390
0
  6
Continuous
 62
     1
100
AcDbBlockReference
  2
ARROW
 10
66.207645
 20
19.366007
 30
0.0
 41
1.0
 50
352.34741
  0
INSERT
  5
2FB
100
AcDbEntity
  8
4
370
     0
390
0
  6
Continuous
 62
     1
100
AcDbBlockReference
  2
ARROW
 10
66.725193
 20
19.580383
 30
0.0
 41
1.0
 42
1.0
 50
231.917248
  0
INSERT
  5
2FC
100
AcDbEntity
  8
4
370
     0
390
0
  6
LT8
 62
     1
100
AcDbBlockReference
  2
ARROW
 10
66.207645
 20
18.747836
 30
0.0
  0
INSERT
  5
2FD
100
AcDbEntity
  8
4
370
     0
390
0
  6
Continuous
 62
     1
100
AcDbBlockReference
  2
ARROW
 10
66.330829
 20
20.568924
 30
0.0
 50
270.0
  0
INSERT
  5
2FE
100
AcDbEntity
  8
4
370
     0
390
0
  6
Continuous
 62
     1
100
AcDbBlockReference
  2
ARROW
 10
66.330829
 20
20.506927
 30
0.0
 50
90.0
  0
INSERT
  5
2FF
100
AcDbEntity
  8
4
370
     0
390
0
  6
Continuous
 62
     1
100
AcDbBlockReference
  2
ARROW
 10
66.062656
 20
21.385004
 30
0.0
 41
1.0
 50
352.34741
  0
INSERT
  5
300
100
AcDbEntity
  8
4
370
     0
390
0
  6
Continuous
 62
     1
100
AcDbBlockReference
  2
ARROW
 10
66.580204
 20
21.599379
 30
0.0
 41
1.0
 42
1.0
 50
231.917248
  0
INSERT
  5
301
100
AcDbEntity
  8
4
370
     0
390
0
  6
Continuous
 62
     1
100
AcDbBlockReference
  2
ARROW
 10
66.062656
 20
22.116927
 30
0.0
 41
1.0
 42
1.0
 50
25.652679
  0
LINE
  5
302
100
AcDbEntity
  8
4
370
    15
390
0
  6
Continuous
 62
     1
100
AcDbLine
 10
67.987721
 20
22.361905
 30
0.0
 11
68.192581
 21
22.361905
 31
0.0
  0
LINE
  5
303
100
AcDbEntity
  8
4
370
    15
390
0
  6
Continuous
 62
     1
100
AcDbLine
 10
68.192581
 20
22.361905
 30
0.0
 11
68.10363
 21
21.883926
 31
0.0
  0
INSERT
  5
304
100
AcDbEntity
  8
4
370
     0
390
0
  6
Continuous
 62
     1
100
AcDbBlockReference
  2
ARROW
 10
68.10363
 20
21.883926
 30
0.0
 41
1.0
 42
1.0
 50
259.457929
  0
TEXT
  5
305
100
AcDbEntity
  8
4
370
    15
390
0
  6
Continuous
 62
     7
100
AcDbText
 10
66.718632
 20
22.302183
 30
0.0
 40
0.142
  1
28,40 HEX
  7
Vcadd_SIMP
100
AcDbText
  0
TEXT
  5
306
100
AcDbEntity
  8
0
370
    15
390
0
  6
Continuous
 62
     7
100
AcDbText
 10
70.84312
 20
9.024312
 30
0.0
 40
0.13
  1
T-32A Metrisch
 50
-90.0
  7
Vcadd_SIMP
 72
     1
 11
71.565004
 21
9.024312
 31
0.0
100
AcDbText
  0
TEXT
  5
307
100
AcDbEntity
  8
0
370
    15
390
0
  6
Continuous
 62
     7
100
AcDbText
 10
70.749886
 20
9.024312
 30
0.0
 40
0.13
  1
Blatt 3 von 3
 50
-90.0
  7
Vcadd_SIMP
 72
     1
 11
71.396004
 21
9.024312
 31
0.0
100
AcDbText
  0
TEXT
  5
308
100
AcDbEntity
  8
4
370
    15
390
0
  6
Continuous
 62
     7
100
AcDbText
 10
67.193332
 20
11.500315
 30
0.0
 40
0.13
  1
Anschluss #1
  7
Vcadd_SIMP
100
AcDbText
  0
TEXT
  5
309
100
AcDbEntity
  8
4
370
    15
390
0
  6
Continuous
 62
     7
100
AcDbText
 10
69.4144
 20
12.734353
 30
0.0
 40
0.142
  1
111,1
  7
Vcadd_SIMP
100
AcDbText
  0
TEXT
  5
30A
100
AcDbEntity
  8
4
370
    15
390
0
  6
Continuous
 62
     7
100
AcDbText
 10
69.314105
 20
13.288531
 30
0.0
 40
0.12
  1
Abstützung
  7
Vcadd_SIMP
100
AcDbText
  0
TEXT
  5
30B
100
AcDbEntity
  8
4
370
    15
390
0
  6
Continuous
 62
     7
100
AcDbText
 10
69.314105
 20
13.108531
 30
0.0
 40
0.12
  1
(für Ventilbuchse)
  7
Vcadd_SIMP
100
AcDbText
  0
TEXT
  5
30C
100
AcDbEntity
  8
4
370
    15
390
0
  6
Continuous
 62
     7
100
AcDbText
 10
69.193886
 20
14.847047
 30
0.0
 40
0.13
  1
Anschluss #2
  7
Vcadd_SIMP
100
AcDbText
  0
TEXT
  5
30D
100
AcDbEntity
  8
4
370
    15
390
0
  6
Continuous
 62
     7
100
AcDbText
 10
69.211883
 20
16.670869
 30
0.0
 40
0.13
  1
Anschluss #3
  7
Vcadd_SIMP
100
AcDbText
  0
TEXT
  5
30E
100
AcDbEntity
  8
4
370
    15
390
0
  6
Continuous
 62
     7
100
AcDbText
 10
69.218361
 20
18.844554
 30
0.0
 40
0.13
  1
Anschluss #4
  7
Vcadd_SIMP
100
AcDbText
  0
TEXT
  5
30F
100
AcDbEntity
  8
4
370
    15
390
0
  6
Continuous
 62
     7
100
AcDbText
 10
69.467757
 20
19.975174
 30
0.0
 40
0.12
  1
0,80 Empf. min. Abstand
  7
Vcadd_SIMP
100
AcDbText
  0
TEXT
  5
310
100
AcDbEntity
  8
4
370
    15
390
0
  6
Continuous
 62
     7
100
AcDbText
 10
69.467757
 20
19.795174
 30
0.0
 40
0.12
  1
von Oberfläche (gefräßt)
  7
Vcadd_SIMP
100
AcDbText
  0
TEXT
  5
311
100
AcDbEntity
  8
4
370
    15
390
0
  6
Continuous
 62
     7
100
AcDbText
 10
69.463842
 20
19.602493
 30
0.0
 40
0.12
  1
1,60 Empf. min. Abstand
  7
Vcadd_SIMP
100
AcDbText
  0
TEXT
  5
312
100
AcDbEntity
  8
4
370
    15
390
0
  6
Continuous
 62
     7
100
AcDbText
 10
69.463842
 20
19.422493
 30
0.0
 40
0.12
  1
von Oberfläche (ungefräßt)
  7
Vcadd_SIMP
100
AcDbText
  0
TEXT
  5
313
100
AcDbEntity
  8
4
370
    15
390
0
  6
Continuous
 62
     7
100
AcDbText
 10
69.541501
 20
20.540507
 30
0.0
 40
0.12
  1
Min. Abstand
  7
Vcadd_SIMP
 72
     2
 11
70.636575
 21
20.540507
 31
0.0
100
AcDbText
  0
TEXT
  5
314
100
AcDbEntity
  8
4
370
    15
390
0
  6
Continuous
 62
     7
100
AcDbText
 10
69.168533
 20
20.360507
 30
0.0
 40
0.12
  1
zum LS-Anschlag
  7
Vcadd_SIMP
 72
     2
 11
70.636575
 21
20.360507
 31
0.0
100
AcDbText
  0
TEXT
  5
315
100
AcDbEntity
  8
4
370
    15
390
0
  6
Continuous
 62
     7
100
AcDbText
 10
62.187502
 20
23.672617
 30
0.0
 40
0.14
  1
T-
  7
Vcadd_SIMP
100
AcDbText
  0
TEXT
  5
316
100
AcDbEntity
  8
4
370
    15
390
0
  6
Continuous
 62
     7
100
AcDbText
 10
62.960034
 20
23.672617
 30
0.0
 40
0.14
  1
Einschraubventilbohrung
  7
Vcadd_SIMP
100
AcDbText
  0
LINE
  5
317
100
AcDbEntity
  8
3
370
    15
390
0
  6
Continuous
 62
     1
100
AcDbLine
 10
62.229159
 20
23.64427
 30
0.0
 11
66.171071
 21
23.64427
 31
0.0
  0
TEXT
  5
318
100
AcDbEntity
  8
4
370
    15
390
0
  6
Continuous
 62
     7
100
AcDbText
 10
61.96627
 20
23.404152
 30
0.0
 40
0.14
  1
(alle Abmessungen in Millimeter)
  7
Vcadd_SIMP
100
AcDbText
  0
LINE
  5
319
100
AcDbEntity
  8
4
370
    15
390
0
  6
Continuous
 62
     7
100
AcDbLine
 10
62.257985
 20
23.158401
 30
0.0
 11
62.330554
 21
23.284096
 31
0.0
  0
LINE
  5
31A
100
AcDbEntity
  8
4
370
    15
390
0
  6
Continuous
 62
     7
100
AcDbLine
 10
62.403124
 20
23.158401
 30
0.0
 11
62.330554
 21
23.284096
 31
0.0
  0
LINE
  5
31B
100
AcDbEntity
  8
4
370
    15
390
0
  6
Continuous
 62
     7
100
AcDbLine
 10
62.257985
 20
23.158401
 30
0.0
 11
62.403124
 21
23.158401
 31
0.0
  0
TEXT
  5
31C
100
AcDbEntity
  8
4
370
    15
390
0
  6
Continuous
 62
     7
100
AcDbText
 10
62.467259
 20
23.161222
 30
0.0
 40
0.14
  1
1.000- 14 UNS- 2B Gewinde
  7
Vcadd_SIMP
100
AcDbText
  0
TEXT
  5
31D
100
AcDbEntity
  8
4
370
    15
390
0
  6
Continuous
 62
     7
100
AcDbText
 10
62.40329
 20
22.883812
 30
0.0
 40
0.14
  1
24,22/24,41 PITCH DIA.
  7
Vcadd_SIMP
 72
     1
 11
64.17429
 21
22.883812
 31
0.0
100
AcDbText
  0
TEXT
  5
31E
100
AcDbEntity
  8
4
370
    15
390
0
  6
Continuous
 62
     7
100
AcDbText
 10
62.438353
 20
23.669908
 30
0.0
 40
0.14
  1
32A
  7
Vcadd_SIMP
100
AcDbText
  0
TEXT
  5
31F
100
AcDbEntity
  8
4
370
    15
390
0
  6
Continuous
 62
     7
100
AcDbText
 10
62.588993
 20
19.199886
 30
0.0
 40
0.142
  1
15,88
  7
Vcadd_SIMP
100
AcDbText
  0
TEXT
  5
320
100
AcDbEntity
  8
4
370
    15
390
0
  6
Continuous
 62
     7
100
AcDbText
 10
63.316046
 20
19.307466
 30
0.0
 40
0.12
  1
Min. Abstand für Bereich mit
  7
Vcadd_SIMP
100
AcDbText
  0
TEXT
  5
321
100
AcDbEntity
  8
4
370
    15
390
0
  6
Continuous
 62
     7
100
AcDbText
 10
63.316046
 20
19.127466
 30
0.0
 40
0.12
  1
vollständigen Gewindegängen
  7
Vcadd_SIMP
100
AcDbText
  0
LINE
  5
322
100
AcDbEntity
  8
4
370
    15
390
0
  6
Continuous
 62
     1
100
AcDbLine
 10
65.601543
 20
19.252643
 30
0.0
 11
65.546839
 21
19.126922
 31
0.0
  0
LINE
  5
323
100
AcDbEntity
  8
4
370
    15
390
0
  6
Continuous
 62
     1
100
AcDbLine
 10
66.031707
 20
19.126922
 30
0.0
 11
65.546839
 21
19.126922
 31
0.0
  0
LINE
  5
324
100
AcDbEntity
  8
4
370
    15
390
0
  6
Continuous
 62
     1
100
AcDbLine
 10
63.298352
 20
19.252643
 30
0.0
 11
65.601543
 21
19.252643
 31
0.0
  0
LINE
  5
325
100
AcDbEntity
  8
4
370
    15
390
0
  6
Continuous
 62
     7
100
AcDbLine
 10
65.373065
 20
11.966439
 30
0.0
 11
65.453089
 21
12.134774
 31
0.0
  0
TEXT
  5
326
100
AcDbEntity
  8
4
370
    15
390
0
  6
Continuous
 62
     7
100
AcDbText
 10
65.33343
 20
11.981606
 30
0.0
 40
0.16275
  1
O
  7
Vcadd_SIMP
100
AcDbText
  0
TEXT
  5
327
100
AcDbEntity
  8
4
370
    15
390
0
  6
Continuous
 62
     7
100
AcDbText
 10
64.576659
 20
11.984937
 30
0.0
 40
0.142
  1
15,88
  7
Vcadd_SIMP
100
AcDbText
  0
TEXT
  5
328
100
AcDbEntity
  8
4
370
    15
390
0
  6
Continuous
 62
     7
100
AcDbText
 10
65.579356
 20
12.07874
 30
0.0
 40
0.12
  1
Vorbohrer
  7
Vcadd_SIMP
100
AcDbText
  0
LINE
  5
329
100
AcDbEntity
  8
4
370
    15
390
0
  6
Continuous
 62
     1
100
AcDbLine
 10
65.612405
 20
12.043592
 30
0.0
 11
66.517658
 21
12.043592
 31
0.0
  0
LINE
  5
32A
100
AcDbEntity
  8
4
370
    15
390
0
  6
Continuous
 62
   134
100
AcDbLine
 10
63.34772
 20
8.152752
 30
0.0
 11
64.748228
 21
8.152752
 31
0.0
  0
LINE
  5
32B
100
AcDbEntity
  8
4
370
    15
390
0
  6
Continuous
 62
   134
100
AcDbLine
 10
63.34772
 20
8.136305
 30
0.0
 11
64.748228
 21
8.136305
 31
0.0
  0
TEXT
  5
32C
100
AcDbEntity
  8
4
370
    15
390
0
  6
Continuous
 62
     7
100
AcDbText
 10
63.364159
 20
8.17331
 30
0.0
 40
0.14
  1
Komplettansicht
  7
Vcadd_SIMP
100
AcDbText
  0
TEXT
  5
32D
100
AcDbEntity
  8
4
370
    15
390
0
  6
Continuous
 62
     7
100
AcDbText
 10
65.691405
 20
18.985081
 30
0.0
 40
0.142
  1
 
  7
Vcadd_SIMP
100
AcDbText
  0
LINE
  5
32E
100
AcDbEntity
  8
4
370
    15
390
0
  6
Continuous
 62
     7
100
AcDbLine
 10
65.681159
 20
18.985081
 30
0.0
 11
65.753729
 21
19.110776
 31
0.0
  0
LINE
  5
32F
100
AcDbEntity
  8
4
370
    15
390
0
  6
Continuous
 62
     7
100
AcDbLine
 10
65.826298
 20
18.985081
 30
0.0
 11
65.753729
 21
19.110776
 31
0.0
  0
LINE
  5
330
100
AcDbEntity
  8
4
370
    15
390
0
  6
Continuous
 62
     7
100
AcDbLine
 10
65.681159
 20
18.985081
 30
0.0
 11
65.826298
 21
18.985081
 31
0.0
  0
TEXT
  5
331
100
AcDbEntity
  8
0
370
    15
390
0
  6
Continuous
 62
     7
100
AcDbText
 10
62.186536
 20
8.952093
 30
0.0
 40
0.13
  1
T-32A Metrisch
 50
-90.0
  7
Vcadd_SIMP
 72
     1
 11
62.90842
 21
8.952093
 31
0.0
100
AcDbText
  0
TEXT
  5
332
100
AcDbEntity
  8
0
370
    15
390
0
  6
Continuous
 62
     7
100
AcDbText
 10
62.093302
 20
8.952093
 30
0.0
 40
0.13
  1
Blatt 3 von 3
 50
-90.0
  7
Vcadd_SIMP
 72
     1
 11
62.73942
 21
8.952093
 31
0.0
100
AcDbText
  0
TEXT
  5
333
100
AcDbEntity
  8
4
370
    15
390
0
  6
Continuous
 62
     7
100
AcDbText
 10
62.715666
 20
13.775107
 30
0.0
 40
0.13
  1
Abmessungen,Werkzeuge,Anschlüsse
 50
-90.0
  7
Vcadd_SIMP
100
AcDbText
  0
TEXT
  5
334
100
AcDbEntity
  8
4
370
    15
390
0
  6
Continuous
 62
     7
100
AcDbText
 10
62.908509
 20
13.162353
 30
0.0
 40
0.13
  1
T-32A Einschraubbohrung
 50
-90.0
  7
Vcadd_SIMP
100
AcDbText
  0
CIRCLE
  5
335
100
AcDbEntity
  8
0
370
    15
390
0
  6
Continuous
 62
     7
100
AcDbCircle
 10
62.452568
 20
8.421155
 30
0.0
 40
0.054385
  0
CIRCLE
  5
336
100
AcDbEntity
  8
0
370
    15
390
0
  6
Continuous
 62
     2
100
AcDbCircle
 10
62.274327
 20
10.216874
 30
0.0
 40
0.312
  0
LINE
  5
337
100
AcDbEntity
  8
0
370
    15
390
0
  6
Continuous
 62
     7
100
AcDbLine
 10
62.339333
 20
10.334661
 30
0.0
 11
62.393799
 21
10.334661
 31
0.0
  0
LINE
  5
338
100
AcDbEntity
  8
0
370
    15
390
0
  6
Continuous
 62
     7
100
AcDbLine
 10
62.339333
 20
10.427812
 30
0.0
 11
62.339333
 21
10.334661
 31
0.0
  0
LINE
  5
339
100
AcDbEntity
  8
0
370
    15
390
0
  6
Continuous
 62
     7
100
AcDbLine
 10
62.301827
 20
10.427812
 30
0.0
 11
62.339333
 21
10.427812
 31
0.0
  0
LINE
  5
33A
100
AcDbEntity
  8
0
370
    15
390
0
  6
Continuous
 62
     7
100
AcDbLine
 10
62.301827
 20
10.334661
 30
0.0
 11
62.301827
 21
10.427812
 31
0.0
  0
LINE
  5
33B
100
AcDbEntity
  8
0
370
    15
390
0
  6
Continuous
 62
     7
100
AcDbLine
 10
62.15485
 20
10.334661
 30
0.0
 11
62.301827
 21
10.334661
 31
0.0
  0
LINE
  5
33C
100
AcDbEntity
  8
0
370
    15
390
0
  6
Continuous
 62
     7
100
AcDbLine
 10
62.15485
 20
10.482812
 30
0.0
 11
62.15485
 21
10.334661
 31
0.0
  0
LINE
  5
33D
100
AcDbEntity
  8
0
370
    15
390
0
  6
Continuous
 62
     7
100
AcDbLine
 10
62.209893
 20
10.482812
 30
0.0
 11
62.15485
 21
10.482812
 31
0.0
  0
LINE
  5
33E
100
AcDbEntity
  8
0
370
    15
390
0
  6
Continuous
 62
     7
100
AcDbLine
 10
62.209893
 20
10.389661
 30
0.0
 11
62.209893
 21
10.482812
 31
0.0
  0
LINE
  5
33F
100
AcDbEntity
  8
0
370
    15
390
0
  6
Continuous
 62
     7
100
AcDbLine
 10
62.246443
 20
10.389661
 30
0.0
 11
62.209893
 21
10.389661
 31
0.0
  0
LINE
  5
340
100
AcDbEntity
  8
0
370
    15
390
0
  6
Continuous
 62
     7
100
AcDbLine
 10
62.246443
 20
10.482812
 30
0.0
 11
62.246443
 21
10.389661
 31
0.0
  0
LINE
  5
341
100
AcDbEntity
  8
0
370
    15
390
0
  6
Continuous
 62
     7
100
AcDbLine
 10
62.393799
 20
10.482812
 30
0.0
 11
62.246443
 21
10.482812
 31
0.0
  0
LINE
  5
342
100
AcDbEntity
  8
0
370
    15
390
0
  6
Continuous
 62
     7
100
AcDbLine
 10
62.393799
 20
10.482812
 30
0.0
 11
62.393799
 21
10.334661
 31
0.0
  0
LINE
  5
343
100
AcDbEntity
  8
0
370
    15
390
0
  6
Continuous
 62
     7
100
AcDbLine
 10
62.393799
 20
10.1428
 30
0.0
 11
62.393799
 21
10.198506
 31
0.0
  0
LINE
  5
344
100
AcDbEntity
  8
0
370
    15
390
0
  6
Continuous
 62
     7
100
AcDbLine
 10
62.15485
 20
10.1428
 30
0.0
 11
62.393799
 21
10.1428
 31
0.0
  0
LINE
  5
345
100
AcDbEntity
  8
0
370
    15
390
0
  6
Continuous
 62
     7
100
AcDbLine
 10
62.15485
 20
10.290952
 30
0.0
 11
62.15485
 21
10.1428
 31
0.0
  0
LINE
  5
346
100
AcDbEntity
  8
0
370
    15
390
0
  6
Continuous
 62
     7
100
AcDbLine
 10
62.393799
 20
10.290952
 30
0.0
 11
62.15485
 21
10.290952
 31
0.0
  0
LINE
  5
347
100
AcDbEntity
  8
0
370
    15
390
0
  6
Continuous
 62
     7
100
AcDbLine
 10
62.393799
 20
10.236032
 30
0.0
 11
62.393799
 21
10.290952
 31
0.0
  0
LINE
  5
348
100
AcDbEntity
  8
0
370
    15
390
0
  6
Continuous
 62
     7
100
AcDbLine
 10
62.209851
 20
10.236032
 30
0.0
 11
62.393799
 21
10.236032
 31
0.0
  0
LINE
  5
349
100
AcDbEntity
  8
0
370
    15
390
0
  6
Continuous
 62
     7
100
AcDbLine
 10
62.209851
 20
10.198506
 30
0.0
 11
62.209851
 21
10.236032
 31
0.0
  0
LINE
  5
34A
100
AcDbEntity
  8
0
370
    15
390
0
  6
Continuous
 62
     7
100
AcDbLine
 10
62.209851
 20
10.198506
 30
0.0
 11
62.393799
 21
10.198506
 31
0.0
  0
LINE
  5
34B
100
AcDbEntity
  8
0
370
    15
390
0
  6
Continuous
 62
     7
100
AcDbLine
 10
62.15485
 20
10.041223
 30
0.0
 11
62.15485
 21
10.096929
 31
0.0
  0
LINE
  5
34C
100
AcDbEntity
  8
0
370
    15
390
0
  6
Continuous
 62
     7
100
AcDbLine
 10
62.338799
 20
10.041223
 30
0.0
 11
62.15485
 21
10.041223
 31
0.0
  0
LINE
  5
34D
100
AcDbEntity
  8
0
370
    15
390
0
  6
Continuous
 62
     7
100
AcDbLine
 10
62.338799
 20
10.003697
 30
0.0
 11
62.338799
 21
10.041223
 31
0.0
  0
LINE
  5
34E
100
AcDbEntity
  8
0
370
    15
390
0
  6
Continuous
 62
     7
100
AcDbLine
 10
62.15485
 20
10.003697
 30
0.0
 11
62.338799
 21
10.003697
 31
0.0
  0
LINE
  5
34F
100
AcDbEntity
  8
0
370
    15
390
0
  6
Continuous
 62
     7
100
AcDbLine
 10
62.15485
 20
9.948777
 30
0.0
 11
62.15485
 21
10.003697
 31
0.0
  0
LINE
  5
350
100
AcDbEntity
  8
0
370
    15
390
0
  6
Continuous
 62
     7
100
AcDbLine
 10
62.393799
 20
9.948777
 30
0.0
 11
62.15485
 21
9.948777
 31
0.0
  0
LINE
  5
351
100
AcDbEntity
  8
0
370
    15
390
0
  6
Continuous
 62
     7
100
AcDbLine
 10
62.393799
 20
10.096929
 30
0.0
 11
62.393799
 21
9.948777
 31
0.0
  0
LINE
  5
352
100
AcDbEntity
  8
0
370
    15
390
0
  6
Continuous
 62
     7
100
AcDbLine
 10
62.393799
 20
10.096929
 30
0.0
 11
62.15485
 21
10.096929
 31
0.0
  0
LINE
  5
353
100
AcDbEntity
  8
0
370
    15
390
0
  6
Continuous
 62
     7
100
AcDbLine
 10
62.370325
 20
9.732617
 30
0.0
 11
62.437008
 21
9.732617
 31
0.0
  0
LINE
  5
354
100
AcDbEntity
  8
0
370
    15
390
0
  6
Continuous
 62
     7
100
AcDbLine
 10
62.370325
 20
9.652257
 30
0.0
 11
62.370325
 21
9.732617
 31
0.0
  0
LINE
  5
355
100
AcDbEntity
  8
0
370
    15
390
0
  6
Continuous
 62
     7
100
AcDbLine
 10
62.174324
 20
9.652257
 30
0.0
 11
62.370325
 21
9.652257
 31
0.0
  0
LINE
  5
356
100
AcDbEntity
  8
0
370
    15
390
0
  6
Continuous
 62
     7
100
AcDbLine
 10
62.174324
 20
9.692437
 30
0.0
 11
62.174324
 21
9.652257
 31
0.0
  0
LINE
  5
357
100
AcDbEntity
  8
0
370
    15
390
0
  6
Continuous
 62
     7
100
AcDbLine
 10
62.330145
 20
9.692437
 30
0.0
 11
62.174324
 21
9.692437
 31
0.0
  0
LINE
  5
358
100
AcDbEntity
  8
0
370
    15
390
0
  6
Continuous
 62
     7
100
AcDbLine
 10
62.330145
 20
9.732617
 30
0.0
 11
62.330145
 21
9.692437
 31
0.0
  0
LINE
  5
359
100
AcDbEntity
  8
0
370
    15
390
0
  6
Continuous
 62
     7
100
AcDbLine
 10
62.174324
 20
9.732617
 30
0.0
 11
62.330145
 21
9.732617
 31
0.0
  0
LINE
  5
35A
100
AcDbEntity
  8
0
370
    15
390
0
  6
Continuous
 62
     7
100
AcDbLine
 10
62.174324
 20
9.772798
 30
0.0
 11
62.174324
 21
9.732617
 31
0.0
  0
LINE
  5
35B
100
AcDbEntity
  8
0
370
    15
390
0
  6
Continuous
 62
     7
100
AcDbLine
 10
62.437008
 20
9.772798
 30
0.0
 11
62.174324
 21
9.772798
 31
0.0
  0
LINE
  5
35C
100
AcDbEntity
  8
0
370
    15
390
0
  6
Continuous
 62
     7
100
AcDbLine
 10
62.437008
 20
9.772798
 30
0.0
 11
62.437008
 21
9.732617
 31
0.0
  0
LINE
  5
35D
100
AcDbEntity
  8
0
370
    15
390
0
  6
Continuous
 62
     7
100
AcDbLine
 10
62.214505
 20
9.571897
 30
0.0
 11
62.370325
 21
9.571897
 31
0.0
  0
LINE
  5
35E
100
AcDbEntity
  8
0
370
    15
390
0
  6
Continuous
 62
     7
100
AcDbLine
 10
62.214505
 20
9.531716
 30
0.0
 11
62.214505
 21
9.571897
 31
0.0
  0
LINE
  5
35F
100
AcDbEntity
  8
0
370
    15
390
0
  6
Continuous
 62
     7
100
AcDbLine
 10
62.370325
 20
9.531716
 30
0.0
 11
62.214505
 21
9.531716
 31
0.0
  0
LINE
  5
360
100
AcDbEntity
  8
0
370
    15
390
0
  6
Continuous
 62
     7
100
AcDbLine
 10
62.370325
 20
9.491536
 30
0.0
 11
62.370325
 21
9.531716
 31
0.0
  0
LINE
  5
361
100
AcDbEntity
  8
0
370
    15
390
0
  6
Continuous
 62
     7
100
AcDbLine
 10
62.094666
 20
9.491536
 30
0.0
 11
62.370325
 21
9.491536
 31
0.0
  0
LINE
  5
362
100
AcDbEntity
  8
0
370
    15
390
0
  6
Continuous
 62
     7
100
AcDbLine
 10
62.093964
 20
9.569455
 30
0.0
 11
62.094666
 21
9.491536
 31
0.0
  0
LINE
  5
363
100
AcDbEntity
  8
0
370
    15
390
0
  6
Continuous
 62
     7
100
AcDbLine
 10
62.134144
 20
9.569455
 30
0.0
 11
62.093964
 21
9.569455
 31
0.0
  0
LINE
  5
364
100
AcDbEntity
  8
0
370
    15
390
0
  6
Continuous
 62
     7
100
AcDbLine
 10
62.134144
 20
9.531716
 30
0.0
 11
62.134144
 21
9.569455
 31
0.0
  0
LINE
  5
365
100
AcDbEntity
  8
0
370
    15
390
0
  6
Continuous
 62
     7
100
AcDbLine
 10
62.174324
 20
9.531716
 30
0.0
 11
62.134144
 21
9.531716
 31
0.0
  0
LINE
  5
366
100
AcDbEntity
  8
0
370
    15
390
0
  6
Continuous
 62
     7
100
AcDbLine
 10
62.174324
 20
9.612077
 30
0.0
 11
62.174324
 21
9.531716
 31
0.0
  0
LINE
  5
367
100
AcDbEntity
  8
0
370
    15
390
0
  6
Continuous
 62
     7
100
AcDbLine
 10
62.370325
 20
9.612077
 30
0.0
 11
62.174324
 21
9.612077
 31
0.0
  0
LINE
  5
368
100
AcDbEntity
  8
0
370
    15
390
0
  6
Continuous
 62
     7
100
AcDbLine
 10
62.370325
 20
9.612077
 30
0.0
 11
62.370325
 21
9.571897
 31
0.0
  0
LINE
  5
369
100
AcDbEntity
  8
0
370
    15
390
0
  6
Continuous
 62
     7
100
AcDbLine
 10
62.437008
 20
9.369481
 30
0.0
 11
62.370325
 21
9.369481
 31
0.0
  0
LINE
  5
36A
100
AcDbEntity
  8
0
370
    15
390
0
  6
Continuous
 62
     7
100
AcDbLine
 10
62.437008
 20
9.329297
 30
0.0
 11
62.437008
 21
9.369481
 31
0.0
  0
LINE
  5
36B
100
AcDbEntity
  8
0
370
    15
390
0
  6
Continuous
 62
     7
100
AcDbLine
 10
62.174324
 20
9.329297
 30
0.0
 11
62.437008
 21
9.329297
 31
0.0
  0
LINE
  5
36C
100
AcDbEntity
  8
0
370
    15
390
0
  6
Continuous
 62
     7
100
AcDbLine
 10
62.174324
 20
9.449842
 30
0.0
 11
62.174324
 21
9.329297
 31
0.0
  0
LINE
  5
36D
100
AcDbEntity
  8
0
370
    15
390
0
  6
Continuous
 62
     7
100
AcDbLine
 10
62.370325
 20
9.449842
 30
0.0
 11
62.174324
 21
9.449842
 31
0.0
  0
LINE
  5
36E
100
AcDbEntity
  8
0
370
    15
390
0
  6
Continuous
 62
     7
100
AcDbLine
 10
62.370325
 20
9.449842
 30
0.0
 11
62.370325
 21
9.369481
 31
0.0
  0
LINE
  5
36F
100
AcDbEntity
  8
0
370
    15
390
0
  6
Continuous
 62
     7
100
AcDbLine
 10
62.330145
 20
9.369481
 30
0.0
 11
62.214505
 21
9.369481
 31
0.0
  0
LINE
  5
370
100
AcDbEntity
  8
0
370
    15
390
0
  6
Continuous
 62
     7
100
AcDbLine
 10
62.214505
 20
9.409658
 30
0.0
 11
62.214505
 21
9.369481
 31
0.0
  0
LINE
  5
371
100
AcDbEntity
  8
0
370
    15
390
0
  6
Continuous
 62
     7
100
AcDbLine
 10
62.330145
 20
9.409658
 30
0.0
 11
62.214505
 21
9.409658
 31
0.0
  0
LINE
  5
372
100
AcDbEntity
  8
0
370
    15
390
0
  6
Continuous
 62
     7
100
AcDbLine
 10
62.330145
 20
9.409658
 30
0.0
 11
62.330145
 21
9.369481
 31
0.0
  0
LINE
  5
373
100
AcDbEntity
  8
0
370
    15
390
0
  6
Continuous
 62
     7
100
AcDbLine
 10
62.330145
 20
9.20876
 30
0.0
 11
62.370325
 21
9.20876
 31
0.0
  0
LINE
  5
374
100
AcDbEntity
  8
0
370
    15
390
0
  6
Continuous
 62
     7
100
AcDbLine
 10
62.330145
 20
9.248941
 30
0.0
 11
62.330145
 21
9.20876
 31
0.0
  0
LINE
  5
375
100
AcDbEntity
  8
0
370
    15
390
0
  6
Continuous
 62
     7
100
AcDbLine
 10
62.174324
 20
9.248941
 30
0.0
 11
62.330145
 21
9.248941
 31
0.0
  0
LINE
  5
376
100
AcDbEntity
  8
0
370
    15
390
0
  6
Continuous
 62
     7
100
AcDbLine
 10
62.174324
 20
9.289121
 30
0.0
 11
62.174324
 21
9.248941
 31
0.0
  0
LINE
  5
377
100
AcDbEntity
  8
0
370
    15
390
0
  6
Continuous
 62
     7
100
AcDbLine
 10
62.370325
 20
9.289121
 30
0.0
 11
62.174324
 21
9.289121
 31
0.0
  0
LINE
  5
378
100
AcDbEntity
  8
0
370
    15
390
0
  6
Continuous
 62
     7
100
AcDbLine
 10
62.370325
 20
9.289121
 30
0.0
 11
62.370325
 21
9.20876
 31
0.0
  0
LINE
  5
379
100
AcDbEntity
  8
0
370
    15
390
0
  6
Continuous
 62
     7
100
AcDbLine
 10
62.214505
 20
8.967679
 30
0.0
 11
62.370325
 21
8.967679
 31
0.0
  0
LINE
  5
37A
100
AcDbEntity
  8
0
370
    15
390
0
  6
Continuous
 62
     7
100
AcDbLine
 10
62.214505
 20
8.927499
 30
0.0
 11
62.214505
 21
8.967679
 31
0.0
  0
LINE
  5
37B
100
AcDbEntity
  8
0
370
    15
390
0
  6
Continuous
 62
     7
100
AcDbLine
 10
62.370325
 20
8.927499
 30
0.0
 11
62.214505
 21
8.927499
 31
0.0
  0
LINE
  5
37C
100
AcDbEntity
  8
0
370
    15
390
0
  6
Continuous
 62
     7
100
AcDbLine
 10
62.370325
 20
8.887319
 30
0.0
 11
62.370325
 21
8.927499
 31
0.0
  0
LINE
  5
37D
100
AcDbEntity
  8
0
370
    15
390
0
  6
Continuous
 62
     7
100
AcDbLine
 10
62.174324
 20
8.887319
 30
0.0
 11
62.370325
 21
8.887319
 31
0.0
  0
LINE
  5
37E
100
AcDbEntity
  8
0
370
    15
390
0
  6
Continuous
 62
     7
100
AcDbLine
 10
62.174324
 20
9.007859
 30
0.0
 11
62.174324
 21
8.887319
 31
0.0
  0
LINE
  5
37F
100
AcDbEntity
  8
0
370
    15
390
0
  6
Continuous
 62
     7
100
AcDbLine
 10
62.370325
 20
9.007859
 30
0.0
 11
62.174324
 21
9.007859
 31
0.0
  0
LINE
  5
380
100
AcDbEntity
  8
0
370
    15
390
0
  6
Continuous
 62
     7
100
AcDbLine
 10
62.370325
 20
9.007859
 30
0.0
 11
62.370325
 21
8.967679
 31
0.0
  0
LINE
  5
381
100
AcDbEntity
  8
0
370
    15
390
0
  6
Continuous
 62
     7
100
AcDbLine
 10
62.174324
 20
8.806958
 30
0.0
 11
62.437008
 21
8.806958
 31
0.0
  0
LINE
  5
382
100
AcDbEntity
  8
0
370
    15
390
0
  6
Continuous
 62
     7
100
AcDbLine
 10
62.174324
 20
8.847138
 30
0.0
 11
62.174324
 21
8.806958
 31
0.0
  0
LINE
  5
383
100
AcDbEntity
  8
0
370
    15
390
0
  6
Continuous
 62
     7
100
AcDbLine
 10
62.437008
 20
8.847138
 30
0.0
 11
62.174324
 21
8.847138
 31
0.0
  0
LINE
  5
384
100
AcDbEntity
  8
0
370
    15
390
0
  6
Continuous
 62
     7
100
AcDbLine
 10
62.437008
 20
8.847138
 30
0.0
 11
62.437008
 21
8.806958
 31
0.0
  0
LINE
  5
385
100
AcDbEntity
  8
0
370
    15
390
0
  6
Continuous
 62
     7
100
AcDbLine
 10
62.396828
 20
8.726598
 30
0.0
 11
62.437008
 21
8.726598
 31
0.0
  0
LINE
  5
386
100
AcDbEntity
  8
0
370
    15
390
0
  6
Continuous
 62
     7
100
AcDbLine
 10
62.396828
 20
8.766778
 30
0.0
 11
62.396828
 21
8.726598
 31
0.0
  0
LINE
  5
387
100
AcDbEntity
  8
0
370
    15
390
0
  6
Continuous
 62
     7
100
AcDbLine
 10
62.437008
 20
8.766778
 30
0.0
 11
62.396828
 21
8.766778
 31
0.0
  0
LINE
  5
388
100
AcDbEntity
  8
0
370
    15
390
0
  6
Continuous
 62
     7
100
AcDbLine
 10
62.437008
 20
8.766778
 30
0.0
 11
62.437008
 21
8.726598
 31
0.0
  0
LINE
  5
389
100
AcDbEntity
  8
0
370
    15
390
0
  6
Continuous
 62
     7
100
AcDbLine
 10
62.174324
 20
8.726598
 30
0.0
 11
62.370325
 21
8.726598
 31
0.0
  0
LINE
  5
38A
100
AcDbEntity
  8
0
370
    15
390
0
  6
Continuous
 62
     7
100
AcDbLine
 10
62.174324
 20
8.766778
 30
0.0
 11
62.174324
 21
8.726598
 31
0.0
  0
LINE
  5
38B
100
AcDbEntity
  8
0
370
    15
390
0
  6
Continuous
 62
     7
100
AcDbLine
 10
62.370325
 20
8.766778
 30
0.0
 11
62.174324
 21
8.766778
 31
0.0
  0
LINE
  5
38C
100
AcDbEntity
  8
0
370
    15
390
0
  6
Continuous
 62
     7
100
AcDbLine
 10
62.370325
 20
8.766778
 30
0.0
 11
62.370325
 21
8.726598
 31
0.0
  0
LINE
  5
38D
100
AcDbEntity
  8
0
370
    15
390
0
  6
Continuous
 62
     7
100
AcDbLine
 10
62.330145
 20
8.570676
 30
0.0
 11
62.370325
 21
8.570676
 31
0.0
  0
LINE
  5
38E
100
AcDbEntity
  8
0
370
    15
390
0
  6
Continuous
 62
     7
100
AcDbLine
 10
62.330145
 20
8.646237
 30
0.0
 11
62.330145
 21
8.570676
 31
0.0
  0
LINE
  5
38F
100
AcDbEntity
  8
0
370
    15
390
0
  6
Continuous
 62
     7
100
AcDbLine
 10
62.214505
 20
8.646237
 30
0.0
 11
62.330145
 21
8.646237
 31
0.0
  0
LINE
  5
390
100
AcDbEntity
  8
0
370
    15
390
0
  6
Continuous
 62
     7
100
AcDbLine
 10
62.214505
 20
8.570676
 30
0.0
 11
62.214505
 21
8.646237
 31
0.0
  0
LINE
  5
391
100
AcDbEntity
  8
0
370
    15
390
0
  6
Continuous
 62
     7
100
AcDbLine
 10
62.174324
 20
8.570676
 30
0.0
 11
62.214505
 21
8.570676
 31
0.0
  0
LINE
  5
392
100
AcDbEntity
  8
0
370
    15
390
0
  6
Continuous
 62
     7
100
AcDbLine
 10
62.174324
 20
8.686418
 30
0.0
 11
62.174324
 21
8.570676
 31
0.0
  0
LINE
  5
393
100
AcDbEntity
  8
0
370
    15
390
0
  6
Continuous
 62
     7
100
AcDbLine
 10
62.370325
 20
8.686418
 30
0.0
 11
62.174324
 21
8.686418
 31
0.0
  0
LINE
  5
394
100
AcDbEntity
  8
0
370
    15
390
0
  6
Continuous
 62
     7
100
AcDbLine
 10
62.370325
 20
8.686418
 30
0.0
 11
62.370325
 21
8.570676
 31
0.0
  0
LINE
  5
395
100
AcDbEntity
  8
0
370
    15
390
0
  6
Continuous
 62
     7
100
AcDbLine
 10
62.330145
 20
8.403215
 30
0.0
 11
62.370325
 21
8.403215
 31
0.0
  0
LINE
  5
396
100
AcDbEntity
  8
0
370
    15
390
0
  6
Continuous
 62
     7
100
AcDbLine
 10
62.330145
 20
8.490316
 30
0.0
 11
62.330145
 21
8.403215
 31
0.0
  0
LINE
  5
397
100
AcDbEntity
  8
0
370
    15
390
0
  6
Continuous
 62
     7
100
AcDbLine
 10
62.292416
 20
8.490316
 30
0.0
 11
62.330145
 21
8.490316
 31
0.0
  0
LINE
  5
398
100
AcDbEntity
  8
0
370
    15
390
0
  6
Continuous
 62
     7
100
AcDbLine
 10
62.292416
 20
8.403215
 30
0.0
 11
62.292416
 21
8.490316
 31
0.0
  0
LINE
  5
399
100
AcDbEntity
  8
0
370
    15
390
0
  6
Continuous
 62
     7
100
AcDbLine
 10
62.174324
 20
8.403215
 30
0.0
 11
62.292416
 21
8.403215
 31
0.0
  0
LINE
  5
39A
100
AcDbEntity
  8
0
370
    15
390
0
  6
Continuous
 62
     7
100
AcDbLine
 10
62.174324
 20
8.530496
 30
0.0
 11
62.174324
 21
8.403215
 31
0.0
  0
LINE
  5
39B
100
AcDbEntity
  8
0
370
    15
390
0
  6
Continuous
 62
     7
100
AcDbLine
 10
62.214505
 20
8.530496
 30
0.0
 11
62.174324
 21
8.530496
 31
0.0
  0
LINE
  5
39C
100
AcDbEntity
  8
0
370
    15
390
0
  6
Continuous
 62
     7
100
AcDbLine
 10
62.214505
 20
8.443395
 30
0.0
 11
62.214505
 21
8.530496
 31
0.0
  0
LINE
  5
39D
100
AcDbEntity
  8
0
370
    15
390
0
  6
Continuous
 62
     7
100
AcDbLine
 10
62.252236
 20
8.443395
 30
0.0
 11
62.214505
 21
8.443395
 31
0.0
  0
LINE
  5
39E
100
AcDbEntity
  8
0
370
    15
390
0
  6
Continuous
 62
     7
100
AcDbLine
 10
62.252236
 20
8.530496
 30
0.0
 11
62.252236
 21
8.443395
 31
0.0
  0
LINE
  5
39F
100
AcDbEntity
  8
0
370
    15
390
0
  6
Continuous
 62
     7
100
AcDbLine
 10
62.370325
 20
8.530496
 30
0.0
 11
62.252236
 21
8.530496
 31
0.0
  0
LINE
  5
3A0
100
AcDbEntity
  8
0
370
    15
390
0
  6
Continuous
 62
     7
100
AcDbLine
 10
62.370325
 20
8.530496
 30
0.0
 11
62.370325
 21
8.403215
 31
0.0
  0
LINE
  5
3A1
100
AcDbEntity
  8
0
370
    15
390
0
  6
Continuous
 62
     7
100
AcDbLine
 10
62.174324
 20
9.04804
 30
0.0
 11
62.370325
 21
9.04804
 31
0.0
  0
LINE
  5
3A2
100
AcDbEntity
  8
0
370
    15
390
0
  6
Continuous
 62
     7
100
AcDbLine
 10
62.174324
 20
9.16858
 30
0.0
 11
62.174324
 21
9.04804
 31
0.0
  0
LINE
  5
3A3
100
AcDbEntity
  8
0
370
    15
390
0
  6
Continuous
 62
     7
100
AcDbLine
 10
62.294865
 20
9.16858
 30
0.0
 11
62.174324
 21
9.16858
 31
0.0
  0
LINE
  5
3A4
100
AcDbEntity
  8
0
370
    15
390
0
  6
Continuous
 62
     7
100
AcDbLine
 10
62.294865
 20
9.08822
 30
0.0
 11
62.294865
 21
9.16858
 31
0.0
  0
LINE
  5
3A5
100
AcDbEntity
  8
0
370
    15
390
0
  6
Continuous
 62
     7
100
AcDbLine
 10
62.330145
 20
9.08822
 30
0.0
 11
62.294865
 21
9.08822
 31
0.0
  0
LINE
  5
3A6
100
AcDbEntity
  8
0
370
    15
390
0
  6
Continuous
 62
     7
100
AcDbLine
 10
62.330145
 20
9.150804
 30
0.0
 11
62.330145
 21
9.08822
 31
0.0
  0
LINE
  5
3A7
100
AcDbEntity
  8
0
370
    15
390
0
  6
Continuous
 62
     7
100
AcDbLine
 10
62.370325
 20
9.150804
 30
0.0
 11
62.330145
 21
9.150804
 31
0.0
  0
LINE
  5
3A8
100
AcDbEntity
  8
0
370
    15
390
0
  6
Continuous
 62
     7
100
AcDbLine
 10
62.370325
 20
9.150804
 30
0.0
 11
62.370325
 21
9.04804
 31
0.0
  0
LINE
  5
3A9
100
AcDbEntity
  8
0
370
    15
390
0
  6
Continuous
 62
     7
100
AcDbLine
 10
62.214505
 20
9.08822
 30
0.0
 11
62.254685
 21
9.08822
 31
0.0
  0
LINE
  5
3AA
100
AcDbEntity
  8
0
370
    15
390
0
  6
Continuous
 62
     7
100
AcDbLine
 10
62.214505
 20
9.1284
 30
0.0
 11
62.214505
 21
9.08822
 31
0.0
  0
LINE
  5
3AB
100
AcDbEntity
  8
0
370
    15
390
0
  6
Continuous
 62
     7
100
AcDbLine
 10
62.254685
 20
9.1284
 30
0.0
 11
62.214505
 21
9.1284
 31
0.0
  0
LINE
  5
3AC
100
AcDbEntity
  8
0
370
    15
390
0
  6
Continuous
 62
     7
100
AcDbLine
 10
62.254685
 20
9.1284
 30
0.0
 11
62.254685
 21
9.08822
 31
0.0
  0
HATCH
  5
3AD
100
AcDbEntity
  8
0
370
    15
390
0
  6
Continuous
 62
   174
100
AcDbHatch
 10
0.0
 20
0.0
 30
0.0
210
0.0
220
0.0
230
1.0
  2
SOLID
 70
     1
 71
     0
 91
        4
 92
        1
 93
        1
 72
     2
 10
62.274326655729524
 20
10.216874190052362
 40
0.3120002746582031
 50
0.0
 51
360.0
 73
     1
 97
        0
 92
        1
 93
       12
 72
     1
 10
62.33933291183304
 20
10.334660597523065
 11
62.393799159391634
 21
10.334660597523065
 72
     1
 10
62.393799159391634
 20
10.334660597523065
 11
62.393799159391634
 21
10.482811995228143
 72
     1
 10
62.393799159391634
 20
10.482811995228143
 11
62.246443126066438
 21
10.482811995228143
 72
     1
 10
62.246443126066438
 20
10.482811995228143
 11
62.246443126066438
 21
10.389660902698846
 72
     1
 10
62.246443126066438
 20
10.389660902698846
 11
62.209892604215852
 21
10.389660902698846
 72
     1
 10
62.209892604215852
 20
10.389660902698846
 11
62.209892604215852
 21
10.482811995228143
 72
     1
 10
62.209892604215852
 20
10.482811995228143
 11
62.154850337370149
 21
10.482811995228143
 72
     1
 10
62.154850337370149
 20
10.482811995228143
 11
62.154850337370149
 21
10.334660597523065
 72
     1
 10
62.154850337370149
 20
10.334660597523065
 11
62.301826808317415
 21
10.334660597523065
 72
     1
 10
62.301826808317415
 20
10.334660597523065
 11
62.301826808317415
 21
10.427811690052362
 72
     1
 10
62.301826808317415
 20
10.427811690052362
 11
62.33933291183304
 21
10.427811690052362
 72
     1
 10
62.33933291183304
 20
10.427811690052362
 11
62.33933291183304
 21
10.334660597523065
 97
        0
 92
        1
 93
        8
 72
     1
 10
62.393799159391634
 20
10.142800398548456
 11
62.393799159391634
 21
10.198506422718378
 72
     1
 10
62.393799159391634
 20
10.198506422718378
 11
62.209850642545931
 21
10.198506422718378
 72
     1
 10
62.209850642545931
 20
10.198506422718378
 11
62.209850642545931
 21
10.236031599720331
 72
     1
 10
62.209850642545931
 20
10.236031599720331
 11
62.393799159391634
 21
10.236031599720331
 72
     1
 10
62.393799159391634
 20
10.236031599720331
 11
62.393799159391634
 21
10.290951796253534
 72
     1
 10
62.393799159391634
 20
10.290951796253534
 11
62.154850337370149
 21
10.290951796253534
 72
     1
 10
62.154850337370149
 20
10.290951796253534
 11
62.154850337370149
 21
10.142800398548456
 72
     1
 10
62.154850337370149
 20
10.142800398548456
 11
62.393799159391634
 21
10.142800398548456
 97
        0
 92
        1
 93
        8
 72
     1
 10
62.154850337370149
 20
10.041222639759393
 11
62.154850337370149
 21
10.096928663929315
 72
     1
 10
62.154850337370149
 20
10.096928663929315
 11
62.393799159391634
 21
10.096928663929315
 72
     1
 10
62.393799159391634
 20
10.096928663929315
 11
62.393799159391634
 21
9.9487772662242371
 72
     1
 10
62.393799159391634
 20
9.9487772662242371
 11
62.154850337370149
 21
9.9487772662242371
 72
     1
 10
62.154850337370149
 20
9.9487772662242371
 11
62.154850337370149
 21
10.00369746275744
 72
     1
 10
62.154850337370149
 20
10.00369746275744
 11
62.338798854215852
 21
10.00369746275744
 72
     1
 10
62.338798854215852
 20
10.00369746275744
 11
62.338798854215852
 21
10.041222639759393
 72
     1
 10
62.338798854215852
 20
10.041222639759393
 11
62.154850337370149
 21
10.041222639759393
 97
        0
 75
     0
 76
     1
 98
        1
 10
0.0
 20
0.0
  0
HATCH
  5
3AE
100
AcDbEntity
  8
0
370
    15
390
0
  6
Continuous
 62
   174
100
AcDbHatch
 10
0.0
 20
0.0
 30
0.0
210
0.0
220
0.0
230
1.0
  2
SOLID
 70
     1
 71
     0
 91
        4
 92
        1
 93
       10
 72
     1
 10
62.37032541976761
 20
9.7326174456675965
 11
62.437008235319368
 21
9.7326174456675965
 72
     1
 10
62.437008235319368
 20
9.7326174456675965
 11
62.437008235319368
 21
9.7727976519664246
 72
     1
 10
62.437008235319368
 20
9.7727976519664246
 11
62.174324366911165
 21
9.7727976519664246
 72
     1
 10
62.174324366911165
 20
9.7727976519664246
 11
62.174324366911165
 21
9.7326174456675965
 72
     1
 10
62.174324366911165
 20
9.7326174456675965
 11
62.330145213468782
 21
9.7326174456675965
 72
     1
 10
62.330145213468782
 20
9.7326174456675965
 11
62.330145213468782
 21
9.6924372393687683
 72
     1
 10
62.330145213468782
 20
9.6924372393687683
 11
62.174324366911165
 21
9.6924372393687683
 72
     1
 10
62.174324366911165
 20
9.6924372393687683
 11
62.174324366911165
 21
9.6522570330699402
 72
     1
 10
62.174324366911165
 20
9.6522570330699402
 11
62.37032541976761
 21
9.6522570330699402
 72
     1
 10
62.37032541976761
 20
9.6522570330699402
 11
62.37032541976761
 21
9.7326174456675965
 97
        0
 92
        1
 93
       12
 72
     1
 10
62.214504573209993
 20
9.571896620472284
 11
62.37032541976761
 21
9.571896620472284
 72
     1
 10
62.37032541976761
 20
9.571896620472284
 11
62.37032541976761
 21
9.6120768267711121
 72
     1
 10
62.37032541976761
 20
9.6120768267711121
 11
62.174324366911165
 21
9.6120768267711121
 72
     1
 10
62.174324366911165
 20
9.6120768267711121
 11
62.174324366911165
 21
9.5317164141734558
 72
     1
 10
62.174324366911165
 20
9.5317164141734558
 11
62.134144160612337
 21
9.5317164141734558
 72
     1
 10
62.134144160612337
 20
9.5317164141734558
 11
62.134144160612337
 21
9.569455214222284
 72
     1
 10
62.134144160612337
 20
9.569455214222284
 11
62.093963954313509
 21
9.569455214222284
 72
     1
 10
62.093963954313509
 20
9.569455214222284
 11
62.094665858610384
 21
9.4915362078746277
 72
     1
 10
62.094665858610384
 20
9.4915362078746277
 11
62.37032541976761
 21
9.4915362078746277
 72
     1
 10
62.37032541976761
 20
9.4915362078746277
 11
62.37032541976761
 21
9.5317164141734558
 72
     1
 10
62.37032541976761
 20
9.5317164141734558
 11
62.214504573209993
 21
9.5317164141734558
 72
     1
 10
62.214504573209993
 20
9.5317164141734558
 11
62.214504573209993
 21
9.571896620472284
 97
        0
 92
        1
 93
        6
 72
     1
 10
62.437008235319368
 20
9.3694811541636902
 11
62.37032541976761
 21
9.3694811541636902
 72
     1
 10
62.37032541976761
 20
9.3694811541636902
 11
62.37032541976761
 21
9.4498415667613465
 72
     1
 10
62.37032541976761
 20
9.4498415667613465
 11
62.174324366911165
 21
9.4498415667613465
 72
     1
 10
62.174324366911165
 20
9.4498415667613465
 11
62.174324366911165
 21
9.3292971331675965
 72
     1
 10
62.174324366911165
 20
9.3292971331675965
 11
62.437008235319368
 21
9.3292971331675965
 72
     1
 10
62.437008235319368
 20
9.3292971331675965
 11
62.437008235319368
 21
9.3694811541636902
 97
        0
 92
        1
 93
        4
 72
     1
 10
62.330145213468782
 20
9.3694811541636902
 11
62.214504573209993
 21
9.3694811541636902
 72
     1
 10
62.214504573209993
 20
9.3694811541636902
 11
62.214504573209993
 21
9.4096575457652527
 72
     1
 10
62.214504573209993
 20
9.4096575457652527
 11
62.330145213468782
 21
9.4096575457652527
 72
     1
 10
62.330145213468782
 20
9.4096575457652527
 11
62.330145213468782
 21
9.3694811541636902
 97
        0
 75
     0
 76
     1
 98
        1
 10
0.0
 20
0.0
  0
HATCH
  5
3AF
100
AcDbEntity
  8
0
370
    15
390
0
  6
Continuous
 62
   174
100
AcDbHatch
 10
0.0
 20
0.0
 30
0.0
210
0.0
220
0.0
230
1.0
  2
SOLID
 70
     1
 71
     0
 91
        8
 92
        1
 93
        6
 72
     1
 10
62.330145213468782
 20
9.2087603289683777
 11
62.37032541976761
 21
9.2087603289683777
 72
     1
 10
62.37032541976761
 20
9.2087603289683777
 11
62.37032541976761
 21
9.289120741566034
 72
     1
 10
62.37032541976761
 20
9.289120741566034
 11
62.174324366911165
 21
9.289120741566034
 72
     1
 10
62.174324366911165
 20
9.289120741566034
 11
62.174324366911165
 21
9.2489405352672058
 72
     1
 10
62.174324366911165
 20
9.2489405352672058
 11
62.330145213468782
 21
9.2489405352672058
 72
     1
 10
62.330145213468782
 20
9.2489405352672058
 11
62.330145213468782
 21
9.2087603289683777
 97
        0
 92
        1
 93
        8
 72
     1
 10
62.214504573209993
 20
8.967679091175409
 11
62.37032541976761
 21
8.967679091175409
 72
     1
 10
62.37032541976761
 20
8.967679091175409
 11
62.37032541976761
 21
9.0078592974742371
 72
     1
 10
62.37032541976761
 20
9.0078592974742371
 11
62.174324366911165
 21
9.0078592974742371
 72
     1
 10
62.174324366911165
 20
9.0078592974742371
 11
62.174324366911165
 21
8.8873186785777527
 72
     1
 10
62.174324366911165
 20
8.8873186785777527
 11
62.37032541976761
 21
8.8873186785777527
 72
     1
 10
62.37032541976761
 20
8.8873186785777527
 11
62.37032541976761
 21
8.9274988848765808
 72
     1
 10
62.37032541976761
 20
8.9274988848765808
 11
62.214504573209993
 21
8.9274988848765808
 72
     1
 10
62.214504573209993
 20
8.9274988848765808
 11
62.214504573209993
 21
8.967679091175409
 97
        0
 92
        1
 93
        4
 72
     1
 10
62.174324366911165
 20
8.8069582659800965
 11
62.437008235319368
 21
8.8069582659800965
 72
     1
 10
62.437008235319368
 20
8.8069582659800965
 11
62.437008235319368
 21
8.8471384722789246
 72
     1
 10
62.437008235319368
 20
8.8471384722789246
 11
62.174324366911165
 21
8.8471384722789246
 72
     1
 10
62.174324366911165
 20
8.8471384722789246
 11
62.174324366911165
 21
8.8069582659800965
 97
        0
 92
        1
 93
        4
 72
     1
 10
62.39682802902054
 20
8.7265978533824402
 11
62.437008235319368
 21
8.7265978533824402
 72
     1
 10
62.437008235319368
 20
8.7265978533824402
 11
62.437008235319368
 21
8.7667780596812683
 72
     1
 10
62.437008235319368
 20
8.7667780596812683
 11
62.39682802902054
 21
8.7667780596812683
 72
     1
 10
62.39682802902054
 20
8.7667780596812683
 11
62.39682802902054
 21
8.7265978533824402
 97
        0
 92
        1
 93
        4
 72
     1
 10
62.174324366911165
 20
8.7265978533824402
 11
62.37032541976761
 21
8.7265978533824402
 72
     1
 10
62.37032541976761
 20
8.7265978533824402
 11
62.37032541976761
 21
8.7667780596812683
 72
     1
 10
62.37032541976761
 20
8.7667780596812683
 11
62.174324366911165
 21
8.7667780596812683
 72
     1
 10
62.174324366911165
 20
8.7667780596812683
 11
62.174324366911165
 21
8.7265978533824402
 97
        0
 92
        1
 93
        8
 72
     1
 10
62.330145213468782
 20
8.570675917347284
 11
62.37032541976761
 21
8.570675917347284
 72
     1
 10
62.37032541976761
 20
8.570675917347284
 11
62.37032541976761
 21
8.6864176470836121
 72
     1
 10
62.37032541976761
 20
8.6864176470836121
 11
62.174324366911165
 21
8.6864176470836121
 72
     1
 10
62.174324366911165
 20
8.6864176470836121
 11
62.174324366911165
 21
8.570675917347284
 72
     1
 10
62.174324366911165
 20
8.570675917347284
 11
62.214504573209993
 21
8.570675917347284
 72
     1
 10
62.214504573209993
 20
8.570675917347284
 11
62.214504573209993
 21
8.646237440784784
 72
     1
 10
62.214504573209993
 20
8.646237440784784
 11
62.330145213468782
 21
8.646237440784784
 72
     1
 10
62.330145213468782
 20
8.646237440784784
 11
62.330145213468782
 21
8.570675917347284
 97
        0
 92
        1
 93
        8
 72
     1
 10
62.174324366911165
 20
9.0480395037730652
 11
62.37032541976761
 21
9.0480395037730652
 72
     1
 10
62.37032541976761
 20
9.0480395037730652
 11
62.37032541976761
 21
9.1508036334117371
 72
     1
 10
62.37032541976761
 20
9.1508036334117371
 11
62.330145213468782
 21
9.1508036334117371
 72
     1
 10
62.330145213468782
 20
9.1508036334117371
 11
62.330145213468782
 21
9.0882197100718933
 72
     1
 10
62.330145213468782
 20
9.0882197100718933
 11
62.294864985807649
 21
9.0882197100718933
 72
     1
 10
62.294864985807649
 20
9.0882197100718933
 11
62.294864985807649
 21
9.1685801226695496
 72
     1
 10
62.294864985807649
 20
9.1685801226695496
 11
62.174324366911165
 21
9.1685801226695496
 72
     1
 10
62.174324366911165
 20
9.1685801226695496
 11
62.174324366911165
 21
9.0480395037730652
 97
        0
 92
        1
 93
        4
 72
     1
 10
62.214504573209993
 20
9.0882197100718933
 11
62.254684779508821
 21
9.0882197100718933
 72
     1
 10
62.254684779508821
 20
9.0882197100718933
 11
62.254684779508821
 21
9.1283999163707215
 72
     1
 10
62.254684779508821
 20
9.1283999163707215
 11
62.214504573209993
 21
9.1283999163707215
 72
     1
 10
62.214504573209993
 20
9.1283999163707215
 11
62.214504573209993
 21
9.0882197100718933
 97
        0
 75
     0
 76
     1
 98
        1
 10
0.0
 20
0.0
  0
HATCH
  5
3B0
100
AcDbEntity
  8
0
370
    15
390
0
  6
Continuous
 62
   174
100
AcDbHatch
 10
0.0
 20
0.0
 30
0.0
210
0.0
220
0.0
230
1.0
  2
SOLID
 70
     1
 71
     0
 91
        1
 92
        1
 93
       12
 72
     1
 10
62.330145213468782
 20
8.4032145220836121
 11
62.37032541976761
 21
8.4032145220836121
 72
     1
 10
62.37032541976761
 20
8.4032145220836121
 11
62.37032541976761
 21
8.5304957110484558
 72
     1
 10
62.37032541976761
 20
8.5304957110484558
 11
62.25223574386429
 21
8.5304957110484558
 72
     1
 10
62.25223574386429
 20
8.5304957110484558
 11
62.25223574386429
 21
8.4433947283824402
 72
     1
 10
62.25223574386429
 20
8.4433947283824402
 11
62.214504573209993
 21
8.4433947283824402
 72
     1
 10
62.214504573209993
 20
8.4433947283824402
 11
62.214504573209993
 21
8.5304957110484558
 72
     1
 10
62.214504573209993
 20
8.5304957110484558
 11
62.174324366911165
 21
8.5304957110484558
 72
     1
 10
62.174324366911165
 20
8.5304957110484558
 11
62.174324366911165
 21
8.4032145220836121
 72
     1
 10
62.174324366911165
 20
8.4032145220836121
 11
62.292415950163118
 21
8.4032145220836121
 72
     1
 10
62.292415950163118
 20
8.4032145220836121
 11
62.292415950163118
 21
8.4903155047496277
 72
     1
 10
62.292415950163118
 20
8.4903155047496277
 11
62.330145213468782
 21
8.4903155047496277
 72
     1
 10
62.330145213468782
 20
8.4903155047496277
 11
62.330145213468782
 21
8.4032145220836121
 97
        0
 75
     0
 76
     1
 98
        1
 10
0.0
 20
0.0
  0
TEXT
  5
3B1
100
AcDbEntity
  8
0
370
    15
390
0
  6
Continuous
 62
     7
100
AcDbText
 10
62.429228
 20
8.439099
 30
0.0
 40
0.04606
  1
R
 50
630.0
 41
1.125
  7
Vcadd_SIMP
100
AcDbText
  0
TEXT
  5
3B2
100
AcDbEntity
  8
0
370
    15
390
0
  6
Continuous
 62
     7
100
AcDbText
 10
62.07591
 20
9.079846
 30
0.0
 40
0.062
  1
CORPORATION
 50
270.0
  7
Vcadd_SIMP
100
AcDbText
  0
TEXT
  5
3B3
100
AcDbEntity
  8
0
370
    15
390
0
  6
Continuous
 62
     7
100
AcDbText
 10
61.984262
 20
9.848164
 30
0.0
 40
0.062
  1
1500 WEST UNIVERSITY PKWY
 50
270.0
  7
Vcadd_SIMP
100
AcDbText
  0
TEXT
  5
3B4
100
AcDbEntity
  8
0
370
    15
390
0
  6
Continuous
 62
     7
100
AcDbText
 10
61.891262
 20
9.848164
 30
0.0
 40
0.062
  1
SARASOTA, FLORIDA 34243, USA
 50
270.0
  7
Vcadd_SIMP
100
AcDbText
  0
TEXT
  5
3B5
100
AcDbEntity
  8
0
370
    15
390
0
  6
Continuous
 62
     7
100
AcDbText
 10
61.798262
 20
9.848164
 30
0.0
 40
0.062
  1
TELEPHONE (941) 355-2983
 50
270.0
  7
Vcadd_SIMP
100
AcDbText
  0
TEXT
  5
3B6
100
AcDbEntity
  8
4
370
    15
390
0
  6
Continuous
 62
     7
100
AcDbText
 10
70.166445
 20
12.737131
 30
0.0
 40
0.12
  1
Min. Tiefe von
  7
Vcadd_SIMP
100
AcDbText
  0
TEXT
  5
3B7
100
AcDbEntity
  8
4
370
    15
390
0
  6
Continuous
 62
     7
100
AcDbText
 10
70.166445
 20
12.557131
 30
0.0
 40
0.12
  1
15,88 Ø (Ventil-
  7
Vcadd_SIMP
100
AcDbText
  0
TEXT
  5
3B8
100
AcDbEntity
  8
4
370
    15
390
0
  6
Continuous
 62
     7
100
AcDbText
 10
70.166445
 20
12.377131
 30
0.0
 40
0.12
  1
arbeitsbereich)
  7
Vcadd_SIMP
100
AcDbText
  0
LINE
  5
3B9
100
AcDbEntity
  8
4
370
     0
390
0
  6
Continuous
 62
     1
100
AcDbLine
 10
65.703447
 20
22.348925
 30
0.0
 11
63.876593
 21
22.348925
 31
0.0
  0
LINE
  5
3BA
100
AcDbEntity
  8
4
370
    15
390
0
  6
Continuous
 62
     7
100
AcDbLine
 10
64.92387
 20
22.446028
 30
0.0
 11
65.003894
 21
22.614363
 31
0.0
  0
TEXT
  5
3BB
100
AcDbEntity
  8
4
370
    15
390
0
  6
Continuous
 62
     7
100
AcDbText
 10
64.884235
 20
22.461195
 30
0.0
 40
0.16275
  1
O
  7
Vcadd_SIMP
100
AcDbText
  0
LINE
  5
3BC
100
AcDbEntity
  8
4
370
    15
390
0
  6
Continuous
 62
     1
100
AcDbLine
 10
65.064275
 20
22.529623
 30
0.0
 11
65.830658
 21
22.529623
 31
0.0
  0
INSERT
  5
3BD
100
AcDbEntity
  8
4
370
     0
390
0
  6
Continuous
 62
     1
100
AcDbBlockReference
  2
ARROW
 10
65.830658
 20
22.529623
 30
0.0
  0
TEXT
  5
3BE
100
AcDbEntity
  8
4
370
    15
390
0
  6
Continuous
 62
     7
100
AcDbText
 10
64.627619
 20
12.724709
 30
0.0
 40
0.142
  1
0,38 x 45^  
  7
Vcadd_SIMP
100
AcDbText
  0
TEXT
  5
3BF
100
AcDbEntity
  8
4
370
    15
390
0
  6
Continuous
 62
     7
100
AcDbText
 10
67.016242
 20
23.26355
 30
0.0
 40
0.12
  1
Formbohrer
  7
Vcadd_SIMP
100
AcDbText
  0
TEXT
  5
3C0
100
AcDbEntity
  8
4
370
    15
390
0
  6
Continuous
 62
     7
100
AcDbText
 10
67.016242
 20
23.08355
 30
0.0
 40
0.12
  1
994-032-***
  7
Vcadd_SIMP
100
AcDbText
  0
TEXT
  5
3C1
100
AcDbEntity
  8
4
370
    15
390
0
  6
Continuous
 62
     7
100
AcDbText
 10
66.867227
 20
22.77115
 30
0.0
 40
0.12
  1
Formreibahle
  7
Vcadd_SIMP
100
AcDbText
  0
TEXT
  5
3C2
100
AcDbEntity
  8
4
370
    15
390
0
  6
Continuous
 62
     7
100
AcDbText
 10
66.867227
 20
22.59115
 30
0.0
 40
0.12
  1
995-032-***
  7
Vcadd_SIMP
100
AcDbText
  0
TEXT
  5
3C3
100
AcDbEntity
  8
4
370
    15
390
0
  6
Continuous
 62
     7
100
AcDbText
 10
62.937856
 20
21.296791
 30
0.0
 40
0.142
  1
26,75
  7
Vcadd_SIMP
100
AcDbText
  0
LINE
  5
3C4
100
AcDbEntity
  8
4
370
    30
390
0
  6
Continuous
 62
     1
100
AcDbLine
 10
68.301001
 20
20.506927
 30
0.0
 11
70.637406
 21
20.506927
 31
0.0
  0
LINE
  5
3C5
100
AcDbEntity
  8
4
370
    30
390
0
  6
Continuous
 62
     1
100
AcDbLine
 10
66.007643
 20
20.506927
 30
0.0
 11
63.892255
 21
20.506927
 31
0.0
  0
TEXT
  5
3C6
100
AcDbEntity
  8
4
370
    15
390
0
  6
Continuous
 62
     7
100
AcDbText
 10
64.821186
 20
17.562002
 30
0.0
 40
0.128
  1
0,51 R
  7
Vcadd_SIMP
100
AcDbText
  0
TEXT
  5
3C7
100
AcDbEntity
  8
4
370
    15
390
0
  6
Continuous
 62
     7
100
AcDbText
 10
64.821186
 20
17.370002
 30
0.0
 40
0.128
  1
  **
  7
Vcadd_SIMP
100
AcDbText
  0
TEXT
  5
3C8
100
AcDbEntity
  8
4
370
    15
390
0
  6
Continuous
 62
     7
100
AcDbText
 10
64.862186
 20
15.687821
 30
0.0
 40
0.128
  1
0,51 R
  7
Vcadd_SIMP
100
AcDbText
  0
TEXT
  5
3C9
100
AcDbEntity
  8
4
370
    15
390
0
  6
Continuous
 62
     7
100
AcDbText
 10
64.862186
 20
15.495821
 30
0.0
 40
0.128
  1
  **
  7
Vcadd_SIMP
100
AcDbText
  0
TEXT
  5
3CA
100
AcDbEntity
  8
4
370
    15
390
0
  6
Continuous
 62
     7
100
AcDbText
 10
64.843742
 20
14.265505
 30
0.0
 40
0.128
  1
0,51 R
  7
Vcadd_SIMP
100
AcDbText
  0
TEXT
  5
3CB
100
AcDbEntity
  8
4
370
    15
390
0
  6
Continuous
 62
     7
100
AcDbText
 10
64.843742
 20
14.073505
 30
0.0
 40
0.128
  1
  **
  7
Vcadd_SIMP
100
AcDbText
  0
TEXT
  5
3CC
100
AcDbEntity
  8
4
370
    15
390
0
  6
Continuous
 62
     7
100
AcDbText
 10
62.937856
 20
21.474292
 30
0.0
 40
0.142
  1
26,70
  7
Vcadd_SIMP
100
AcDbText
  0
TEXT
  5
3CD
100
AcDbEntity
  8
4
370
     0
390
0
  6
Continuous
 62
     7
100
AcDbText
 10
63.141977
 20
22.306063
 30
0.0
 40
0.142
  1
20,45
  7
Vcadd_SIMP
100
AcDbText
  0
TEXT
  5
3CE
100
AcDbEntity
  8
4
370
    15
390
0
  6
Continuous
 62
     7
100
AcDbText
 10
64.779943
 20
13.715746
 30
0.0
 40
0.142
  1
20,63
  7
Vcadd_SIMP
100
AcDbText
  0
TEXT
  5
3CF
100
AcDbEntity
  8
4
370
    15
390
0
  6
Continuous
 62
     7
100
AcDbText
 10
64.105354
 20
22.462966
 30
0.0
 40
0.142
  1
33,33
  7
Vcadd_SIMP
100
AcDbText
  0
TEXT
  5
3D0
100
AcDbEntity
  8
4
370
    15
390
0
  6
Continuous
 62
     7
100
AcDbText
 10
67.322913
 20
23.863476
 30
0.0
 40
0.12
  1
Formreibahle 0,79 mm tiefer
  7
Vcadd_SIMP
100
AcDbText
  0
TEXT
  5
3D1
100
AcDbEntity
  8
4
370
    15
390
0
  6
Continuous
 62
     7
100
AcDbText
 10
67.322913
 20
23.713476
 30
0.0
 40
0.12
  1
einführen als Formbohrer
  7
Vcadd_SIMP
100
AcDbText
  0
LINE
  5
3D2
100
AcDbEntity
  8
4
370
    15
390
0
  6
Continuous
 62
     7
100
AcDbLine
 10
67.765932
 20
7.65304
 30
0.0
 11
67.765932
 21
7.65304
 31
0.0
  0
LINE
  5
3D3
100
AcDbEntity
  8
1
370
    15
390
0
  6
Continuous
 62
     1
100
AcDbLine
 10
67.142658
 20
11.337201
 30
0.0
 11
67.142658
 21
13.913839
 31
0.0
  0
LINE
  5
3D4
100
AcDbEntity
  8
4
370
    15
390
0
  6
Continuous
 62
     7
100
AcDbLine
 10
64.799978
 20
10.967506
 30
0.0
 11
64.799978
 21
11.299094
 31
0.0
  0
LINE
  5
3D5
100
AcDbEntity
  8
4
370
    15
390
0
  6
Continuous
 62
     7
100
AcDbLine
 10
64.799978
 20
11.299094
 30
0.0
 11
64.432512
 21
11.299094
 31
0.0
  0
LINE
  5
3D6
100
AcDbEntity
  8
4
370
    15
390
0
  6
Continuous
 62
     7
100
AcDbLine
 10
64.432512
 20
11.299094
 30
0.0
 11
64.432512
 21
10.967506
 31
0.0
  0
CIRCLE
  5
3D7
100
AcDbEntity
  8
4
370
    15
390
0
  6
Continuous
 62
     7
100
AcDbCircle
 10
64.616245
 20
11.1333
 30
0.0
 40
0.129336
  0
CIRCLE
  5
3D8
100
AcDbEntity
  8
4
370
    15
390
0
  6
Continuous
 62
     7
100
AcDbCircle
 10
64.616245
 20
11.1333
 30
0.0
 40
0.057001
  0
HATCH
  5
3D9
100
AcDbEntity
  8
4
370
     0
390
0
  6
Continuous
 62
     7
100
AcDbHatch
 10
0.0
 20
0.0
 30
0.0
210
0.0
220
0.0
230
1.0
  2
SOLID
 70
     1
 71
     0
 91
        1
 92
        1
 93
        1
 72
     2
 10
64.616245090421643
 20
11.13329997166273
 40
0.0570005946738519
 50
0.0
 51
360.0
 73
     1
 97
        0
 75
     0
 76
     1
 98
        1
 10
0.0
 20
0.0
  0
LINE
  5
3DA
100
AcDbEntity
  8
4
370
    15
390
0
  6
Continuous
 62
     7
100
AcDbLine
 10
64.799978
 20
11.299094
 30
0.0
 11
65.783564
 21
11.299094
 31
0.0
  0
LINE
  5
3DB
100
AcDbEntity
  8
4
370
    15
390
0
  6
Continuous
 62
     7
100
AcDbLine
 10
65.783564
 20
11.299094
 30
0.0
 11
65.783564
 21
10.967506
 31
0.0
  0
LINE
  5
3DC
100
AcDbEntity
  8
4
370
    15
390
0
  6
Continuous
 62
     7
100
AcDbLine
 10
66.15103
 20
10.967506
 30
0.0
 11
66.15103
 21
11.299094
 31
0.0
  0
LINE
  5
3DD
100
AcDbEntity
  8
4
370
    15
390
0
  6
Continuous
 62
     7
100
AcDbLine
 10
66.15103
 20
11.299094
 30
0.0
 11
65.783564
 21
11.299094
 31
0.0
  0
TEXT
  5
3DE
100
AcDbEntity
  8
4
370
    15
390
0
  6
Continuous
 62
     7
100
AcDbText
 10
65.830175
 20
11.005711
 30
0.0
 40
0.24
  1
A
  7
Vcadd_SIMP
 72
     1
 11
65.968175
 21
11.005711
 31
0.0
100
AcDbText
  0
TEXT
  5
3DF
100
AcDbEntity
  8
4
370
    15
390
0
  6
Continuous
 62
     7
100
AcDbText
 10
64.713124
 20
11.014364
 30
0.0
 40
0.24
  1
0,05
  7
Vcadd_SIMP
 72
     1
 11
65.265124
 21
11.014364
 31
0.0
100
AcDbText
  0
LINE
  5
3E0
100
AcDbEntity
  8
4
370
    15
390
0
  6
Continuous
 62
     7
100
AcDbLine
 10
66.15092
 20
10.966583
 30
0.0
 11
64.431691
 21
10.966583
 31
0.0
  0
TEXT
  5
3E1
100
AcDbEntity
  8
4
370
    15
390
0
  6
Continuous
 62
     7
100
AcDbText
 10
66.347473
 20
11.161972
 30
0.0
 40
0.15
  1
Gewinde und alle
  7
Vcadd_SIMP
100
AcDbText
  0
TEXT
  5
3E2
100
AcDbEntity
  8
4
370
    15
390
0
  6
Continuous
 62
     7
100
AcDbText
 10
66.347473
 20
10.966972
 30
0.0
 40
0.15
  1
Durchmesser
  7
Vcadd_SIMP
100
AcDbText
  0
TEXT
  5
3E3
100
AcDbEntity
  8
0
370
    15
390
0
  6
Continuous
 62
     7
100
AcDbText
 10
69.387625
 20
12.114955
 30
0.0
 40
0.09
  1
Wichtige Bemerkung:
  7
Vcadd_SIMP
100
AcDbText
  0
TEXT
  5
3E4
100
AcDbEntity
  8
0
370
    15
390
0
  6
Continuous
 62
     7
100
AcDbText
 10
69.387625
 20
11.979955
 30
0.0
 40
0.09
  1
Diese Zeichnung beschreibt ein
  7
Vcadd_SIMP
100
AcDbText
  0
TEXT
  5
3E5
100
AcDbEntity
  8
0
370
    15
390
0
  6
Continuous
 62
     7
100
AcDbText
 10
69.387625
 20
11.844955
 30
0.0
 40
0.09
  1
Produkt der Firma SUN Hydraulik
  7
Vcadd_SIMP
100
AcDbText
  0
TEXT
  5
3E6
100
AcDbEntity
  8
0
370
    15
390
0
  6
Continuous
 62
     7
100
AcDbText
 10
69.387625
 20
11.709955
 30
0.0
 40
0.09
  1
und darf nicht ohne Genehmigung
  7
Vcadd_SIMP
100
AcDbText
  0
TEXT
  5
3E7
100
AcDbEntity
  8
0
370
    15
390
0
  6
Continuous
 62
     7
100
AcDbText
 10
69.387625
 20
11.574955
 30
0.0
 40
0.09
  1
vervielfältigt oder an Dritte wei-
  7
Vcadd_SIMP
100
AcDbText
  0
TEXT
  5
3E8
100
AcDbEntity
  8
0
370
    15
390
0
  6
Continuous
 62
     7
100
AcDbText
 10
69.387625
 20
11.439955
 30
0.0
 40
0.09
  1
tergegeben werden. 
  7
Vcadd_SIMP
100
AcDbText
  0
TEXT
  5
3E9
100
AcDbEntity
  8
0
370
    15
390
0
  6
Continuous
 62
     7
100
AcDbText
 10
69.495778
 20
11.145536
 30
0.0
 40
0.09
  1
SUN HYDRAULICS CORPORATION
  7
Vcadd_SIMP
100
AcDbText
  0
TEXT
  5
3EA
100
AcDbEntity
  8
0
370
    15
390
0
  6
Continuous
 62
     7
100
AcDbText
 10
69.353931
 20
11.15241
 30
0.0
 40
0.085
  1
C
  7
Vcadd_SIMP
100
AcDbText
  0
CIRCLE
  5
3EB
100
AcDbEntity
  8
4
370
    15
390
0
  6
Continuous
 62
     1
100
AcDbCircle
 10
69.38343
 20
11.185378
 30
0.0
 40
0.058579
  0
TEXT
  5
3EC
100
AcDbEntity
  8
4
370
    15
390
0
  6
Continuous
 62
     7
100
AcDbText
 10
64.957159
 20
8.339392
 30
0.0
 40
0.133
  1
Alle O-Ring-Einführungsschrägen müssen
  7
Vcadd_SIMP
100
AcDbText
  0
TEXT
  5
3ED
100
AcDbEntity
  8
4
370
    15
390
0
  6
Continuous
 62
     7
100
AcDbText
 10
64.957159
 20
8.139892
 30
0.0
 40
0.133
  1
glatt und frei von Kerben und Kanten sein.
  7
Vcadd_SIMP
100
AcDbText
  0
TEXT
  5
3EE
100
AcDbEntity
  8
4
370
    15
390
0
  6
Continuous
 62
     7
100
AcDbText
 10
64.579199
 20
8.349672
 30
0.0
 40
0.133
  1
**
  7
Vcadd_SIMP
100
AcDbText
  0
TEXT
  5
3EF
100
AcDbEntity
  8
4
370
    15
390
0
  6
Continuous
 62
     7
100
AcDbText
 10
64.977485
 20
8.744442
 30
0.0
 40
0.133
  1
Name in Bohrtabelle: SUN STD T-32A CAVITY
  7
Vcadd_SIMP
100
AcDbText
  0
TEXT
  5
3F0
100
AcDbEntity
  8
4
370
    15
390
0
  6
Continuous
 62
     7
100
AcDbText
 10
64.977485
 20
8.544942
 30
0.0
 40
0.133
  1
Code in Bohrtabelle: T32A
  7
Vcadd_SIMP
100
AcDbText
  0
TEXT
  5
3F1
100
AcDbEntity
  8
4
370
    15
390
0
  6
Continuous
 62
     7
100
AcDbText
 10
65.506764
 20
9.515528
 30
0.0
 40
0.133
  1
Min. Abstand von der Mittellinie bis zur End-
  7
Vcadd_SIMP
100
AcDbText
  0
TEXT
  5
3F2
100
AcDbEntity
  8
4
370
    15
390
0
  6
Continuous
 62
     7
100
AcDbText
 10
65.506764
 20
9.316028
 30
0.0
 40
0.133
  1
kante des Ventilkörpers
  7
Vcadd_SIMP
100
AcDbText
  0
TEXT
  5
3F3
100
AcDbEntity
  8
4
370
    15
390
0
  6
Continuous
 62
     7
100
AcDbText
 10
65.506764
 20
9.116528
 30
0.0
 40
0.133
  1
Min. Abstand von der Mittellinie bis zur Mittel-
  7
Vcadd_SIMP
100
AcDbText
  0
TEXT
  5
3F4
100
AcDbEntity
  8
4
370
    15
390
0
  6
Continuous
 62
     7
100
AcDbText
 10
65.506764
 20
8.917028
 30
0.0
 40
0.133
  1
linie bei gleicher Einschraubbohrung
  7
Vcadd_SIMP
100
AcDbText
  0
TEXT
  5
3F5
100
AcDbEntity
  8
4
370
    15
390
0
  6
Continuous
 62
     7
100
AcDbText
 10
64.942519
 20
9.50874
 30
0.0
 40
0.133
  1
19,05
  7
Vcadd_SIMP
100
AcDbText
  0
TEXT
  5
3F6
100
AcDbEntity
  8
4
370
    15
390
0
  6
Continuous
 62
     7
100
AcDbText
 10
64.942519
 20
9.30924
 30
0.0
 40
0.133
  1
34,92
  7
Vcadd_SIMP
100
AcDbText
  0
TEXT
  5
3F7
100
AcDbEntity
  8
4
370
    15
390
0
  6
Continuous
 62
     7
100
AcDbText
 10
64.793068
 20
10.73759
 30
0.0
 40
0.133
  1
* 1. Freiraum-Bohrung:  Ab einer LS-Anschlagstiefe von 4,37 wird mit dem
  7
Vcadd_SIMP
100
AcDbText
  0
TEXT
  5
3F8
100
AcDbEntity
  8
4
370
    15
390
0
  6
Continuous
 62
     7
100
AcDbText
 10
64.793068
 20
10.53809
 30
0.0
 40
0.133
  1
  Formbohrer eine Stufe mit dem Durchmesser 33,32 gebohrt.
  7
Vcadd_SIMP
100
AcDbText
  0
TEXT
  5
3F9
100
AcDbEntity
  8
4
370
    15
390
0
  6
Continuous
 62
     7
100
AcDbText
 10
64.793068
 20
10.33859
 30
0.0
 40
0.133
  1
  2. Freiraum-Bohrung:  Ab einer LS-Anschlagstiefe von 11,13 muss, für den
  7
Vcadd_SIMP
100
AcDbText
  0
TEXT
  5
3FA
100
AcDbEntity
  8
4
370
    15
390
0
  6
Continuous
 62
     7
100
AcDbText
 10
64.793068
 20
10.13909
 30
0.0
 40
0.133
  1
  Freiraum eines Sechskant-Steckschlüssels, zusätzlich zum Durchmesser 
  7
Vcadd_SIMP
100
AcDbText
  0
TEXT
  5
3FB
100
AcDbEntity
  8
4
370
    15
390
0
  6
Continuous
 62
     7
100
AcDbText
 10
64.793068
 20
9.93959
 30
0.0
 40
0.133
  1
  33,32 eine Bohrung mit dem Durchmesser von 38,10 (wie in der Zeichnung
  7
Vcadd_SIMP
100
AcDbText
  0
TEXT
  5
3FC
100
AcDbEntity
  8
4
370
    15
390
0
  6
Continuous
 62
     7
100
AcDbText
 10
64.793068
 20
9.74009
 30
0.0
 40
0.133
  1
  gezeigt) gebohrt werden. 
  7
Vcadd_SIMP
100
AcDbText
  0
LINE
  5
3FD
100
AcDbEntity
  8
4
370
     0
390
0
  6
Continuous
 62
     1
100
AcDbLine
 10
65.011477
 20
10.69612
 30
0.0
 11
66.656242
 21
10.69612
 31
0.0
  0
LINE
  5
3FE
100
AcDbEntity
  8
4
370
     0
390
0
  6
Continuous
 62
     1
100
AcDbLine
 10
64.965957
 20
10.299596
 30
0.0
 11
66.677231
 21
10.299596
 31
0.0
  0
INSERT
  5
3FF
100
AcDbEntity
  8
4
370
     0
390
0
  6
Continuous
 62
     1
100
AcDbBlockReference
  2
ARROW
 10
68.642658
 20
21.643784
 30
0.0
 50
180.0
  0
LINE
  5
400
100
AcDbEntity
  8
4
370
     0
390
0
  6
Continuous
 62
     7
100
AcDbLine
 10
70.267982
 20
21.575445
 30
0.0
 11
70.348007
 21
21.74378
 31
0.0
  0
TEXT
  5
401
100
AcDbEntity
  8
4
370
     0
390
0
  6
Continuous
 62
     7
100
AcDbText
 10
70.228347
 20
21.590613
 30
0.0
 40
0.16275
  1
O
  7
Vcadd_SIMP
100
AcDbText
  0
LINE
  5
402
100
AcDbEntity
  8
4
370
     0
390
0
  6
Continuous
 62
     1
100
AcDbLine
 10
68.721697
 20
21.3755
 30
0.0
 11
70.834135
 21
21.3755
 31
0.0
  0
LINE
  5
403
100
AcDbEntity
  8
4
370
     0
390
0
  6
Continuous
 62
     1
100
AcDbLine
 10
68.550255
 20
20.844494
 30
0.0
 11
70.834135
 21
20.844494
 31
0.0
  0
LINE
  5
404
100
AcDbEntity
  8
4
370
     0
390
0
  6
Continuous
 62
     7
100
AcDbLine
 10
70.267982
 20
21.00798
 30
0.0
 11
70.348007
 21
21.176315
 31
0.0
  0
TEXT
  5
405
100
AcDbEntity
  8
4
370
     0
390
0
  6
Continuous
 62
     7
100
AcDbText
 10
70.228347
 20
21.023147
 30
0.0
 40
0.16275
  1
O
  7
Vcadd_SIMP
100
AcDbText
  0
INSERT
  5
406
100
AcDbEntity
  8
4
370
     0
390
0
  6
Continuous
 62
     1
100
AcDbBlockReference
  2
ARROW
 10
68.455722
 20
21.076319
 30
0.0
 50
180.0
  0
LINE
  5
407
100
AcDbEntity
  8
4
370
     0
390
0
  6
Continuous
 62
     1
100
AcDbLine
 10
69.395011
 20
21.643784
 30
0.0
 11
68.299029
 21
21.643784
 31
0.0
  0
LINE
  5
408
100
AcDbEntity
  8
4
370
     0
390
0
  6
Continuous
 62
     1
100
AcDbLine
 10
69.395011
 20
21.076319
 30
0.0
 11
68.299029
 21
21.076319
 31
0.0
  0
LINE
  5
409
100
AcDbEntity
  8
4
370
     0
390
0
  6
Continuous
 62
     1
100
AcDbLine
 10
68.299029
 20
21.076319
 30
0.0
 11
68.299029
 21
21.796319
 31
0.0
  0
TEXT
  5
40A
100
AcDbEntity
  8
4
370
     0
390
0
  6
Continuous
 62
     7
100
AcDbText
 10
69.428558
 20
21.603857
 30
0.0
 40
0.142
  1
38,10  *
  7
Vcadd_SIMP
100
AcDbText
  0
TEXT
  5
40B
100
AcDbEntity
  8
4
370
     0
390
0
  6
Continuous
 62
     7
100
AcDbText
 10
69.428558
 20
21.036392
 30
0.0
 40
0.142
  1
33,32  *
  7
Vcadd_SIMP
100
AcDbText
  0
TEXT
  5
40C
100
AcDbEntity
  8
4
370
     0
390
0
  6
Continuous
 62
     7
100
AcDbText
 10
70.839399
 20
21.328602
 30
0.0
 40
0.142
  1
11,13*
  7
Vcadd_SIMP
100
AcDbText
  0
TEXT
  5
40D
100
AcDbEntity
  8
4
370
     0
390
0
  6
Continuous
 62
     7
100
AcDbText
 10
70.829622
 20
20.80492
 30
0.0
 40
0.142
  1
4,37*
  7
Vcadd_SIMP
100
AcDbText
  0
LINE
  5
40E
100
AcDbEntity
  8
4
370
    15
390
0
  6
Continuous
 62
     1
100
AcDbLine
 10
68.967779
 20
22.088725
 30
0.0
 11
70.920551
 21
22.088725
 31
0.0
  0
TEXT
  5
40F
100
AcDbEntity
  8
4
370
    15
390
0
  6
Continuous
 62
     7
100
AcDbText
 10
70.910872
 20
22.032966
 30
0.0
 40
0.142
  1
17,48
  7
Vcadd_SIMP
100
AcDbText
  0
TEXT
  5
410
100
AcDbEntity
  8
4
370
    15
390
0
  6
Continuous
 62
     7
100
AcDbText
 10
69.60782
 20
22.125946
 30
0.0
 40
0.12
  1
Min. Abstand des
  7
Vcadd_SIMP
100
AcDbText
  0
TEXT
  5
411
100
AcDbEntity
  8
4
370
    15
390
0
  6
Continuous
 62
     7
100
AcDbText
 10
69.60782
 20
21.945946
 30
0.0
 40
0.12
  1
Sechskant
  7
Vcadd_SIMP
100
AcDbText
  0
LINE
  5
412
100
AcDbEntity
  8
4
370
    15
390
0
  6
Continuous
 62
     1
100
AcDbLine
 10
68.995206
 20
21.883926
 30
0.0
 11
68.967779
 21
22.088725
 31
0.0
  0
LINE
  5
413
100
AcDbEntity
  8
4
370
    15
390
0
  6
Continuous
 62
     1
100
AcDbLine
 10
68.415977
 20
21.883926
 30
0.0
 11
68.995206
 21
21.883926
 31
0.0
  0
LINE
  5
414
100
AcDbEntity
  8
3
370
    15
390
0
  6
Continuous
 62
     1
100
AcDbLine
 10
68.487815
 20
22.689851
 30
0.0
 11
71.656125
 21
22.689851
 31
0.0
  0
LINE
  5
415
100
AcDbEntity
  8
3
370
    15
390
0
  6
Continuous
 62
     1
100
AcDbLine
 10
71.656125
 20
22.689851
 30
0.0
 11
71.656125
 21
23.475985
 31
0.0
  0
LINE
  5
416
100
AcDbEntity
  8
3
370
    15
390
0
  6
Continuous
 62
     1
100
AcDbLine
 10
71.656125
 20
23.475985
 30
0.0
 11
68.487815
 21
23.475985
 31
0.0
  0
LINE
  5
417
100
AcDbEntity
  8
3
370
    15
390
0
  6
Continuous
 62
     1
100
AcDbLine
 10
68.487815
 20
23.475985
 30
0.0
 11
68.487815
 21
22.689851
 31
0.0
  0
TEXT
  5
418
100
AcDbEntity
  8
4
370
    15
390
0
  6
Continuous
 62
     7
100
AcDbText
 10
68.542548
 20
23.279128
 30
0.0
 40
0.12
  1
siehe Bemerkung *: es werden 2 ver-
  7
Vcadd_SIMP
100
AcDbText
  0
TEXT
  5
419
100
AcDbEntity
  8
4
370
    15
390
0
  6
Continuous
 62
     7
100
AcDbText
 10
68.542548
 20
23.099128
 30
0.0
 40
0.12
  1
schieden Freiraumbohrungen benötigt,
  7
Vcadd_SIMP
100
AcDbText
  0
TEXT
  5
41A
100
AcDbEntity
  8
4
370
    15
390
0
  6
Continuous
 62
     7
100
AcDbText
 10
68.542548
 20
22.919128
 30
0.0
 40
0.12
  1
wenn die Tiefe der Einschraubventil-
  7
Vcadd_SIMP
100
AcDbText
  0
TEXT
  5
41B
100
AcDbEntity
  8
4
370
    15
390
0
  6
Continuous
 62
     7
100
AcDbText
 10
68.542548
 20
22.739128
 30
0.0
 40
0.12
  1
bohrung tiefer als Standard ist.
  7
Vcadd_SIMP
100
AcDbText
  0
LINE
  5
41C
100
AcDbEntity
  8
4
370
     0
390
0
  6
Continuous
 62
     1
100
AcDbLine
 10
68.299029
 20
21.796319
 30
0.0
 11
68.427376
 21
23.325819
 31
0.0
  0
LINE
  5
41D
100
AcDbEntity
  8
4
370
     0
390
0
  6
Continuous
 62
     1
100
AcDbLine
 10
68.427376
 20
23.325819
 30
0.0
 11
68.520468
 21
23.325819
 31
0.0
  0
LINE
  5
41E
100
AcDbEntity
  8
4
370
     0
390
0
  6
Continuous
 62
     1
100
AcDbLine
 10
68.422867
 20
19.009581
 30
0.0
 11
68.38689
 21
18.827499
 31
0.0
  0
TEXT
  5
41F
100
AcDbEntity
  8
0
370
    15
390
0
  6
Continuous
 62
     7
100
AcDbText
 10
62.746679
 20
10.613572
 30
0.0
 40
0.142
  1
J
 50
270.0
  7
Vcadd_SIMP
100
AcDbText
  0
TEXT
  5
420
100
AcDbEntity
  8
0
370
    15
390
0
  6
Continuous
 62
     7
100
AcDbText
 10
71.397846
 20
10.613572
 30
0.0
 40
0.142
  1
J
 50
270.0
  7
Vcadd_SIMP
100
AcDbText
  0
LINE
  5
421
100
AcDbEntity
  8
0
370
    15
390
0
  6
Continuous
 62
     2
100
AcDbLine
 10
63.102475
 20
18.70071
 30
0.0
 11
61.727475
 21
18.70071
 31
0.0
  0
LINE
  5
422
100
AcDbEntity
  8
0
370
     0
390
0
  6
Continuous
 62
     7
100
AcDbLine
 10
63.102475
 20
13.825712
 30
0.0
 11
61.727475
 21
13.825712
 31
0.0
  0
LINE
  5
423
100
AcDbEntity
  8
0
370
     0
390
0
  6
Continuous
 62
     7
100
AcDbLine
 10
63.102475
 20
14.825712
 30
0.0
 11
61.727475
 21
14.825712
 31
0.0
  0
LINE
  5
424
100
AcDbEntity
  8
0
370
     0
390
0
  6
Continuous
 62
     7
100
AcDbLine
 10
63.102475
 20
15.075712
 30
0.0
 11
61.727475
 21
15.075712
 31
0.0
  0
LINE
  5
425
100
AcDbEntity
  8
0
370
     0
390
0
  6
Continuous
 62
     7
100
AcDbLine
 10
63.102475
 20
15.325711
 30
0.0
 11
61.727475
 21
15.325711
 31
0.0
  0
LINE
  5
426
100
AcDbEntity
  8
0
370
     0
390
0
  6
Continuous
 62
     7
100
AcDbLine
 10
63.102475
 20
15.575711
 30
0.0
 11
61.727475
 21
15.575711
 31
0.0
  0
LINE
  5
427
100
AcDbEntity
  8
0
370
     0
390
0
  6
Continuous
 62
     7
100
AcDbLine
 10
63.102475
 20
16.07571
 30
0.0
 11
61.727475
 21
16.07571
 31
0.0
  0
LINE
  5
428
100
AcDbEntity
  8
0
370
     0
390
0
  6
Continuous
 62
     7
100
AcDbLine
 10
63.102475
 20
18.45071
 30
0.0
 11
61.727475
 21
18.45071
 31
0.0
  0
LINE
  5
429
100
AcDbEntity
  8
0
370
     0
390
0
  6
Continuous
 62
     7
100
AcDbLine
 10
61.883478
 20
18.70071
 30
0.0
 11
61.883478
 21
14.825712
 31
0.0
  0
LINE
  5
42A
100
AcDbEntity
  8
0
370
     0
390
0
  6
Continuous
 62
     7
100
AcDbLine
 10
62.727475
 20
13.825712
 30
0.0
 11
62.727475
 21
14.825712
 31
0.0
  0
LINE
  5
42B
100
AcDbEntity
  8
0
370
    15
390
0
  6
Continuous
 62
     7
100
AcDbLine
 10
62.040811
 20
14.014936
 30
0.0
 11
62.046636
 21
14.004362
 31
0.0
  0
LINE
  5
42C
100
AcDbEntity
  8
0
370
    15
390
0
  6
Continuous
 62
     7
100
AcDbLine
 10
62.046636
 20
14.004362
 30
0.0
 11
62.005208
 21
13.971395
 31
0.0
  0
LINE
  5
42D
100
AcDbEntity
  8
0
370
    15
390
0
  6
Continuous
 62
     7
100
AcDbLine
 10
62.005208
 20
13.971395
 30
0.0
 11
62.066053
 21
13.90547
 31
0.0
  0
LINE
  5
42E
100
AcDbEntity
  8
0
370
     0
390
0
  6
Continuous
 62
     7
100
AcDbLine
 10
62.116117
 20
14.042006
 30
0.0
 11
62.116117
 21
13.989431
 31
0.0
  0
LINE
  5
42F
100
AcDbEntity
  8
0
370
     0
390
0
  6
Continuous
 62
     7
100
AcDbLine
 10
62.151292
 20
14.042006
 30
0.0
 11
62.151292
 21
13.989431
 31
0.0
  0
LINE
  5
430
100
AcDbEntity
  8
0
370
     0
390
0
  6
Continuous
 62
     7
100
AcDbLine
 10
62.166925
 20
14.015715
 30
0.0
 11
62.135656
 21
14.015715
 31
0.0
  0
LINE
  5
431
100
AcDbEntity
  8
0
370
     0
390
0
  6
Continuous
 62
     7
100
AcDbLine
 10
62.182557
 20
13.895544
 30
0.0
 11
62.116117
 21
13.940611
 31
0.0
  0
LINE
  5
432
100
AcDbEntity
  8
0
370
     0
390
0
  6
Continuous
 62
     7
100
AcDbLine
 10
62.263395
 20
14.316542
 30
0.0
 11
62.263395
 21
14.259176
 31
0.0
  0
LINE
  5
433
100
AcDbEntity
  8
0
370
     0
390
0
  6
Continuous
 62
     7
100
AcDbLine
 10
62.299627
 20
14.316542
 30
0.0
 11
62.299627
 21
14.259176
 31
0.0
  0
LINE
  5
434
100
AcDbEntity
  8
0
370
     0
390
0
  6
Continuous
 62
     7
100
AcDbLine
 10
62.315732
 20
14.287863
 30
0.0
 11
62.283525
 21
14.287863
 31
0.0
  0
LINE
  5
435
100
AcDbEntity
  8
0
370
     0
390
0
  6
Continuous
 62
     7
100
AcDbLine
 10
62.376119
 20
14.316542
 30
0.0
 11
62.376119
 21
14.259176
 31
0.0
  0
LINE
  5
436
100
AcDbEntity
  8
0
370
     0
390
0
  6
Continuous
 62
     7
100
AcDbLine
 10
62.412351
 20
14.316542
 30
0.0
 11
62.412351
 21
14.259176
 31
0.0
  0
LINE
  5
437
100
AcDbEntity
  8
0
370
     0
390
0
  6
Continuous
 62
     7
100
AcDbLine
 10
62.428453
 20
14.287863
 30
0.0
 11
62.396245
 21
14.287863
 31
0.0
  0
LINE
  5
438
100
AcDbEntity
  8
0
370
     0
390
0
  6
Continuous
 62
     7
100
AcDbLine
 10
62.488843
 20
14.316542
 30
0.0
 11
62.488843
 21
14.259176
 31
0.0
  0
LINE
  5
439
100
AcDbEntity
  8
0
370
     0
390
0
  6
Continuous
 62
     7
100
AcDbLine
 10
62.525075
 20
14.316542
 30
0.0
 11
62.525075
 21
14.259176
 31
0.0
  0
LINE
  5
43A
100
AcDbEntity
  8
0
370
     0
390
0
  6
Continuous
 62
     7
100
AcDbLine
 10
62.541177
 20
14.287863
 30
0.0
 11
62.50897
 21
14.287863
 31
0.0
  0
LINE
  5
43B
100
AcDbEntity
  8
0
370
     0
390
0
  6
Continuous
 62
     7
100
AcDbLine
 10
62.819478
 20
16.07571
 30
0.0
 11
62.819478
 21
18.45071
 31
0.0
  0
LINE
  5
43C
100
AcDbEntity
  8
0
370
     0
390
0
  6
Continuous
 62
     7
100
AcDbLine
 10
62.975477
 20
16.07571
 30
0.0
 11
62.975477
 21
18.45071
 31
0.0
  0
LINE
  5
43D
100
AcDbEntity
  8
0
370
     0
390
0
  6
Continuous
 62
     7
100
AcDbLine
 10
62.195478
 20
18.45071
 30
0.0
 11
62.195478
 21
16.07571
 31
0.0
  0
TEXT
  5
43E
100
AcDbEntity
  8
0
370
     0
390
0
  6
Continuous
 62
     7
100
AcDbText
 10
61.764898
 20
18.664532
 30
0.0
 40
0.065844
  1
LET
 50
270.0
  7
Vcadd_SIMP
100
AcDbText
  0
TEXT
  5
43F
100
AcDbEntity
  8
0
370
     0
390
0
  6
Continuous
 62
     7
100
AcDbText
 10
61.773755
 20
17.557247
 30
0.0
 40
0.065844
  1
REVISION 
 50
270.0
  7
Vcadd_SIMP
100
AcDbText
  0
TEXT
  5
440
100
AcDbEntity
  8
0
370
     0
390
0
  6
Continuous
 62
     7
100
AcDbText
 10
61.771726
 20
15.956082
 30
0.0
 40
0.065844
  1
DATE 
 50
270.0
  7
Vcadd_SIMP
100
AcDbText
  0
TEXT
  5
441
100
AcDbEntity
  8
0
370
     0
390
0
  6
Continuous
 62
     7
100
AcDbText
 10
61.77189
 20
15.542058
 30
0.0
 40
0.065844
  1
DRN 
 50
270.0
  7
Vcadd_SIMP
100
AcDbText
  0
TEXT
  5
442
100
AcDbEntity
  8
0
370
     0
390
0
  6
Continuous
 62
     7
100
AcDbText
 10
61.771558
 20
15.294591
 30
0.0
 40
0.065844
  1
CHK 
 50
270.0
  7
Vcadd_SIMP
100
AcDbText
  0
TEXT
  5
443
100
AcDbEntity
  8
0
370
     0
390
0
  6
Continuous
 62
     7
100
AcDbText
 10
61.77189
 20
15.045561
 30
0.0
 40
0.065844
  1
REL
 50
270.0
  7
Vcadd_SIMP
100
AcDbText
  0
TEXT
  5
444
100
AcDbEntity
  8
0
370
     0
390
0
  6
Continuous
 62
     7
100
AcDbText
 10
62.995836
 20
14.508589
 30
0.0
 40
0.062
  1
UNLESS
 50
270.0
  7
Vcadd_SIMP
100
AcDbText
  0
TEXT
  5
445
100
AcDbEntity
  8
0
370
     0
390
0
  6
Continuous
 62
     7
100
AcDbText
 10
62.89208
 20
14.599012
 30
0.0
 40
0.062
  1
OTHERWISE
 50
270.0
  7
Vcadd_SIMP
100
AcDbText
  0
TEXT
  5
446
100
AcDbEntity
  8
0
370
     0
390
0
  6
Continuous
 62
     7
100
AcDbText
 10
62.780019
 20
14.596861
 30
0.0
 40
0.062
  1
SPECIFIED
 50
270.0
  7
Vcadd_SIMP
100
AcDbText
  0
TEXT
  5
447
100
AcDbEntity
  8
0
370
     0
390
0
  6
Continuous
 62
     7
100
AcDbText
 10
62.627832
 20
14.778219
 30
0.0
 40
0.062
  1
DIMENSION TOL
 50
270.0
 41
1.1725
  7
Vcadd_SIMP
100
AcDbText
  0
TEXT
  5
448
100
AcDbEntity
  8
0
370
     0
390
0
  6
Continuous
 62
     7
100
AcDbText
 10
62.488843
 20
14.762053
 30
0.0
 40
0.065844
  1
.
 50
270.0
 41
1.324153
  7
Vcadd_SIMP
100
AcDbText
  0
TEXT
  5
449
100
AcDbEntity
  8
0
370
     0
390
0
  6
Continuous
 62
     7
100
AcDbText
 10
62.372541
 20
14.674871
 30
0.0
 40
0.065844
  1
xx
 50
270.0
 41
1.324153
  7
Vcadd_SIMP
100
AcDbText
  0
TEXT
  5
44A
100
AcDbEntity
  8
0
370
     0
390
0
  6
Continuous
 62
     7
100
AcDbText
 10
62.262056
 20
14.674871
 30
0.0
 40
0.065844
  1
xxx
 50
270.0
 41
1.324153
  7
Vcadd_SIMP
100
AcDbText
  0
TEXT
  5
44B
100
AcDbEntity
  8
0
370
     0
390
0
  6
Continuous
 62
     7
100
AcDbText
 10
62.115648
 20
14.75701
 30
0.0
 40
0.062
  1
ANGLE TOL
 50
270.0
 41
1.25
  7
Vcadd_SIMP
100
AcDbText
  0
TEXT
  5
44C
100
AcDbEntity
  8
0
370
     0
390
0
  6
Continuous
 62
     7
100
AcDbText
 10
62.00403
 20
14.724226
 30
0.0
 40
0.062
  1
FINISH
 50
270.0
 41
1.25
  7
Vcadd_SIMP
100
AcDbText
  0
TEXT
  5
44D
100
AcDbEntity
  8
0
370
     0
390
0
  6
Continuous
 62
     7
100
AcDbText
 10
62.00403
 20
14.181723
 30
0.0
 40
0.062
  1
8O
 50
270.0
 41
1.25
  7
Vcadd_SIMP
100
AcDbText
  0
TEXT
  5
44E
100
AcDbEntity
  8
0
370
     0
390
0
  6
Continuous
 62
     7
100
AcDbText
 10
61.896203
 20
14.684156
 30
0.0
 40
0.062
  1
REMOVE ALL
 50
270.0
 41
1.25
  7
Vcadd_SIMP
100
AcDbText
  0
TEXT
  5
44F
100
AcDbEntity
  8
0
370
     0
390
0
  6
Continuous
 62
     7
100
AcDbText
 10
61.791753
 20
14.520247
 30
0.0
 40
0.062
  1
BURRS
 50
270.0
 41
1.25
  7
Vcadd_SIMP
100
AcDbText
  0
TEXT
  5
450
100
AcDbEntity
  8
0
370
     0
390
0
  6
Continuous
 62
     7
100
AcDbText
 10
62.488843
 20
14.674871
 30
0.0
 40
0.065844
  1
x
 50
270.0
 41
1.324153
  7
Vcadd_SIMP
100
AcDbText
  0
TEXT
  5
451
100
AcDbEntity
  8
0
370
     0
390
0
  6
Continuous
 62
     7
100
AcDbText
 10
62.372541
 20
14.413305
 30
0.0
 40
0.065844
  1
=
 50
270.0
 41
1.324153
  7
Vcadd_SIMP
100
AcDbText
  0
TEXT
  5
452
100
AcDbEntity
  8
0
370
     0
390
0
  6
Continuous
 62
     7
100
AcDbText
 10
62.262056
 20
14.413305
 30
0.0
 40
0.065844
  1
=
 50
270.0
 41
1.324153
  7
Vcadd_SIMP
100
AcDbText
  0
TEXT
  5
453
100
AcDbEntity
  8
0
370
     0
390
0
  6
Continuous
 62
     7
100
AcDbText
 10
62.372541
 20
14.06455
 30
0.0
 40
0.065844
  1
.
 50
270.0
 41
1.324153
  7
Vcadd_SIMP
100
AcDbText
  0
TEXT
  5
454
100
AcDbEntity
  8
0
370
     0
390
0
  6
Continuous
 62
     7
100
AcDbText
 10
62.262056
 20
14.238928
 30
0.0
 40
0.065844
  1
.OO5
 50
270.0
 41
1.324153
  7
Vcadd_SIMP
100
AcDbText
  0
TEXT
  5
455
100
AcDbEntity
  8
0
370
     0
390
0
  6
Continuous
 62
     7
100
AcDbText
 10
62.151292
 20
13.951872
 30
0.0
 40
0.031961
  1
1 
 50
270.0
 41
1.25
  7
Vcadd_SIMP
100
AcDbText
  0
TEXT
  5
456
100
AcDbEntity
  8
0
370
     0
390
0
  6
Continuous
 62
     7
100
AcDbText
 10
62.111341
 20
13.911924
 30
0.0
 40
0.031961
  1
2
 50
270.0
 41
1.25
  7
Vcadd_SIMP
100
AcDbText
  0
TEXT
  5
457
100
AcDbEntity
  8
0
370
     0
390
0
  6
Continuous
 62
     7
100
AcDbText
 10
62.372541
 20
14.762053
 30
0.0
 40
0.065844
  1
.
 50
270.0
 41
1.324153
  7
Vcadd_SIMP
100
AcDbText
  0
TEXT
  5
458
100
AcDbEntity
  8
0
370
     0
390
0
  6
Continuous
 62
     7
100
AcDbText
 10
62.262056
 20
14.762053
 30
0.0
 40
0.065844
  1
.
 50
270.0
 41
1.324153
  7
Vcadd_SIMP
100
AcDbText
  0
TEXT
  5
459
100
AcDbEntity
  8
0
370
     0
390
0
  6
Continuous
 62
     7
100
AcDbText
 10
62.372541
 20
14.413305
 30
0.0
 40
0.065844
  1
  .O1 
 50
270.0
 41
1.324153
  7
Vcadd_SIMP
100
AcDbText
  0
TEXT
  5
45A
100
AcDbEntity
  8
0
370
     0
390
0
  6
Continuous
 62
     7
100
AcDbText
 10
62.372541
 20
13.977369
 30
0.0
 40
0.065844
  1
5
 50
270.0
 41
1.324153
  7
Vcadd_SIMP
100
AcDbText
  0
TEXT
  5
45B
100
AcDbEntity
  8
0
370
     0
390
0
  6
Continuous
 62
     7
100
AcDbText
 10
62.488843
 20
14.674871
 30
0.0
 40
0.065844
  1
   = 
 50
270.0
 41
1.324153
  7
Vcadd_SIMP
100
AcDbText
  0
TEXT
  5
45C
100
AcDbEntity
  8
0
370
     0
390
0
  6
Continuous
 62
     7
100
AcDbText
 10
62.488843
 20
14.238928
 30
0.0
 40
0.065844
  1
.O3O
 50
270.0
 41
1.324153
  7
Vcadd_SIMP
100
AcDbText
  0
LINE
  5
45D
100
AcDbEntity
  8
0
370
     0
390
0
  6
Continuous
 62
     7
100
AcDbLine
 10
62.507474
 20
18.70071
 30
0.0
 11
62.507474
 21
14.825712
 31
0.0
  0
LINE
  5
45E
100
AcDbEntity
  8
0
370
     0
390
0
  6
Continuous
 62
     7
100
AcDbLine
 10
62.039476
 20
18.45071
 30
0.0
 11
62.039476
 21
16.07571
 31
0.0
  0
TEXT
  5
45F
100
AcDbEntity
  8
0
370
     0
390
0
  6
Continuous
 62
     7
100
AcDbText
 10
62.241758
 20
18.413532
 30
0.0
 40
0.065844
  1
REVISED TOOLING P/N. REVISED DIMS FOR
 50
270.0
 41
0.9
  7
Vcadd_SIMP
100
AcDbText
  0
TEXT
  5
460
100
AcDbEntity
  8
0
370
     0
390
0
  6
Continuous
 62
     7
100
AcDbText
 10
62.085759
 20
18.413532
 30
0.0
 40
0.065844
  1
CAVITY / TOOLING CONSISTENCY.
 50
270.0
 41
0.9
  7
Vcadd_SIMP
100
AcDbText
  0
TEXT
  5
461
100
AcDbEntity
  8
0
370
     0
390
0
  6
Continuous
 62
     7
100
AcDbText
 10
61.929757
 20
18.413532
 30
0.0
 40
0.065844
  1
ADDED METRIC TOL. BLOCK TO SHEETS 2 & 3
 50
270.0
 41
0.9
  7
Vcadd_SIMP
100
AcDbText
  0
TEXT
  5
462
100
AcDbEntity
  8
0
370
     0
390
0
  6
Continuous
 62
     7
100
AcDbText
 10
62.039038
 20
18.57571
 30
0.0
 40
0.065844
  1
H
 50
270.0
  7
Vcadd_SIMP
 72
     1
 11
62.076898
 21
18.57571
 31
0.0
100
AcDbText
  0
TEXT
  5
463
100
AcDbEntity
  8
0
370
     0
390
0
  6
Continuous
 62
     7
100
AcDbText
 10
61.811876
 20
15.825711
 30
0.0
 40
0.065844
  1
06MAY11
 50
270.0
  7
Vcadd_SIMP
 72
     1
 11
62.076898
 21
15.825711
 31
0.0
100
AcDbText
  0
TEXT
  5
464
100
AcDbEntity
  8
0
370
     0
390
0
  6
Continuous
 62
     7
100
AcDbText
 10
61.963317
 20
15.450711
 30
0.0
 40
0.065844
  1
JRS
 50
270.0
  7
Vcadd_SIMP
 72
     1
 11
62.076898
 21
15.450711
 31
0.0
100
AcDbText
  0
TEXT
  5
465
100
AcDbEntity
  8
0
370
     0
390
0
  6
Continuous
 62
     7
100
AcDbText
 10
61.944387
 20
14.950712
 30
0.0
 40
0.065844
  1
10164
 50
270.0
 41
0.7
  7
Vcadd_SIMP
 72
     1
 11
62.076898
 21
14.950712
 31
0.0
100
AcDbText
  0
TEXT
  5
466
100
AcDbEntity
  8
0
370
     0
390
0
  6
Continuous
 62
     7
100
AcDbText
 10
61.963317
 20
15.200712
 30
0.0
 40
0.065844
  1
RCL
 50
270.0
  7
Vcadd_SIMP
 72
     1
 11
62.076898
 21
15.200712
 31
0.0
100
AcDbText
  0
LINE
  5
467
100
AcDbEntity
  8
0
370
     0
390
0
  6
Continuous
 62
     7
100
AcDbLine
 10
62.351476
 20
18.70071
 30
0.0
 11
62.351476
 21
14.825712
 31
0.0
  0
LINE
  5
468
100
AcDbEntity
  8
0
370
     0
390
0
  6
Continuous
 62
     7
100
AcDbLine
 10
62.663476
 20
18.45071
 30
0.0
 11
62.663476
 21
16.07571
 31
0.0
  0
TEXT
  5
469
100
AcDbEntity
  8
0
370
     0
390
0
  6
Continuous
 62
     7
100
AcDbText
 10
62.401264
 20
18.413532
 30
0.0
 40
0.065844
  1
CLARIFIED HEX AND SOCKET CLEARANCE DRILL NOTES
 50
270.0
 41
0.72
  7
Vcadd_SIMP
100
AcDbText
  0
TEXT
  5
46A
100
AcDbEntity
  8
0
370
     0
390
0
  6
Continuous
 62
     7
100
AcDbText
 10
62.351038
 20
18.57571
 30
0.0
 40
0.065844
  1
J
 50
270.0
  7
Vcadd_SIMP
 72
     1
 11
62.388898
 21
18.57571
 31
0.0
100
AcDbText
  0
TEXT
  5
46B
100
AcDbEntity
  8
0
370
     0
390
0
  6
Continuous
 62
     7
100
AcDbText
 10
62.123876
 20
15.825711
 30
0.0
 40
0.065844
  1
09OCT12
 50
270.0
  7
Vcadd_SIMP
 72
     1
 11
62.388898
 21
15.825711
 31
0.0
100
AcDbText
  0
TEXT
  5
46C
100
AcDbEntity
  8
0
370
     0
390
0
  6
Continuous
 62
     7
100
AcDbText
 10
62.275317
 20
15.450711
 30
0.0
 40
0.065844
  1
DAS
 50
270.0
  7
Vcadd_SIMP
 72
     1
 11
62.388898
 21
15.450711
 31
0.0
100
AcDbText
  0
TEXT
  5
46D
100
AcDbEntity
  8
0
370
     0
390
0
  6
Continuous
 62
     7
100
AcDbText
 10
62.275317
 20
15.200712
 30
0.0
 40
0.065844
  1
RJB
 50
270.0
  7
Vcadd_SIMP
 72
     1
 11
62.388898
 21
15.200712
 31
0.0
100
AcDbText
  0
TEXT
  5
46E
100
AcDbEntity
  8
0
370
     0
390
0
  6
Continuous
 62
     7
100
AcDbText
 10
62.375772
 20
14.950712
 30
0.0
 40
0.055
  1
ECR
 50
270.0
 41
0.7
  7
Vcadd_SIMP
 72
     1
 11
62.442185
 21
14.950712
 31
0.0
100
AcDbText
  0
TEXT
  5
46F
100
AcDbEntity
  8
0
370
     0
390
0
  6
Continuous
 62
     7
100
AcDbText
 10
62.248997
 20
14.950712
 30
0.0
 40
0.055
  1
11371
 50
270.0
 41
0.7
  7
Vcadd_SIMP
 72
     1
 11
62.359685
 21
14.950712
 31
0.0
100
AcDbText
  0
ENDSEC
  0
SECTION
  2
OBJECTS
  0
DICTIONARY
  5
19
100
AcDbDictionary
280
     0
281
     1
  3
ACAD_GROUP
350
1A
  3
ACAD_MLINESTYLE
350
1B
  3
ACAD_LAYOUT
350
1E
  3
ACAD_PLOTSETTINGS
350
22
  3
ACAD_PLOTSTYLENAME
350
1F
  3
ACAD_WIPEOUT_VARS
350
23
  0
DICTIONARY
  5
1A
102
{ACAD_REACTORS
330
19
102
}
100
AcDbDictionary
280
     0
281
     1
  0
DICTIONARY
  5
1B
102
{ACAD_REACTORS
330
19
102
}
100
AcDbDictionary
280
     0
281
     1
  3
Standard
350
1C
  0
MLINESTYLE
  5
1C
102
{ACAD_REACTORS
330
1B
102
}
100
AcDbMlineStyle
  2
Standard
 70
     0
  3

 62
     0
 51
90.0
 52
90.0
 71
     2
 49
0.5
 62
   256
  6
ByLayer
 49
-0.5
 62
   256
  6
ByLayer
  0
ACDBDICTIONARYWDFLT
  5
1F
102
{ACAD_REACTORS
330
19
102
}
100
AcDbDictionary
281
     1
  3
Normal
350
1D
100
AcDbDictionaryWithDefault
340
1D
  0
ACDBPLACEHOLDER
  5
1D
102
{ACAD_REACTORS
330
1F
102
}
  0
LAYOUT
  5
20
102
{ACAD_REACTORS
330
1E
102
}
100
AcDbPlotSettings
  1

  2

  4

  6

 40
0.0
 41
0.0
 42
0.0
 43
0.0
 44
0.0
 45
0.0
 46
0.0
 47
0.0
 48
0.0
 49
0.0
140
0.0
141
0.0
142
1.0
143
1.0
 70
  1024
 72
     0
 73
     0
 74
     0
  7

 75
     0
147
1.0
148
0.0
149
0.0
100
AcDbLayout
  1
Model
 70
     0
 71
     0
 10
0.0
 20
0.0
 11
0.0
 21
0.0
 12
0.0
 22
0.0
 32
0.0
 14
0.0
 24
0.0
 34
0.0
 15
0.0
 25
0.0
 35
0.0
146
0.0
 13
0.0
 23
0.0
 33
0.0
 16
0.0
 26
0.0
 36
0.0
 17
0.0
 27
0.0
 37
0.0
 76
     0
330
A
331
0
345
0
346
0
  0
LAYOUT
  5
21
102
{ACAD_REACTORS
330
1E
102
}
100
AcDbPlotSettings
  1

  2

  4

  6

 40
0.0
 41
0.0
 42
0.0
 43
0.0
 44
0.0
 45
0.0
 46
0.0
 47
0.0
 48
0.0
 49
0.0
140
0.0
141
0.0
142
1.0
143
1.0
 70
     0
 72
     0
 73
     0
 74
     0
  7

 75
     0
147
1.0
148
0.0
149
0.0
100
AcDbLayout
  1
Layout1
 70
     0
 71
     0
 10
0.0
 20
0.0
 11
0.0
 21
0.0
 12
0.0
 22
0.0
 32
0.0
 14
0.0
 24
0.0
 34
0.0
 15
0.0
 25
0.0
 35
0.0
146
0.0
 13
0.0
 23
0.0
 33
0.0
 16
0.0
 26
0.0
 36
0.0
 17
0.0
 27
0.0
 37
0.0
 76
     0
330
B
331
0
345
0
346
0
  0
DICTIONARY
  5
1E
102
{ACAD_REACTORS
330
19
102
}
100
AcDbDictionary
280
     0
281
     1
  3
Layout1
350
21
  3
Model
350
20
  0
DICTIONARY
  5
22
102
{ACAD_REACTORS
330
19
102
}
100
AcDbDictionary
280
     0
281
     1
  0
WIPEOUTVARIABLES
  5
23
100
AcDbWipeoutVariables
 70
     1
  0
ENDSEC
  0
EOF
