  0
SECTION
  2
HEADER
  9
$ACADVER
  1
AC1015
  9
$ACADMAINTVER
 70
     6
  9
$DWGCODEPAGE
  3
ANSI_1253
  9
$INSBASE
 10
0.0
 20
0.0
 30
0.0
  9
$EXTMIN
 10
19.188425
 20
11.096123
 30
0.0
  9
$EXTMAX
 10
29.193586
 20
27.099829
 30
0.0
  9
$LIMMIN
 10
0.0
 20
0.0
  9
$LIMMAX
 10
0.0
 20
0.0
  9
$ORTHOMODE
 70
     0
  9
$REGENMODE
 70
     1
  9
$FILLMODE
 70
     1
  9
$QTEXTMODE
 70
     0
  9
$MIRRTEXT
 70
     1
  9
$LTSCALE
 40
1.0
  9
$ATTMODE
 70
     1
  9
$TEXTSIZE
 40
0.2
  9
$TRACEWID
 40
0.05
  9
$TEXTSTYLE
  7
Standard
  9
$CLAYER
  8
0
  9
$CELTYPE
  6
Continuous
  9
$CECOLOR
 62
   256
  9
$CELTSCALE
 40
1.0
  9
$DISPSILH
 70
     0
  9
$DIMSCALE
 40
1.0
  9
$DIMASZ
 40
0.18
  9
$DIMEXO
 40
0.0625
  9
$DIMDLI
 40
0.38
  9
$DIMRND
 40
0.0
  9
$DIMDLE
 40
0.0
  9
$DIMEXE
 40
0.18
  9
$DIMTP
 40
0.0
  9
$DIMTM
 40
0.0
  9
$DIMTXT
 40
0.18
  9
$DIMCEN
 40
0.09
  9
$DIMTSZ
 40
0.0
  9
$DIMTOL
 70
     0
  9
$DIMLIM
 70
     0
  9
$DIMTIH
 70
     1
  9
$DIMTOH
 70
     1
  9
$DIMSE1
 70
     0
  9
$DIMSE2
 70
     0
  9
$DIMTAD
 70
     0
  9
$DIMZIN
 70
     0
  9
$DIMBLK
  1

  9
$DIMASO
 70
     1
  9
$DIMSHO
 70
     1
  9
$DIMPOST
  1

  9
$DIMAPOST
  1

  9
$DIMALT
 70
     0
  9
$DIMALTD
 70
     2
  9
$DIMALTF
 40
25.4
  9
$DIMLFAC
 40
1.0
  9
$DIMTOFL
 70
     0
  9
$DIMTVP
 40
0.0
  9
$DIMTIX
 70
     0
  9
$DIMSOXD
 70
     0
  9
$DIMSAH
 70
     0
  9
$DIMBLK1
  1

  9
$DIMBLK2
  1

  9
$DIMSTYLE
  2
Standard
  9
$DIMCLRD
 70
     0
  9
$DIMCLRE
 70
     0
  9
$DIMCLRT
 70
     0
  9
$DIMTFAC
 40
1.0
  9
$DIMGAP
 40
0.09
  9
$DIMJUST
 70
     0
  9
$DIMSD1
 70
     0
  9
$DIMSD2
 70
     0
  9
$DIMTOLJ
 70
     1
  9
$DIMTZIN
 70
     0
  9
$DIMALTZ
 70
     0
  9
$DIMALTTZ
 70
     0
  9
$DIMUPT
 70
     0
  9
$DIMDEC
 70
     4
  9
$DIMTDEC
 70
     4
  9
$DIMALTU
 70
     2
  9
$DIMALTTD
 70
     2
  9
$DIMTXSTY
  7
Standard
  9
$DIMAUNIT
 70
     0
  9
$DIMADEC
 70
     0
  9
$DIMALTRND
 40
0.0
  9
$DIMAZIN
 70
     0
  9
$DIMDSEP
 70
     0
  9
$DIMATFIT
 70
     3
  9
$DIMFRAC
 70
     0
  9
$DIMLDRBLK
  1

  9
$DIMLUNIT
 70
     2
  9
$DIMLWD
 70
     0
  9
$DIMLWE
 70
     0
  9
$DIMTMOVE
 70
     0
  9
$LUNITS
 70
     2
  9
$LUPREC
 70
     4
  9
$SKETCHINC
 40
0.1
  9
$FILLETRAD
 40
0.0
  9
$AUNITS
 70
     0
  9
$AUPREC
 70
     0
  9
$MENU
  1
acad
  9
$ELEVATION
 40
0.0
  9
$PELEVATION
 40
0.0
  9
$THICKNESS
 40
0.0
  9
$LIMCHECK
 70
     0
  9
$CHAMFERA
 40
0.0
  9
$CHAMFERB
 40
0.0
  9
$CHAMFERC
 40
0.0
  9
$CHAMFERD
 40
0.0
  9
$SKPOLY
 70
     0
  9
$TDCREATE
 40
0.000000000
  9
$TDUCREATE
 40
0.000000000
  9
$TDUPDATE
 40
0.000000000
  9
$TDUUPDATE
 40
0.000000000
  9
$TDINDWG
 40
0.0000000000
  9
$TDUSRTIMER
 40
0.0000000000
  9
$USRTIMER
 70
     1
  9
$ANGBASE
 50
0.0
  9
$ANGDIR
 70
     0
  9
$PDMODE
 70
     2
  9
$PDSIZE
 40
-1.0
  9
$PLINEWID
 40
0.0
  9
$SPLFRAME
 70
     0
  9
$SPLINETYPE
 70
     6
  9
$SPLINESEGS
 70
     8
  9
$HANDSEED
  5
3AA
  9
$SURFTAB1
 70
     6
  9
$SURFTAB2
 70
     6
  9
$SURFTYPE
 70
     6
  9
$SURFU
 70
     6
  9
$SURFV
 70
     6
  9
$UCSBASE
  2

  9
$UCSNAME
  2

  9
$UCSORG
 10
0.0
 20
0.0
 30
0.0
  9
$UCSXDIR
 10
1.0
 20
0.0
 30
0.0
  9
$UCSYDIR
 10
0.0
 20
1.0
 30
0.0
  9
$UCSORTHOREF
  2

  9
$UCSORTHOVIEW
 70
     0
  9
$UCSORGTOP
 10
0.0
 20
0.0
 30
0.0
  9
$UCSORGBOTTOM
 10
0.0
 20
0.0
 30
0.0
  9
$UCSORGLEFT
 10
0.0
 20
0.0
 30
0.0
  9
$UCSORGRIGHT
 10
0.0
 20
0.0
 30
0.0
  9
$UCSORGFRONT
 10
0.0
 20
0.0
 30
0.0
  9
$UCSORGBACK
 10
0.0
 20
0.0
 30
0.0
  9
$PUCSBASE
  2

  9
$PUCSNAME
  2

  9
$PUCSORG
 10
0.0
 20
0.0
 30
0.0
  9
$PUCSXDIR
 10
1.0
 20
0.0
 30
0.0
  9
$PUCSYDIR
 10
0.0
 20
1.0
 30
0.0
  9
$PUCSORTHOREF
  2

  9
$PUCSORTHOVIEW
 70
     0
  9
$PUCSORGTOP
 10
0.0
 20
0.0
 30
0.0
  9
$PUCSORGBOTTOM
 10
0.0
 20
0.0
 30
0.0
  9
$PUCSORGLEFT
 10
0.0
 20
0.0
 30
0.0
  9
$PUCSORGRIGHT
 10
0.0
 20
0.0
 30
0.0
  9
$PUCSORGFRONT
 10
0.0
 20
0.0
 30
0.0
  9
$PUCSORGBACK
 10
0.0
 20
0.0
 30
0.0
  9
$USERI1
 70
     0
  9
$USERI2
 70
     0
  9
$USERI3
 70
     0
  9
$USERI4
 70
     0
  9
$USERI5
 70
     0
  9
$USERR1
 40
0.0
  9
$USERR2
 40
0.0
  9
$USERR3
 40
0.0
  9
$USERR4
 40
0.0
  9
$USERR5
 40
0.0
  9
$WORLDVIEW
 70
     1
  9
$SHADEDGE
 70
     3
  9
$SHADEDIF
 70
    70
  9
$TILEMODE
 70
     1
  9
$MAXACTVP
 70
    16
  9
$PINSBASE
 10
0.0
 20
0.0
 30
0.0
  9
$PLIMCHECK
 70
     0
  9
$PEXTMIN
 10
1.000000E+20
 20
1.000000E+20
 30
1.000000E+20
  9
$PEXTMAX
 10
-1.000000E+20
 20
-1.000000E+20
 30
-1.000000E+20
  9
$PLIMMIN
 10
0.0
 20
0.0
  9
$PLIMMAX
 10
12.0
 20
9.0
  9
$UNITMODE
 70
     0
  9
$VISRETAIN
 70
     0
  9
$PLINEGEN
 70
     1
  9
$PSLTSCALE
 70
     0
  9
$TREEDEPTH
 70
  3020
  9
$CMLSTYLE
  2
Standard
  9
$CMLJUST
 70
     0
  9
$CMLSCALE
 40
1.0
  9
$PROXYGRAPHICS
 70
     0
  9
$MEASUREMENT
 70
     0
  9
$CELWEIGHT
370
     0
  9
$ENDCAPS
280
     0
  9
$JOINSTYLE
280
     0
  9
$LWDISPLAY
290
     1
  9
$INSUNITS
 70
     0
  9
$HYPERLINKBASE
  1

  9
$STYLESHEET
  1

  9
$XEDIT
290
     1
  9
$CEPSNTYPE
380
     0
  9
$PSTYLEMODE
290
     1
  9
$FINGERPRINTGUID
  2

  9
$VERSIONGUID
  2

  9
$EXTNAMES
290
     1
  9
$PSVPSCALE
 40
0.0
  0
ENDSEC
  0
SECTION
  2
CLASSES
  0
CLASS
  1
LWPOLYLINE
  2
AcDbPolyline
  3
AutoCAD 2000
 90
        0
280
     0
281
     1
  0
CLASS
  1
IMAGE
  2
AcDbRasterImage
  3
ISM
 90
      127
280
     0
281
     1
  0
CLASS
  1
OLE2FRAME
  2
AcDbOle2Frame
  3
AutoCAD 2000
 90
        0
280
     0
281
     1
  0
CLASS
  1
HATCH
  2
AcDbHatch
  3
AutoCAD 2000
 90
        0
280
     0
281
     1
  0
CLASS
  1
DICTIONARYVAR
  2
AcDbDictionaryVar
  3
AutoCAD 2000
 90
        0
280
     0
281
     0
  0
CLASS
  1
RASTERVARIABLES
  2
AcDbRasterVariables
  3
ISM
 90
        0
280
     0
281
     0
  0
CLASS
  1
IMAGEDEF
  2
AcDbRasterImageDef
  3
ISM
 90
        0
280
     0
281
     0
  0
CLASS
  1
IMAGEDEF_REACTOR
  2
AcDbRasterImageDefReactor
  3
ISM
 90
        1
280
     0
281
     0
  0
CLASS
  1
IDBUFFER
  2
AcDbIdBuffer
  3
AutoCAD 2000
 90
        0
280
     0
281
     0
  0
CLASS
  1
SPATIAL_FILTER
  2
AcDbSpatialFilter
  3
AutoCAD 2000
 90
        0
280
     0
281
     0
  0
CLASS
  1
XRECORD
  2
AcDbXrecord
  3
AutoCAD 2000
 90
        0
280
     0
281
     0
  0
CLASS
  1
SORTENTSTABLE
  2
AcDbSortentsTable
  3
AutoCAD 2000
 90
        0
280
     0
281
     0
  0
CLASS
  1
LAYER_INDEX
  2
AcDbLayerIndex
  3
AutoCAD 2000
 90
        0
280
     0
281
     0
  0
CLASS
  1
SPATIAL_INDEX
  2
AcDbSpatialIndex
  3
AutoCAD 2000
 90
        0
280
     0
281
     0
  0
CLASS
  1
OBJECT_PTR
  2
CAseDLPNTableRecord
  3
"ASE-LPNTableRecord"
 90
        1
280
     0
281
     0
  0
CLASS
  1
LAYOUT
  2
AcDbLayout
  3
AutoCAD 2000
 90
        0
280
     0
281
     0
  0
CLASS
  1
PLOTSETTINGS
  2
AcDbPlotSettings
  3
AutoCAD 2000
 90
        0
280
     0
281
     0
  0
CLASS
  1
ACDBDICTIONARYWDFLT
  2
AcDbDictionaryWithDefault
  3
AutoCAD 2000
 90
        0
280
     0
281
     0
  0
CLASS
  1
ACDBPLACEHOLDER
  2
AcDbPlaceHolder
  3
AutoCAD 2000
 90
        0
280
     0
281
     0
  0
CLASS
  1
VBA_PROJECT
  2
AcDbVbaProject
  3
acadvba
 90
        0
280
     0
281
     0
  0
CLASS
  1
WIPEOUT
  2
AcDbWipeout
  3
WipeOut|AutoCAD Express Tool|expresstools@autodesk.com
 90
      127
280
     0
281
     1
  0
CLASS
  1
WIPEOUTVARIABLES
  2
AcDbWipeoutVariables
  3
WipeOut|AutoCAD Express Tool|expresstools@autodesk.com
 90
        0
280
     0
281
     0
  0
CLASS
  1
RTEXT
  2
RText
  3
RText|AutoCAD Express Tool|expresstools@autodesk.com
 90
        0
280
     0
281
     1
  0
CLASS
  1
ARCALIGNEDTEXT
  2
AcDbArcAlignedText
  3
ATEXT|AutoCAD Express Tool|expresstools@autodesk.com
 90
        0
280
     0
281
     1
  0
ENDSEC
  0
SECTION
  2
TABLES
  0
TABLE
  2
VPORT
  5
7
100
AcDbSymbolTable
 70
     2
  0
VPORT
  5
15
100
AcDbSymbolTableRecord
100
AcDbViewportTableRecord
  2
*ACTIVE
 70
     0
 10
0.0
 20
0.0
 11
1.0
 21
1.0
 12
6.591288
 22
4.579184
 13
0.0
 23
0.0
 14
1.0
 24
1.0
 15
0.0
 25
0.0
 16
0.0
 26
0.0
 36
1.0
 17
0.0
 27
0.0
 37
0.0
 40
9.158369
 41
0.688564
 42
50.0
 43
0.0
 44
0.0
 50
0.0
 51
0.0
 71
     0
 72
   100
 73
     1
 74
     1
 75
     0
 76
     0
 77
     0
 78
     0
281
     0
 65
     0
110
0.0
120
0.0
130
0.0
111
1.0
121
0.0
131
0.0
112
0.0
122
1.0
132
0.0
345
0
346
0
 79
     0
146
0.0
  0
VPORT
  5
3A9
100
AcDbSymbolTableRecord
100
AcDbViewportTableRecord
  2
MYVPORT
 70
     0
 10
0.0
 20
0.0
 11
1.0
 21
1.0
 12
6.21
 22
9.02
 13
0.0
 23
0.0
 14
1.0
 24
1.0
 15
0.0
 25
0.0
 16
0.0
 26
0.0
 36
1.0
 17
0.0
 27
0.0
 37
0.0
 40
18.04
 41
0.688564
 42
50.0
 43
0.0
 44
0.0
 50
0.0
 51
0.0
 71
     0
 72
   100
 73
     1
 74
     1
 75
     0
 76
     0
 77
     0
 78
     0
281
     0
 65
     0
110
0.0
120
0.0
130
0.0
111
1.0
121
0.0
131
0.0
112
0.0
122
1.0
132
0.0
345
0
346
0
 79
     0
146
0.0
  0
ENDTAB
  0
TABLE
  2
LTYPE
  5
4
100
AcDbSymbolTable
 70
     7
  0
LTYPE
  5
11
100
AcDbSymbolTableRecord
100
AcDbLinetypeTableRecord
  2
ByBlock
 70
    64
  3

 72
    65
 73
     0
 40
0.0
  0
LTYPE
  5
12
100
AcDbSymbolTableRecord
100
AcDbLinetypeTableRecord
  2
ByLayer
 70
    64
  3

 72
    65
 73
     0
 40
0.0
  0
LTYPE
  5
13
100
AcDbSymbolTableRecord
100
AcDbLinetypeTableRecord
  2
Continuous
 70
    64
  3
Solid line
 72
    65
 73
     0
 40
0.0
  0
LTYPE
  5
6D
100
AcDbSymbolTableRecord
100
AcDbLinetypeTableRecord
  2
CL____X1
 70
    64
  3
Visual CADD Translation
 72
    65
 73
     4
 40
1.33
 49
0.05
 74
     0
 49
-0.05
 74
     0
 49
1.18
 74
     0
 49
-0.05
 74
     0
  0
LTYPE
  5
129
100
AcDbSymbolTableRecord
100
AcDbLinetypeTableRecord
  2
DIVIDE
 70
    64
  3
Visual CADD Translation
 72
    65
 73
     6
 40
1.0
 49
0.6
 74
     0
 49
-0.133
 74
     0
 49
0.0
 74
     0
 49
-0.134
 74
     0
 49
0.0
 74
     0
 49
-0.133
 74
     0
  0
LTYPE
  5
21C
100
AcDbSymbolTableRecord
100
AcDbLinetypeTableRecord
  2
TYPE___8
 70
    64
  3
Visual CADD Translation
 72
    65
 73
     6
 40
1.0
 49
0.6
 74
     0
 49
-0.08
 74
     0
 49
0.08
 74
     0
 49
-0.08
 74
     0
 49
0.08
 74
     0
 49
-0.08
 74
     0
  0
LTYPE
  5
23D
100
AcDbSymbolTableRecord
100
AcDbLinetypeTableRecord
  2
PHANTOM
 70
    64
  3
Visual CADD Translation
 72
    65
 73
     6
 40
1.37
 49
0.99
 74
     0
 49
-0.05
 74
     0
 49
0.115
 74
     0
 49
-0.05
 74
     0
 49
0.115
 74
     0
 49
-0.05
 74
     0
  0
ENDTAB
  0
TABLE
  2
LAYER
  5
2
100
AcDbSymbolTable
 70
     8
  0
LAYER
  5
14
100
AcDbSymbolTableRecord
100
AcDbLayerTableRecord
  2
0
 70
     0
 62
     7
  6
Continuous
290
     1
370
    -3
390
1D
  0
LAYER
  5
24
100
AcDbSymbolTableRecord
100
AcDbLayerTableRecord
  2
1
 70
     0
 62
     7
  6
Continuous
290
     1
370
    -3
390
1D
  0
LAYER
  5
25
100
AcDbSymbolTableRecord
100
AcDbLayerTableRecord
  2
2
 70
     0
 62
     7
  6
Continuous
290
     1
370
    -3
390
1D
  0
LAYER
  5
26
100
AcDbSymbolTableRecord
100
AcDbLayerTableRecord
  2
3
 70
     0
 62
     7
  6
Continuous
290
     1
370
    -3
390
1D
  0
LAYER
  5
27
100
AcDbSymbolTableRecord
100
AcDbLayerTableRecord
  2
4
 70
     0
 62
     7
  6
Continuous
290
     1
370
    -3
390
1D
  0
LAYER
  5
28
100
AcDbSymbolTableRecord
100
AcDbLayerTableRecord
  2
14
 70
     0
 62
     7
  6
Continuous
290
     1
370
    -3
390
1D
  0
LAYER
  5
29
100
AcDbSymbolTableRecord
100
AcDbLayerTableRecord
  2
100
 70
     0
 62
     7
  6
Continuous
290
     1
370
    -3
390
1D
  0
LAYER
  5
27F
100
AcDbSymbolTableRecord
100
AcDbLayerTableRecord
  2
9
 70
     0
 62
     7
  6
Continuous
290
     1
370
    -3
390
1D
  0
ENDTAB
  0
TABLE
  2
STYLE
  5
3
100
AcDbSymbolTable
 70
     3
  0
STYLE
  5
17
100
AcDbSymbolTableRecord
100
AcDbTextStyleTableRecord
  2
Standard
 70
     0
 40
0.0
 41
1.0
 50
0.0
 71
     0
 42
0.0
  3
txt
  4

  0
STYLE
  5
31
100
AcDbSymbolTableRecord
100
AcDbTextStyleTableRecord
  2
Vcadd_Main
 70
     0
 40
0.0
 41
1.0
 50
0.0
 71
     0
 42
0.0
  3
Main
  4

  0
STYLE
  5
16C
100
AcDbSymbolTableRecord
100
AcDbTextStyleTableRecord
  2
Vcadd_SIMP
 70
     0
 40
0.0
 41
1.0
 50
0.0
 71
     0
 42
0.0
  3
SIMP
  4

  0
ENDTAB
  0
TABLE
  2
VIEW
  5
5
100
AcDbSymbolTable
 70
     0
  0
ENDTAB
  0
TABLE
  2
UCS
  5
6
100
AcDbSymbolTable
 70
     1
  0
UCS
  5
3A8
100
AcDbSymbolTableRecord
100
AcDbUCSTableRecord
  2
MYUCS
 70
     0
 10
0.0
 20
0.0
 30
0.0
 11
0.0
 21
1.0
 31
0.0
 12
0.0
 22
0.0
 32
1.0
 79
     0
146
0.0
  0
ENDTAB
  0
TABLE
  2
APPID
  5
8
100
AcDbSymbolTable
 70
     1
  0
APPID
  5
16
100
AcDbSymbolTableRecord
100
AcDbRegAppTableRecord
  2
ACAD
 70
     0
  0
ENDTAB
  0
TABLE
  2
DIMSTYLE
  5
9
100
AcDbSymbolTable
 70
     2
100
AcDbDimStyleTable
 71
     0
  0
DIMSTYLE
105
18
100
AcDbSymbolTableRecord
100
AcDbDimStyleTableRecord
  2
Standard
 70
     0
  3

  4

 40
1.0
 41
0.18
 42
0.0625
 43
0.38
 44
0.18
 45
0.0
 46
0.0
 47
0.0
 48
0.0
 71
     0
 72
     0
 73
     1
 74
     1
 75
     0
 76
     0
 77
     0
 78
     0
 79
     0
140
0.18
141
0.09
142
0.0
143
25.4
144
1.0
145
0.0
146
1.0
147
0.09
148
0.0
170
     0
171
     2
172
     0
173
     0
174
     0
175
     0
176
     0
177
     0
178
     0
179
     0
271
     4
272
     4
273
     2
274
     2
275
     0
276
     0
277
     2
278
    46
279
     0
280
     0
281
     0
282
     0
283
     1
284
     0
285
     0
286
     0
288
     0
289
     3
340
17
341
0
342
0
343
0
344
0
371
    -2
372
    -2
  0
DIMSTYLE
105
32
100
AcDbSymbolTableRecord
100
AcDbDimStyleTableRecord
  2
VCADD_DIMSTYLE
 70
     0
  3

  4

 40
1.0
 41
2.5
 42
0.1
 43
0.0
 44
0.1
 45
0.0
 46
0.0
 47
0.003
 48
0.002
 71
     0
 72
     0
 73
     1
 74
     1
 75
     0
 76
     0
 77
     0
 78
     3
 79
     1
140
0.1
141
0.0
142
0.0
143
1.0
144
1.0
145
0.0
146
1.0
147
0.2
148
0.0
170
     0
171
     3
172
     0
173
     0
174
     1
175
     0
176
     0
177
     0
178
     0
179
     3
271
     3
272
     4
273
     2
274
     2
275
     0
276
     0
277
     2
278
    46
279
     0
280
     0
281
     0
282
     0
283
     1
284
     0
285
     0
286
     0
288
     0
289
     3
340
31
341
0
342
0
343
0
344
0
371
    -2
372
    -2
  0
ENDTAB
  0
TABLE
  2
BLOCK_RECORD
  5
1
100
AcDbSymbolTable
 70
     6
  0
BLOCK_RECORD
  5
A
100
AcDbSymbolTableRecord
100
AcDbBlockTableRecord
  2
*MODEL_SPACE
340
20
  0
BLOCK_RECORD
  5
B
100
AcDbSymbolTableRecord
100
AcDbBlockTableRecord
  2
*PAPER_SPACE
340
21
  0
BLOCK_RECORD
  5
2A
100
AcDbSymbolTableRecord
100
AcDbBlockTableRecord
  2
_CLOSED
340
0
  0
BLOCK_RECORD
  5
1F8
100
AcDbSymbolTableRecord
100
AcDbBlockTableRecord
  2
MAU
340
0
102
{BLKREFS
331
205
331
216
102
}
  0
BLOCK_RECORD
  5
207
100
AcDbSymbolTableRecord
100
AcDbBlockTableRecord
  2
MAL
340
0
102
{BLKREFS
331
214
102
}
  0
BLOCK_RECORD
  5
27D
100
AcDbSymbolTableRecord
100
AcDbBlockTableRecord
  2
ARROW
340
0
102
{BLKREFS
331
285
331
286
331
287
331
288
331
289
331
28A
331
28B
331
28C
331
28D
331
28E
331
28F
331
290
331
291
331
292
331
293
331
294
331
295
331
296
331
299
102
}
  0
BLOCK_RECORD
  5
371
100
AcDbSymbolTableRecord
100
AcDbBlockTableRecord
  2
REV
340
0
102
{BLKREFS
331
378
102
}
  0
BLOCK_RECORD
  5
37E
100
AcDbSymbolTableRecord
100
AcDbBlockTableRecord
  2
METRIC_TOL
340
0
102
{BLKREFS
331
395
102
}
  0
ENDTAB
  0
ENDSEC
  0
SECTION
  2
BLOCKS
  0
BLOCK
  5
D
100
AcDbEntity
  8
0
390
0
100
AcDbBlockBegin
  2
*MODEL_SPACE
 70
     0
 10
0.0
 20
0.0
 30
0.0
  3
*MODEL_SPACE
  1

  0
ENDBLK
  5
E
100
AcDbEntity
  8
0
390
0
100
AcDbBlockEnd
  0
BLOCK
  5
F
100
AcDbEntity
 67
     1
  8
0
390
0
100
AcDbBlockBegin
  2
*PAPER_SPACE
 70
     0
 10
0.0
 20
0.0
 30
0.0
  3
*PAPER_SPACE
  1

  0
ENDBLK
  5
10
100
AcDbEntity
 67
     1
  8
0
390
0
100
AcDbBlockEnd
  0
BLOCK
  5
2B
100
AcDbEntity
  8
0
390
0
100
AcDbBlockBegin
  2
_CLOSED
 70
     0
 10
0.0
 20
0.0
 30
0.0
  3
_CLOSED
  1

  0
LINE
  5
2C
100
AcDbEntity
  8
0
370
    -2
390
0
  6
ByBlock
 62
     0
100
AcDbLine
 10
-1.0
 20
0.166667
 30
0.0
 11
0.0
 21
0.0
 31
0.0
  0
LINE
  5
2D
100
AcDbEntity
  8
0
370
    -2
390
0
  6
ByBlock
 62
     0
100
AcDbLine
 10
0.0
 20
0.0
 30
0.0
 11
-1.0
 21
-0.166667
 31
0.0
  0
LINE
  5
2E
100
AcDbEntity
  8
0
370
    -2
390
0
  6
ByBlock
 62
     0
100
AcDbLine
 10
-1.0
 20
0.166667
 30
0.0
 11
-1.0
 21
-0.166667
 31
0.0
  0
LINE
  5
2F
100
AcDbEntity
  8
0
370
    -2
390
0
  6
ByBlock
 62
     0
100
AcDbLine
 10
0.0
 20
0.0
 30
0.0
 11
-1.0
 21
0.0
 31
0.0
  0
ENDBLK
  5
30
100
AcDbEntity
  8
0
390
0
100
AcDbBlockEnd
  0
BLOCK
  5
1F9
100
AcDbEntity
  8
0
390
0
100
AcDbBlockBegin
  2
MAU
 70
     0
 10
0.0
 20
0.0
 30
0.0
  3
MAU
  1

  0
LINE
  5
1FA
100
AcDbEntity
  8
0
370
     0
390
0
  6
Continuous
 62
     2
100
AcDbLine
 10
0.0
 20
0.0
 30
0.0
 11
-0.024965
 21
-0.169856
 31
0.0
  0
LINE
  5
1FB
100
AcDbEntity
  8
0
370
     0
390
0
  6
Continuous
 62
     2
100
AcDbLine
 10
0.0
 20
0.0
 30
0.0
 11
0.022192
 21
-0.169856
 31
0.0
  0
LINE
  5
1FC
100
AcDbEntity
  8
0
370
     0
390
0
  6
Continuous
 62
     2
100
AcDbLine
 10
0.022192
 20
-0.169856
 30
0.0
 11
-0.024965
 21
-0.169856
 31
0.0
  0
LINE
  5
1FD
100
AcDbEntity
  8
0
370
     0
390
0
  6
Continuous
 62
     7
100
AcDbLine
 10
-0.015773
 20
-0.160825
 30
0.0
 11
0.013481
 21
-0.160825
 31
0.0
  0
LINE
  5
1FE
100
AcDbEntity
  8
0
370
     0
390
0
  6
Continuous
 62
     7
100
AcDbLine
 10
0.013481
 20
-0.160825
 30
0.0
 11
-0.000196
 21
-0.036413
 31
0.0
  0
LINE
  5
1FF
100
AcDbEntity
  8
0
370
     0
390
0
  6
Continuous
 62
     7
100
AcDbLine
 10
-0.015773
 20
-0.160825
 30
0.0
 11
-0.000196
 21
-0.036413
 31
0.0
  0
LINE
  5
200
100
AcDbEntity
  8
0
370
     0
390
0
  6
Continuous
 62
     7
100
AcDbLine
 10
-0.006656
 20
-0.149436
 30
0.0
 11
-0.000576
 21
-0.078031
 31
0.0
  0
LINE
  5
201
100
AcDbEntity
  8
0
370
     0
390
0
  6
Continuous
 62
     7
100
AcDbLine
 10
-0.006656
 20
-0.149436
 30
0.0
 11
0.005122
 21
-0.149436
 31
0.0
  0
LINE
  5
202
100
AcDbEntity
  8
0
370
     0
390
0
  6
Continuous
 62
     7
100
AcDbLine
 10
0.005122
 20
-0.149436
 30
0.0
 11
-0.000576
 21
-0.078031
 31
0.0
  0
LINE
  5
203
100
AcDbEntity
  8
0
370
     0
390
0
  6
Continuous
 62
     7
100
AcDbLine
 10
-0.000957
 20
-0.142427
 30
0.0
 11
-0.000957
 21
-0.119647
 31
0.0
  0
ENDBLK
  5
204
100
AcDbEntity
  8
0
390
0
100
AcDbBlockEnd
  0
BLOCK
  5
208
100
AcDbEntity
  8
0
390
0
100
AcDbBlockBegin
  2
MAL
 70
     0
 10
0.0
 20
0.0
 30
0.0
  3
MAL
  1

  0
LINE
  5
209
100
AcDbEntity
  8
0
370
     0
390
0
  6
Continuous
 62
     2
100
AcDbLine
 10
0.0
 20
0.0
 30
0.0
 11
0.169856
 21
0.024965
 31
0.0
  0
LINE
  5
20A
100
AcDbEntity
  8
0
370
     0
390
0
  6
Continuous
 62
     2
100
AcDbLine
 10
0.0
 20
0.0
 30
0.0
 11
0.169856
 21
-0.022192
 31
0.0
  0
LINE
  5
20B
100
AcDbEntity
  8
0
370
     0
390
0
  6
Continuous
 62
     2
100
AcDbLine
 10
0.169856
 20
-0.022192
 30
0.0
 11
0.169856
 21
0.024965
 31
0.0
  0
LINE
  5
20C
100
AcDbEntity
  8
0
370
     0
390
0
  6
Continuous
 62
     7
100
AcDbLine
 10
0.160825
 20
0.015773
 30
0.0
 11
0.160825
 21
-0.013481
 31
0.0
  0
LINE
  5
20D
100
AcDbEntity
  8
0
370
     0
390
0
  6
Continuous
 62
     7
100
AcDbLine
 10
0.160825
 20
-0.013481
 30
0.0
 11
0.036413
 21
0.000196
 31
0.0
  0
LINE
  5
20E
100
AcDbEntity
  8
0
370
     0
390
0
  6
Continuous
 62
     7
100
AcDbLine
 10
0.160825
 20
0.015773
 30
0.0
 11
0.036413
 21
0.000196
 31
0.0
  0
LINE
  5
20F
100
AcDbEntity
  8
0
370
     0
390
0
  6
Continuous
 62
     7
100
AcDbLine
 10
0.149436
 20
0.006656
 30
0.0
 11
0.078031
 21
0.000576
 31
0.0
  0
LINE
  5
210
100
AcDbEntity
  8
0
370
     0
390
0
  6
Continuous
 62
     7
100
AcDbLine
 10
0.149436
 20
0.006656
 30
0.0
 11
0.149436
 21
-0.005122
 31
0.0
  0
LINE
  5
211
100
AcDbEntity
  8
0
370
     0
390
0
  6
Continuous
 62
     7
100
AcDbLine
 10
0.149436
 20
-0.005122
 30
0.0
 11
0.078031
 21
0.000576
 31
0.0
  0
LINE
  5
212
100
AcDbEntity
  8
0
370
     0
390
0
  6
Continuous
 62
     7
100
AcDbLine
 10
0.142427
 20
0.000957
 30
0.0
 11
0.119647
 21
0.000957
 31
0.0
  0
ENDBLK
  5
213
100
AcDbEntity
  8
0
390
0
100
AcDbBlockEnd
  0
BLOCK
  5
27E
100
AcDbEntity
  8
0
390
0
100
AcDbBlockBegin
  2
ARROW
 70
     0
 10
0.0
 20
0.0
 30
0.0
  3
ARROW
  1

  0
LINE
  5
280
100
AcDbEntity
  8
9
370
     0
390
0
  6
Continuous
 62
     5
100
AcDbLine
 10
0.0
 20
0.0
 30
0.0
 11
-0.160849
 21
0.031523
 31
0.0
  0
LINE
  5
281
100
AcDbEntity
  8
9
370
     0
390
0
  6
Continuous
 62
     5
100
AcDbLine
 10
-0.160849
 20
0.031523
 30
0.0
 11
-0.160849
 21
-0.035463
 31
0.0
  0
LINE
  5
282
100
AcDbEntity
  8
9
370
     0
390
0
  6
Continuous
 62
     5
100
AcDbLine
 10
0.0
 20
0.0
 30
0.0
 11
-0.160849
 21
-0.035463
 31
0.0
  0
HATCH
  5
283
100
AcDbEntity
  8
9
370
     0
390
0
  6
Continuous
 62
     5
100
AcDbHatch
 10
0.0
 20
0.0
 30
0.0
210
0.0
220
0.0
230
1.0
  2
SOLID
 70
     1
 71
     0
 91
        1
 92
        1
 93
        3
 72
     1
 10
0.0
 20
0.0
 11
-0.1608486175537109
 21
0.0315227508544922
 72
     1
 10
-0.1608486175537109
 20
0.0315227508544922
 11
-0.1608486175537109
 21
-0.0354633331298828
 72
     1
 10
-0.1608486175537109
 20
-0.0354633331298828
 11
0.0
 21
0.0
 97
        0
 75
     0
 76
     1
 98
        1
 10
0.0
 20
0.0
  0
ENDBLK
  5
284
100
AcDbEntity
  8
0
390
0
100
AcDbBlockEnd
  0
BLOCK
  5
372
100
AcDbEntity
  8
0
390
0
100
AcDbBlockBegin
  2
REV
 70
     0
 10
0.0
 20
0.0
 30
0.0
  3
REV
  1

  0
TEXT
  5
373
100
AcDbEntity
  8
4
370
     0
390
0
  6
Continuous
 62
     7
100
AcDbText
 10
0.024755
 20
0.020219
 30
0.0
 40
0.035
  1
---
  7
Vcadd_SIMP
100
AcDbText
  0
TEXT
  5
374
100
AcDbEntity
  8
4
370
     0
390
0
  6
Continuous
 62
     7
100
AcDbText
 10
0.143589
 20
0.026049
 30
0.0
 40
0.035
  1
ADDED PAGE 3 OF 3
 41
0.9
  7
Vcadd_SIMP
100
AcDbText
  0
TEXT
  5
375
100
AcDbEntity
  8
4
370
     0
390
0
  6
Continuous
 62
     7
100
AcDbText
 10
1.578146
 20
0.020219
 30
0.0
 40
0.035
  1
RJB
  7
Vcadd_SIMP
100
AcDbText
  0
TEXT
  5
376
100
AcDbEntity
  8
4
370
     0
390
0
  6
Continuous
 62
     7
100
AcDbText
 10
1.31724
 20
0.020219
 30
0.0
 40
0.035
  1
30DEC02
  7
Vcadd_SIMP
100
AcDbText
  0
ENDBLK
  5
377
100
AcDbEntity
  8
0
390
0
100
AcDbBlockEnd
  0
BLOCK
  5
37F
100
AcDbEntity
  8
0
390
0
100
AcDbBlockBegin
  2
METRIC_TOL
 70
     0
 10
0.0
 20
0.0
 30
0.0
  3
METRIC_TOL
  1

  0
TEXT
  5
380
100
AcDbEntity
  8
0
370
     0
390
0
  6
Continuous
 62
     7
100
AcDbText
 10
-0.831272
 20
-0.141553
 30
0.0
 40
0.062
  1
REMOVE ALL
 50
270.0
 41
1.25
  7
Vcadd_SIMP
100
AcDbText
  0
TEXT
  5
381
100
AcDbEntity
  8
0
370
     0
390
0
  6
Continuous
 62
     7
100
AcDbText
 10
-0.93572
 20
-0.305461
 30
0.0
 40
0.062
  1
BURRS
 50
270.0
 41
1.25
  7
Vcadd_SIMP
100
AcDbText
  0
TEXT
  5
382
100
AcDbEntity
  8
0
370
     0
390
0
  6
Continuous
 62
     7
100
AcDbText
 10
-0.598068
 20
-0.501283
 30
0.0
 40
0.055
  1
DIM. TOLERANCE
 50
270.0
 41
1.1725
  7
Vcadd_SIMP
 72
     1
 11
-0.078944
 21
-0.501283
 31
0.0
100
AcDbText
  0
TEXT
  5
383
100
AcDbEntity
  8
0
370
     0
390
0
  6
Continuous
 62
     7
100
AcDbText
 10
-0.558327
 20
-0.501283
 30
0.0
 40
0.055
  1
+\- 0,13 mm
 50
270.0
 41
1.1725
  7
Vcadd_SIMP
 72
     1
 11
-0.150444
 21
-0.501283
 31
0.0
100
AcDbText
  0
TEXT
  5
384
100
AcDbEntity
  8
0
370
     0
390
0
  6
Continuous
 62
     7
100
AcDbText
 10
-0.444426
 20
-0.501283
 30
0.0
 40
0.055
  1
UNLESS
 50
270.0
 41
1.1725
  7
Vcadd_SIMP
 72
     1
 11
-0.221944
 21
-0.501283
 31
0.0
100
AcDbText
  0
TEXT
  5
385
100
AcDbEntity
  8
0
370
     0
390
0
  6
Continuous
 62
     7
100
AcDbText
 10
-0.627166
 20
-0.501283
 30
0.0
 40
0.055
  1
SPECIFIED
 50
270.0
 41
1.1725
  7
Vcadd_SIMP
 72
     1
 11
-0.293444
 21
-0.501283
 31
0.0
100
AcDbText
  0
LINE
  5
386
100
AcDbEntity
  8
0
370
     0
390
0
  6
Continuous
 62
     7
100
AcDbLine
 10
-0.437408
 20
-0.783706
 30
0.0
 11
-0.437408
 21
-0.836281
 31
0.0
  0
LINE
  5
387
100
AcDbEntity
  8
0
370
     0
390
0
  6
Continuous
 62
     7
100
AcDbLine
 10
-0.402232
 20
-0.783706
 30
0.0
 11
-0.402232
 21
-0.836281
 31
0.0
  0
LINE
  5
388
100
AcDbEntity
  8
0
370
     0
390
0
  6
Continuous
 62
     7
100
AcDbLine
 10
-0.386598
 20
-0.809994
 30
0.0
 11
-0.417865
 21
-0.809994
 31
0.0
  0
LINE
  5
389
100
AcDbEntity
  8
0
370
     0
390
0
  6
Continuous
 62
     7
100
AcDbLine
 10
-0.370965
 20
-0.930164
 30
0.0
 11
-0.437408
 21
-0.885099
 31
0.0
  0
TEXT
  5
38A
100
AcDbEntity
  8
0
370
     0
390
0
  6
Continuous
 62
     7
100
AcDbText
 10
-0.437875
 20
-0.068704
 30
0.0
 40
0.062
  1
ANGLE TOL
 50
270.0
 41
1.25
  7
Vcadd_SIMP
100
AcDbText
  0
TEXT
  5
38B
100
AcDbEntity
  8
0
370
     0
390
0
  6
Continuous
 62
     7
100
AcDbText
 10
-0.402232
 20
-0.873835
 30
0.0
 40
0.031961
  1
1 
 50
270.0
 41
1.25
  7
Vcadd_SIMP
100
AcDbText
  0
TEXT
  5
38C
100
AcDbEntity
  8
0
370
     0
390
0
  6
Continuous
 62
     7
100
AcDbText
 10
-0.442184
 20
-0.913786
 30
0.0
 40
0.031961
  1
2
 50
270.0
 41
1.25
  7
Vcadd_SIMP
100
AcDbText
  0
LINE
  5
38D
100
AcDbEntity
  8
0
370
    15
390
0
  6
Continuous
 62
     7
100
AcDbLine
 10
-0.505208
 20
-0.810778
 30
0.0
 11
-0.499383
 21
-0.821351
 31
0.0
  0
LINE
  5
38E
100
AcDbEntity
  8
0
370
    15
390
0
  6
Continuous
 62
     7
100
AcDbLine
 10
-0.499383
 20
-0.821351
 30
0.0
 11
-0.540808
 21
-0.854313
 31
0.0
  0
LINE
  5
38F
100
AcDbEntity
  8
0
370
    15
390
0
  6
Continuous
 62
     7
100
AcDbLine
 10
-0.540808
 20
-0.854313
 30
0.0
 11
-0.479964
 21
-0.920238
 31
0.0
  0
TEXT
  5
390
100
AcDbEntity
  8
0
370
     0
390
0
  6
Continuous
 62
     7
100
AcDbText
 10
-0.541989
 20
-0.101485
 30
0.0
 40
0.062
  1
FINISH
 50
270.0
 41
1.25
  7
Vcadd_SIMP
100
AcDbText
  0
TEXT
  5
391
100
AcDbEntity
  8
0
370
     0
390
0
  6
Continuous
 62
     7
100
AcDbText
 10
-0.896829
 20
-0.504694
 30
0.0
 40
0.062
  1
UNLESS
 50
270.0
 41
1.25
  7
Vcadd_SIMP
 72
     1
 11
-0.629454
 21
-0.504694
 31
0.0
100
AcDbText
  0
TEXT
  5
392
100
AcDbEntity
  8
0
370
     0
390
0
  6
Continuous
 62
     7
100
AcDbText
 10
-1.111116
 20
-0.504694
 30
0.0
 40
0.062
  1
SPECIFIED
 50
270.0
 41
1.25
  7
Vcadd_SIMP
 72
     1
 11
-0.710054
 21
-0.504694
 31
0.0
100
AcDbText
  0
TEXT
  5
393
100
AcDbEntity
  8
0
370
     0
390
0
  6
Continuous
 62
     7
100
AcDbText
 10
-0.541989
 20
-0.629662
 30
0.0
 40
0.062
  1
2,0
 50
270.0
 41
1.25
  7
Vcadd_SIMP
100
AcDbText
  0
ENDBLK
  5
394
100
AcDbEntity
  8
0
390
0
100
AcDbBlockEnd
  0
ENDSEC
  0
SECTION
  2
ENTITIES
  0
VIEWPORT
  5
33
100
AcDbEntity
 67
     1
  8
0
390
0
  6
Continuous
 62
     0
100
AcDbViewport
 10
4.5
 20
3.259162
 30
0.0
 40
12.857143
 41
9.311892
 68
     1
 69
     1
 12
762.9316
 22
546.5183
 13
1169.457242
 23
377.488
 14
0.5
 24
0.5
 15
12.0
 25
12.0
 16
0.0
 26
0.0
 36
1.0
 17
0.0
 27
0.0
 37
0.0
 42
50.0
 43
-55.0
 44
-55.0
 45
1084.5
 50
0.0
 51
0.0
 72
   500
 90
        0
340
0
  1

281
     0
 71
     1
 74
     0
110
0.0
120
0.0
130
0.0
111
1.0
121
0.0
131
0.0
112
0.0
122
1.0
132
0.0
345
0
346
0
 79
     0
146
0.0
  0
LINE
  5
34
100
AcDbEntity
  8
0
370
    15
390
0
  6
Continuous
 62
     6
100
AcDbLine
 10
29.193587
 20
27.099829
 30
0.0
 11
29.193587
 21
11.096123
 31
0.0
  0
LINE
  5
35
100
AcDbEntity
  8
0
370
    15
390
0
  6
Continuous
 62
     6
100
AcDbLine
 10
19.188426
 20
11.096123
 30
0.0
 11
19.188426
 21
27.099829
 31
0.0
  0
LINE
  5
36
100
AcDbEntity
  8
0
370
    15
390
0
  6
Continuous
 62
     6
100
AcDbLine
 10
29.193587
 20
11.096123
 30
0.0
 11
19.188426
 21
11.096123
 31
0.0
  0
LINE
  5
37
100
AcDbEntity
  8
0
370
    15
390
0
  6
Continuous
 62
     6
100
AcDbLine
 10
29.193587
 20
27.099829
 30
0.0
 11
19.188426
 21
27.099829
 31
0.0
  0
LINE
  5
38
100
AcDbEntity
  8
0
370
    15
390
0
  6
Continuous
 62
     2
100
AcDbLine
 10
20.563426
 20
11.096123
 30
0.0
 11
20.563426
 21
21.721123
 31
0.0
  0
LINE
  5
39
100
AcDbEntity
  8
0
370
    15
390
0
  6
Continuous
 62
     2
100
AcDbLine
 10
20.563426
 20
21.721123
 30
0.0
 11
19.188426
 21
21.721123
 31
0.0
  0
LINE
  5
3A
100
AcDbEntity
  8
0
370
    15
390
0
  6
Continuous
 62
     7
100
AcDbLine
 10
20.563426
 20
13.846123
 30
0.0
 11
19.188426
 21
13.846123
 31
0.0
  0
LINE
  5
3B
100
AcDbEntity
  8
0
370
    15
390
0
  6
Continuous
 62
     7
100
AcDbLine
 10
20.563426
 20
16.846123
 30
0.0
 11
19.188426
 21
16.846123
 31
0.0
  0
LINE
  5
3C
100
AcDbEntity
  8
0
370
    15
390
0
  6
Continuous
 62
     7
100
AcDbLine
 10
20.563426
 20
17.846123
 30
0.0
 11
19.188426
 21
17.846123
 31
0.0
  0
LINE
  5
3D
100
AcDbEntity
  8
0
370
    15
390
0
  6
Continuous
 62
     7
100
AcDbLine
 10
19.344424
 20
21.721123
 30
0.0
 11
19.344424
 21
17.846123
 31
0.0
  0
LINE
  5
3E
100
AcDbEntity
  8
0
370
    15
390
0
  6
Continuous
 62
     7
100
AcDbLine
 10
19.500426
 20
21.471123
 30
0.0
 11
19.500426
 21
19.096123
 31
0.0
  0
LINE
  5
3F
100
AcDbEntity
  8
0
370
    15
390
0
  6
Continuous
 62
     7
100
AcDbLine
 10
20.188426
 20
16.846123
 30
0.0
 11
20.188426
 21
17.846123
 31
0.0
  0
LINE
  5
40
100
AcDbEntity
  8
0
370
    15
390
0
  6
Continuous
 62
     7
100
AcDbLine
 10
19.469424
 20
16.846123
 30
0.0
 11
19.469424
 21
15.221123
 31
0.0
  0
LINE
  5
41
100
AcDbEntity
  8
0
370
    15
390
0
  6
Continuous
 62
     7
100
AcDbLine
 10
19.750426
 20
16.846123
 30
0.0
 11
19.750426
 21
15.221123
 31
0.0
  0
LINE
  5
42
100
AcDbEntity
  8
0
370
    15
390
0
  6
Continuous
 62
     7
100
AcDbLine
 10
19.750426
 20
15.221123
 30
0.0
 11
19.750426
 21
13.846123
 31
0.0
  0
LINE
  5
43
100
AcDbEntity
  8
0
370
    15
390
0
  6
Continuous
 62
     7
100
AcDbLine
 10
20.125426
 20
16.846123
 30
0.0
 11
20.125426
 21
13.846123
 31
0.0
  0
LINE
  5
44
100
AcDbEntity
  8
0
370
    15
390
0
  6
Continuous
 62
     7
100
AcDbLine
 10
19.750426
 20
15.221122
 30
0.0
 11
19.188426
 21
15.221123
 31
0.0
  0
LINE
  5
45
100
AcDbEntity
  8
0
370
    15
390
0
  6
Continuous
 62
     7
100
AcDbLine
 10
19.750426
 20
15.221122
 30
0.0
 11
20.125426
 21
15.221122
 31
0.0
  0
LINE
  5
46
100
AcDbEntity
  8
0
370
    15
390
0
  6
Continuous
 62
     7
100
AcDbLine
 10
20.125426
 20
16.471123
 30
0.0
 11
19.750426
 21
16.471123
 31
0.0
  0
LINE
  5
47
100
AcDbEntity
  8
0
370
    15
390
0
  6
Continuous
 62
     7
100
AcDbLine
 10
19.188426
 20
16.304123
 30
0.0
 11
19.469424
 21
16.304123
 31
0.0
  0
LINE
  5
48
100
AcDbEntity
  8
0
370
    15
390
0
  6
Continuous
 62
     7
100
AcDbLine
 10
19.188426
 20
15.762123
 30
0.0
 11
19.469424
 21
15.762123
 31
0.0
  0
LINE
  5
49
100
AcDbEntity
  8
0
370
    15
390
0
  6
Continuous
 62
     7
100
AcDbLine
 10
19.469424
 20
15.762123
 30
0.0
 11
19.750426
 21
15.762123
 31
0.0
  0
LINE
  5
4A
100
AcDbEntity
  8
0
370
    15
390
0
  6
Continuous
 62
     7
100
AcDbLine
 10
19.469424
 20
16.304123
 30
0.0
 11
19.750426
 21
16.304123
 31
0.0
  0
LINE
  5
4B
100
AcDbEntity
  8
0
370
    15
390
0
  6
Continuous
 62
     7
100
AcDbLine
 10
20.125426
 20
13.846123
 30
0.0
 11
20.125426
 21
11.096123
 31
0.0
  0
LINE
  5
4C
100
AcDbEntity
  8
0
370
    15
390
0
  6
Continuous
 62
     7
100
AcDbLine
 10
20.563426
 20
13.284123
 30
0.0
 11
20.125426
 21
13.284123
 31
0.0
  0
LINE
  5
4D
100
AcDbEntity
  8
0
370
    15
390
0
  6
Continuous
 62
     7
100
AcDbLine
 10
28.818587
 20
13.846123
 30
0.0
 11
28.818587
 21
11.096123
 31
0.0
  0
LINE
  5
4E
100
AcDbEntity
  8
0
370
    15
390
0
  6
Continuous
 62
     7
100
AcDbLine
 10
28.818587
 20
13.284123
 30
0.0
 11
29.190776
 21
13.284123
 31
0.0
  0
LINE
  5
4F
100
AcDbEntity
  8
0
370
    15
390
0
  6
Continuous
 62
     7
100
AcDbLine
 10
28.818587
 20
13.846123
 30
0.0
 11
29.193587
 21
13.846123
 31
0.0
  0
LINE
  5
50
100
AcDbEntity
  8
0
370
    15
390
0
  6
Continuous
 62
     7
100
AcDbLine
 10
19.486094
 20
14.712322
 30
0.0
 11
19.362364
 21
14.42482
 31
0.0
  0
ARC
  5
51
100
AcDbEntity
  8
0
370
    15
390
0
  6
Continuous
 62
     7
100
AcDbCircle
 10
19.662587
 20
14.295616
 30
0.0
 40
0.326842
100
AcDbArc
 50
156.690314
 51
236.832416
  0
ARC
  5
52
100
AcDbEntity
  8
0
370
    15
390
0
  6
Continuous
 62
     7
100
AcDbCircle
 10
19.177192
 20
14.814924
 30
0.0
 40
0.325497
100
AcDbArc
 50
341.621816
 51
418.31416
  0
LINE
  5
53
100
AcDbEntity
  8
0
370
    15
390
0
  6
Continuous
 62
     7
100
AcDbLine
 10
19.483351
 20
14.584819
 30
0.0
 11
19.388659
 21
14.634198
 31
0.0
  0
LINE
  5
54
100
AcDbEntity
  8
0
370
    15
390
0
  6
Continuous
 62
     7
100
AcDbLine
 10
19.455939
 20
14.525955
 30
0.0
 11
19.364829
 21
14.577319
 31
0.0
  0
LINE
  5
55
100
AcDbEntity
  8
4
370
    15
390
0
  6
Continuous
 62
     7
100
AcDbLine
 10
20.563426
 20
11.096123
 30
0.0
 11
20.563426
 21
11.096123
 31
0.0
  0
LINE
  5
56
100
AcDbEntity
  8
0
370
    15
390
0
  6
Continuous
 62
     7
100
AcDbLine
 10
20.563426
 20
18.096123
 30
0.0
 11
19.188426
 21
18.096123
 31
0.0
  0
LINE
  5
57
100
AcDbEntity
  8
0
370
    15
390
0
  6
Continuous
 62
     7
100
AcDbLine
 10
20.563426
 20
18.346123
 30
0.0
 11
19.188426
 21
18.346123
 31
0.0
  0
LINE
  5
58
100
AcDbEntity
  8
0
370
    15
390
0
  6
Continuous
 62
     7
100
AcDbLine
 10
20.563426
 20
18.596123
 30
0.0
 11
19.188426
 21
18.596123
 31
0.0
  0
LINE
  5
59
100
AcDbEntity
  8
0
370
    15
390
0
  6
Continuous
 62
     7
100
AcDbLine
 10
20.563426
 20
19.096123
 30
0.0
 11
19.188426
 21
19.096123
 31
0.0
  0
LINE
  5
5A
100
AcDbEntity
  8
0
370
    15
390
0
  6
Continuous
 62
     7
100
AcDbLine
 10
20.563426
 20
21.471123
 30
0.0
 11
19.188426
 21
21.471123
 31
0.0
  0
LINE
  5
5B
100
AcDbEntity
  8
2
370
    15
390
0
  6
Continuous
 62
     7
100
AcDbLine
 10
26.240897
 20
22.862688
 30
0.0
 11
26.051856
 21
22.971827
 31
0.0
  0
ARC
  5
5C
100
AcDbEntity
  8
2
370
    15
390
0
  6
Continuous
 62
     7
100
AcDbCircle
 10
25.916136
 20
22.434069
 30
0.0
 40
0.537758
100
AcDbArc
 50
52.849144
 51
127.150856
  0
LINE
  5
5D
100
AcDbEntity
  8
2
370
    15
390
0
  6
Continuous
 62
     7
100
AcDbLine
 10
26.240897
 20
21.954964
 30
0.0
 11
26.051856
 21
21.845826
 31
0.0
  0
ARC
  5
5E
100
AcDbEntity
  8
2
370
    15
390
0
  6
Continuous
 62
     7
100
AcDbCircle
 10
25.916136
 20
22.383583
 30
0.0
 40
0.537758
100
AcDbArc
 50
232.849144
 51
307.150856
  0
LINE
  5
5F
100
AcDbEntity
  8
2
370
    15
390
0
  6
Continuous
 62
     7
100
AcDbLine
 10
25.591376
 20
22.862688
 30
0.0
 11
25.591376
 21
21.954964
 31
0.0
  0
LINE
  5
60
100
AcDbEntity
  8
2
370
    15
390
0
  6
Continuous
 62
     7
100
AcDbLine
 10
26.240897
 20
22.862688
 30
0.0
 11
26.240897
 21
21.954964
 31
0.0
  0
LINE
  5
61
100
AcDbEntity
  8
2
370
    15
390
0
  6
Continuous
 62
     7
100
AcDbLine
 10
26.017859
 20
21.845826
 30
0.0
 11
26.017859
 21
21.469822
 31
0.0
  0
LINE
  5
62
100
AcDbEntity
  8
2
370
    15
390
0
  6
Continuous
 62
     7
100
AcDbLine
 10
25.907859
 20
21.469822
 30
0.0
 11
25.907859
 21
21.188824
 31
0.0
  0
LINE
  5
63
100
AcDbEntity
  8
2
370
    15
390
0
  6
Continuous
 62
     7
100
AcDbLine
 10
25.857859
 20
21.055825
 30
0.0
 11
25.857859
 21
20.391823
 31
0.0
  0
LINE
  5
64
100
AcDbEntity
  8
2
370
    15
390
0
  6
Continuous
 62
     7
100
AcDbLine
 10
26.017859
 20
21.098694
 30
0.0
 11
25.857859
 21
21.055825
 31
0.0
  0
LINE
  5
65
100
AcDbEntity
  8
2
370
    15
390
0
  6
Continuous
 62
     7
100
AcDbLine
 10
26.017859
 20
21.188824
 30
0.0
 11
26.017859
 21
21.098694
 31
0.0
  0
LINE
  5
66
100
AcDbEntity
  8
2
370
    15
390
0
  6
Continuous
 62
     7
100
AcDbLine
 10
26.017859
 20
20.34895
 30
0.0
 11
25.857859
 21
20.391823
 31
0.0
  0
LINE
  5
67
100
AcDbEntity
  8
2
370
    15
390
0
  6
Continuous
 62
     7
100
AcDbLine
 10
26.017859
 20
20.34895
 30
0.0
 11
26.017859
 21
20.219822
 31
0.0
  0
LINE
  5
68
100
AcDbEntity
  8
2
370
    15
390
0
  6
Continuous
 62
     7
100
AcDbLine
 10
25.969859
 20
20.219822
 30
0.0
 11
25.969859
 21
20.125824
 31
0.0
  0
LINE
  5
69
100
AcDbEntity
  8
2
370
    15
390
0
  6
Continuous
 62
     7
100
AcDbLine
 10
25.857859
 20
20.125824
 30
0.0
 11
25.857859
 21
19.875824
 31
0.0
  0
LINE
  5
6A
100
AcDbEntity
  8
2
370
    15
390
0
  6
Continuous
 62
     7
100
AcDbLine
 10
25.941859
 20
19.827326
 30
0.0
 11
25.857859
 21
19.875824
 31
0.0
  0
LINE
  5
6B
100
AcDbEntity
  8
2
370
    15
390
0
  6
Continuous
 62
     7
100
AcDbLine
 10
25.941859
 20
19.267822
 30
0.0
 11
25.843859
 21
19.169823
 31
0.0
  0
LINE
  5
6C
100
AcDbEntity
  8
2
370
    15
390
0
  6
Continuous
 62
     7
100
AcDbLine
 10
25.941859
 20
19.827326
 30
0.0
 11
25.941859
 21
19.267822
 31
0.0
  0
LINE
  5
6E
100
AcDbEntity
  8
2
370
    15
390
0
  6
CL____X1
 62
     7
100
AcDbLine
 10
25.889861
 20
19.215822
 30
0.0
 11
25.889861
 21
19.85735
 31
0.0
  0
LINE
  5
6F
100
AcDbEntity
  8
2
370
    15
390
0
  6
Continuous
 62
     7
100
AcDbLine
 10
25.843859
 20
19.169823
 30
0.0
 11
25.843859
 21
19.001824
 31
0.0
  0
LINE
  5
70
100
AcDbEntity
  8
2
370
    15
390
0
  6
Continuous
 62
     7
100
AcDbLine
 10
25.811862
 20
18.969822
 30
0.0
 11
25.843859
 21
19.001824
 31
0.0
  0
LINE
  5
71
100
AcDbEntity
  8
2
370
    15
390
0
  6
Continuous
 62
     7
100
AcDbLine
 10
25.81436
 20
17.584824
 30
0.0
 11
25.81436
 21
17.469822
 31
0.0
  0
LINE
  5
72
100
AcDbEntity
  8
2
370
    15
390
0
  6
Continuous
 62
     7
100
AcDbLine
 10
25.81436
 20
17.979824
 30
0.0
 11
25.81436
 21
18.093823
 31
0.0
  0
LINE
  5
73
100
AcDbEntity
  8
2
370
    15
390
0
  6
Continuous
 62
     7
100
AcDbLine
 10
25.705859
 20
17.584824
 30
0.0
 11
25.705859
 21
17.979824
 31
0.0
  0
LINE
  5
74
100
AcDbEntity
  8
2
370
    15
390
0
  6
Continuous
 62
     7
100
AcDbLine
 10
24.941859
 20
18.323445
 30
0.0
 11
24.941859
 21
18.487461
 31
0.0
  0
LINE
  5
75
100
AcDbEntity
  8
2
370
    15
390
0
  6
Continuous
 62
     7
100
AcDbLine
 10
25.119036
 20
18.407822
 30
0.0
 11
25.246485
 21
18.407822
 31
0.0
  0
ARC
  5
76
100
AcDbEntity
  8
2
370
    15
390
0
  6
Continuous
 62
     7
100
AcDbCircle
 10
26.418024
 20
18.407822
 30
0.0
 40
0.769412
100
AcDbArc
 50
161.039064
 51
198.960936
  0
LINE
  5
77
100
AcDbEntity
  8
2
370
    15
390
0
  6
Continuous
 62
     7
100
AcDbLine
 10
25.69036
 20
18.157826
 30
0.0
 11
25.69036
 21
18.093823
 31
0.0
  0
LINE
  5
78
100
AcDbEntity
  8
2
370
    15
390
0
  6
Continuous
 62
     7
100
AcDbLine
 10
25.69036
 20
18.969822
 30
0.0
 11
25.69036
 21
18.657814
 31
0.0
  0
LINE
  5
79
100
AcDbEntity
  8
2
370
    15
390
0
  6
Continuous
 62
     7
100
AcDbLine
 10
25.705859
 20
17.614376
 30
0.0
 11
25.811862
 21
17.614376
 31
0.0
  0
LINE
  5
7A
100
AcDbEntity
  8
2
370
    15
390
0
  6
Continuous
 62
     7
100
AcDbLine
 10
25.811862
 20
17.614376
 30
0.0
 11
25.811862
 21
17.692376
 31
0.0
  0
ARC
  5
7B
100
AcDbEntity
  8
2
370
    15
390
0
  6
Continuous
 62
     7
100
AcDbCircle
 10
25.791863
 20
17.692377
 30
0.0
 40
0.019999
100
AcDbArc
 50
359.994809
 51
450.016118
  0
ARC
  5
7C
100
AcDbEntity
  8
2
370
    15
390
0
  6
Continuous
 62
     7
100
AcDbCircle
 10
25.725858
 20
17.692377
 30
0.0
 40
0.019999
100
AcDbArc
 50
89.994807
 51
180.005193
  0
LINE
  5
7D
100
AcDbEntity
  8
2
370
    15
390
0
  6
Continuous
 62
     7
100
AcDbLine
 10
25.705859
 20
17.614376
 30
0.0
 11
25.705859
 21
17.692376
 31
0.0
  0
ARC
  5
7E
100
AcDbEntity
  8
2
370
    15
390
0
  6
Continuous
 62
     7
100
AcDbCircle
 10
25.758858
 20
17.77644
 30
0.0
 40
0.072063
100
AcDbArc
 50
242.747148
 51
297.252852
  0
LINE
  5
7F
100
AcDbEntity
  8
2
370
    15
390
0
  6
Continuous
 62
     7
100
AcDbLine
 10
25.705859
 20
17.945362
 30
0.0
 11
25.811862
 21
17.945362
 31
0.0
  0
LINE
  5
80
100
AcDbEntity
  8
2
370
    15
390
0
  6
Continuous
 62
     7
100
AcDbLine
 10
25.811862
 20
17.945362
 30
0.0
 11
25.811862
 21
17.867363
 31
0.0
  0
ARC
  5
81
100
AcDbEntity
  8
2
370
    15
390
0
  6
Continuous
 62
     7
100
AcDbCircle
 10
25.791863
 20
17.867362
 30
0.0
 40
0.019999
100
AcDbArc
 50
269.983882
 51
360.005191
  0
ARC
  5
82
100
AcDbEntity
  8
2
370
    15
390
0
  6
Continuous
 62
     7
100
AcDbCircle
 10
25.725858
 20
17.867362
 30
0.0
 40
0.019999
100
AcDbArc
 50
179.994807
 51
270.005193
  0
LINE
  5
83
100
AcDbEntity
  8
2
370
    15
390
0
  6
Continuous
 62
     7
100
AcDbLine
 10
25.705859
 20
17.945362
 30
0.0
 11
25.705859
 21
17.867363
 31
0.0
  0
ARC
  5
84
100
AcDbEntity
  8
2
370
    15
390
0
  6
Continuous
 62
     7
100
AcDbCircle
 10
25.758858
 20
17.783299
 30
0.0
 40
0.072063
100
AcDbArc
 50
62.747148
 51
117.252852
  0
LINE
  5
85
100
AcDbEntity
  8
2
370
    15
390
0
  6
Continuous
 62
     7
100
AcDbLine
 10
25.857859
 20
19.881897
 30
0.0
 11
25.963858
 21
19.881897
 31
0.0
  0
LINE
  5
86
100
AcDbEntity
  8
2
370
    15
390
0
  6
Continuous
 62
     7
100
AcDbLine
 10
25.963858
 20
19.881897
 30
0.0
 11
25.963858
 21
19.959896
 31
0.0
  0
ARC
  5
87
100
AcDbEntity
  8
2
370
    15
390
0
  6
Continuous
 62
     7
100
AcDbCircle
 10
25.943866
 20
19.959905
 30
0.0
 40
0.019992
100
AcDbArc
 50
359.976155
 51
450.023845
  0
ARC
  5
88
100
AcDbEntity
  8
2
370
    15
390
0
  6
Continuous
 62
     7
100
AcDbCircle
 10
25.877858
 20
19.959898
 30
0.0
 40
0.019999
100
AcDbArc
 50
89.994807
 51
180.005193
  0
LINE
  5
89
100
AcDbEntity
  8
2
370
    15
390
0
  6
Continuous
 62
     7
100
AcDbLine
 10
25.857859
 20
19.881897
 30
0.0
 11
25.857859
 21
19.959896
 31
0.0
  0
ARC
  5
8A
100
AcDbEntity
  8
2
370
    15
390
0
  6
Continuous
 62
     7
100
AcDbCircle
 10
25.910859
 20
20.043961
 30
0.0
 40
0.072063
100
AcDbArc
 50
242.747148
 51
297.252852
  0
LINE
  5
8B
100
AcDbEntity
  8
2
370
    15
390
0
  6
Continuous
 62
     7
100
AcDbLine
 10
25.907859
 20
21.446703
 30
0.0
 11
26.013858
 21
21.446703
 31
0.0
  0
LINE
  5
8C
100
AcDbEntity
  8
2
370
    15
390
0
  6
Continuous
 62
     7
100
AcDbLine
 10
26.013858
 20
21.446703
 30
0.0
 11
26.013858
 21
21.368704
 31
0.0
  0
ARC
  5
8D
100
AcDbEntity
  8
2
370
    15
390
0
  6
Continuous
 62
     7
100
AcDbCircle
 10
25.993865
 20
21.368696
 30
0.0
 40
0.019992
100
AcDbArc
 50
269.976155
 51
360.023845
  0
ARC
  5
8E
100
AcDbEntity
  8
2
370
    15
390
0
  6
Continuous
 62
     7
100
AcDbCircle
 10
25.927857
 20
21.368702
 30
0.0
 40
0.019999
100
AcDbArc
 50
179.994807
 51
270.005193
  0
LINE
  5
8F
100
AcDbEntity
  8
2
370
    15
390
0
  6
Continuous
 62
     7
100
AcDbLine
 10
25.907859
 20
21.446703
 30
0.0
 11
25.907859
 21
21.368704
 31
0.0
  0
ARC
  5
90
100
AcDbEntity
  8
2
370
    15
390
0
  6
Continuous
 62
     7
100
AcDbCircle
 10
25.960858
 20
21.28464
 30
0.0
 40
0.072063
100
AcDbArc
 50
62.747148
 51
117.252852
  0
LINE
  5
91
100
AcDbEntity
  8
2
370
    15
390
0
  6
Continuous
 62
     7
100
AcDbLine
 10
24.941859
 20
17.469822
 30
0.0
 11
25.81436
 21
17.469822
 31
0.0
  0
LINE
  5
92
100
AcDbEntity
  8
2
370
    15
390
0
  6
Continuous
 62
     7
100
AcDbLine
 10
24.941859
 20
17.584824
 30
0.0
 11
25.81436
 21
17.584824
 31
0.0
  0
LINE
  5
93
100
AcDbEntity
  8
2
370
    15
390
0
  6
Continuous
 62
     7
100
AcDbLine
 10
24.941859
 20
17.979824
 30
0.0
 11
25.81436
 21
17.979824
 31
0.0
  0
LINE
  5
94
100
AcDbEntity
  8
2
370
    15
390
0
  6
Continuous
 62
     7
100
AcDbLine
 10
24.941859
 20
18.093823
 30
0.0
 11
25.81436
 21
18.093823
 31
0.0
  0
LINE
  5
95
100
AcDbEntity
  8
2
370
    15
390
0
  6
Continuous
 62
     7
100
AcDbLine
 10
24.941859
 20
18.969822
 30
0.0
 11
25.811862
 21
18.969822
 31
0.0
  0
LINE
  5
96
100
AcDbEntity
  8
2
370
    15
390
0
  6
Continuous
 62
     7
100
AcDbLine
 10
24.941859
 20
19.169823
 30
0.0
 11
25.843859
 21
19.169823
 31
0.0
  0
LINE
  5
97
100
AcDbEntity
  8
2
370
    15
390
0
  6
Continuous
 62
     7
100
AcDbLine
 10
24.941859
 20
19.267822
 30
0.0
 11
25.941859
 21
19.267822
 31
0.0
  0
LINE
  5
98
100
AcDbEntity
  8
2
370
    15
390
0
  6
Continuous
 62
     7
100
AcDbLine
 10
24.941859
 20
19.827326
 30
0.0
 11
25.941859
 21
19.827326
 31
0.0
  0
LINE
  5
99
100
AcDbEntity
  8
2
370
    15
390
0
  6
Continuous
 62
     7
100
AcDbLine
 10
24.941859
 20
19.875824
 30
0.0
 11
25.857859
 21
19.875824
 31
0.0
  0
LINE
  5
9A
100
AcDbEntity
  8
2
370
    15
390
0
  6
Continuous
 62
     7
100
AcDbLine
 10
24.941859
 20
20.125824
 30
0.0
 11
25.969859
 21
20.125824
 31
0.0
  0
LINE
  5
9B
100
AcDbEntity
  8
2
370
    15
390
0
  6
Continuous
 62
     7
100
AcDbLine
 10
24.941859
 20
18.407822
 30
0.0
 11
25.026236
 21
18.407822
 31
0.0
  0
LINE
  5
9C
100
AcDbEntity
  8
2
370
    15
390
0
  6
Continuous
 62
     7
100
AcDbLine
 10
24.941859
 20
21.098694
 30
0.0
 11
26.017859
 21
21.098694
 31
0.0
  0
LINE
  5
9D
100
AcDbEntity
  8
2
370
    15
390
0
  6
Continuous
 62
     7
100
AcDbLine
 10
24.941859
 20
21.188824
 30
0.0
 11
26.017859
 21
21.188824
 31
0.0
  0
LINE
  5
9E
100
AcDbEntity
  8
2
370
    15
390
0
  6
Continuous
 62
     7
100
AcDbLine
 10
25.857859
 20
21.055825
 30
0.0
 11
24.941859
 21
21.055825
 31
0.0
  0
LINE
  5
9F
100
AcDbEntity
  8
2
370
    15
390
0
  6
Continuous
 62
     7
100
AcDbLine
 10
24.941859
 20
21.469822
 30
0.0
 11
26.017859
 21
21.469822
 31
0.0
  0
LINE
  5
A0
100
AcDbEntity
  8
2
370
    15
390
0
  6
Continuous
 62
     7
100
AcDbLine
 10
24.941859
 20
21.845826
 30
0.0
 11
26.051856
 21
21.845826
 31
0.0
  0
ARC
  5
A1
100
AcDbEntity
  8
2
370
    15
390
0
  6
Continuous
 62
     7
100
AcDbCircle
 10
24.941872
 20
23.833056
 30
0.0
 40
1.98723
100
AcDbArc
 50
269.999622
 51
289.077016
  0
ARC
  5
A2
100
AcDbEntity
  8
2
370
    15
390
0
  6
Continuous
 62
     7
100
AcDbCircle
 10
24.941867
 20
20.98453
 30
0.0
 40
1.987295
100
AcDbArc
 50
70.923468
 51
90.000221
  0
LINE
  5
A3
100
AcDbEntity
  8
2
370
    15
390
0
  6
Continuous
 62
     7
100
AcDbLine
 10
24.941859
 20
22.971827
 30
0.0
 11
26.051856
 21
22.971827
 31
0.0
  0
LINE
  5
A4
100
AcDbEntity
  8
2
370
    15
390
0
  6
Continuous
 62
     7
100
AcDbLine
 10
24.941859
 20
20.391823
 30
0.0
 11
25.857859
 21
20.391823
 31
0.0
  0
LINE
  5
A5
100
AcDbEntity
  8
2
370
    15
390
0
  6
Continuous
 62
     7
100
AcDbLine
 10
24.941859
 20
20.34895
 30
0.0
 11
26.017859
 21
20.34895
 31
0.0
  0
LINE
  5
A6
100
AcDbEntity
  8
2
370
    15
390
0
  6
Continuous
 62
     7
100
AcDbLine
 10
24.941859
 20
20.219822
 30
0.0
 11
26.017859
 21
20.219822
 31
0.0
  0
LINE
  5
A7
100
AcDbEntity
  8
1
370
    15
390
0
  6
Continuous
 62
     1
100
AcDbLine
 10
26.021857
 20
20.219822
 30
0.0
 11
26.021857
 21
21.569741
 31
0.0
  0
ARC
  5
A8
100
AcDbEntity
  8
1
370
    15
390
0
  6
Continuous
 62
     1
100
AcDbCircle
 10
26.083841
 20
21.569747
 30
0.0
 40
0.061984
100
AcDbArc
 50
134.990818
 51
180.005408
  0
LINE
  5
A9
100
AcDbEntity
  8
1
370
    15
390
0
  6
CL____X1
 62
     1
100
AcDbLine
 10
26.25492
 20
21.828484
 30
0.0
 11
26.040019
 21
21.613583
 31
0.0
  0
LINE
  5
AA
100
AcDbEntity
  8
1
370
    15
390
0
  6
Continuous
 62
     1
100
AcDbLine
 10
26.021857
 20
21.595421
 30
0.0
 11
26.026858
 21
21.595421
 31
0.0
  0
LINE
  5
AB
100
AcDbEntity
  8
1
370
    15
390
0
  6
Continuous
 62
     1
100
AcDbLine
 10
26.021857
 20
20.219822
 30
0.0
 11
26.013858
 21
20.219822
 31
0.0
  0
ARC
  5
AC
100
AcDbEntity
  8
1
370
    15
390
0
  6
Continuous
 62
     1
100
AcDbCircle
 10
26.013857
 20
20.179822
 30
0.0
 40
0.040001
100
AcDbArc
 50
90.0
 51
180.000528
  0
LINE
  5
AD
100
AcDbEntity
  8
1
370
    15
390
0
  6
Continuous
 62
     1
100
AcDbLine
 10
25.973857
 20
19.907822
 30
0.0
 11
25.973857
 21
20.179821
 31
0.0
  0
LINE
  5
AE
100
AcDbEntity
  8
1
370
    15
390
0
  6
Continuous
 62
     1
100
AcDbLine
 10
25.973857
 20
19.907822
 30
0.0
 11
25.876277
 21
19.81024
 31
0.0
  0
LINE
  5
AF
100
AcDbEntity
  8
1
370
    15
390
0
  6
Continuous
 62
     1
100
AcDbLine
 10
25.876277
 20
19.81024
 30
0.0
 11
25.876277
 21
18.121823
 31
0.0
  0
LINE
  5
B0
100
AcDbEntity
  8
1
370
    15
390
0
  6
CL____X1
 62
     1
100
AcDbLine
 10
25.941859
 20
18.969822
 30
0.0
 11
25.941859
 21
19.865822
 31
0.0
  0
LINE
  5
B1
100
AcDbEntity
  8
1
370
    15
390
0
  6
Continuous
 62
     1
100
AcDbLine
 10
25.876277
 20
18.121823
 30
0.0
 11
25.83504
 21
18.080586
 31
0.0
  0
ARC
  5
B2
100
AcDbEntity
  8
1
370
    15
390
0
  6
Continuous
 62
     1
100
AcDbCircle
 10
25.878905
 20
18.036732
 30
0.0
 40
0.062027
100
AcDbArc
 50
135.007191
 51
179.987272
  0
LINE
  5
B3
100
AcDbEntity
  8
1
370
    15
390
0
  6
Continuous
 62
     1
100
AcDbLine
 10
25.816878
 20
17.446425
 30
0.0
 11
25.816878
 21
18.036745
 31
0.0
  0
LINE
  5
B4
100
AcDbEntity
  8
1
370
    15
390
0
  6
Continuous
 62
     1
100
AcDbLine
 10
25.629859
 20
17.44647
 30
0.0
 11
25.816878
 21
17.446425
 31
0.0
  0
LINE
  5
B5
100
AcDbEntity
  8
1
370
    15
390
0
  6
Continuous
 62
     7
100
AcDbLine
 10
24.941859
 20
21.584494
 30
0.0
 11
24.941859
 21
21.890131
 31
0.0
  0
LINE
  5
B6
100
AcDbEntity
  8
1
370
    15
390
0
  6
Continuous
 62
     7
100
AcDbLine
 10
24.941859
 20
18.560293
 30
0.0
 11
24.941859
 21
18.930274
 31
0.0
  0
LINE
  5
B7
100
AcDbEntity
  8
1
370
    15
390
0
  6
Continuous
 62
     7
100
AcDbLine
 10
24.941859
 20
21.391459
 30
0.0
 11
24.941859
 21
19.123309
 31
0.0
  0
LINE
  5
B8
100
AcDbEntity
  8
1
370
    15
390
0
  6
Continuous
 62
     1
100
AcDbLine
 10
26.8091
 20
23.389845
 30
0.0
 11
26.778319
 21
23.236029
 31
0.0
  0
LINE
  5
B9
100
AcDbEntity
  8
1
370
    15
390
0
  6
Continuous
 62
     1
100
AcDbLine
 10
26.778319
 20
23.236029
 30
0.0
 11
26.747542
 21
23.06683
 31
0.0
  0
LINE
  5
BA
100
AcDbEntity
  8
1
370
    15
390
0
  6
Continuous
 62
     1
100
AcDbLine
 10
26.747542
 20
23.06683
 30
0.0
 11
26.762931
 21
22.682288
 31
0.0
  0
LINE
  5
BB
100
AcDbEntity
  8
1
370
    15
390
0
  6
Continuous
 62
     1
100
AcDbLine
 10
26.762931
 20
22.682288
 30
0.0
 11
26.778319
 21
22.497708
 31
0.0
  0
LINE
  5
BC
100
AcDbEntity
  8
1
370
    15
390
0
  6
Continuous
 62
     1
100
AcDbLine
 10
26.778319
 20
22.497708
 30
0.0
 11
26.73215
 21
22.297747
 31
0.0
  0
LINE
  5
BD
100
AcDbEntity
  8
1
370
    15
390
0
  6
Continuous
 62
     1
100
AcDbLine
 10
26.73215
 20
22.297747
 30
0.0
 11
26.609034
 21
22.05164
 31
0.0
  0
LINE
  5
BE
100
AcDbEntity
  8
1
370
    15
390
0
  6
Continuous
 62
     1
100
AcDbLine
 10
26.609034
 20
22.05164
 30
0.0
 11
26.578253
 21
21.79015
 31
0.0
  0
LINE
  5
BF
100
AcDbEntity
  8
1
370
    15
390
0
  6
Continuous
 62
     1
100
AcDbLine
 10
26.578253
 20
21.79015
 30
0.0
 11
26.578253
 21
21.590189
 31
0.0
  0
LINE
  5
C0
100
AcDbEntity
  8
1
370
    15
390
0
  6
Continuous
 62
     1
100
AcDbLine
 10
26.578253
 20
21.590189
 30
0.0
 11
26.639811
 21
21.344082
 31
0.0
  0
LINE
  5
C1
100
AcDbEntity
  8
1
370
    15
390
0
  6
Continuous
 62
     1
100
AcDbLine
 10
26.639811
 20
21.344082
 30
0.0
 11
26.670592
 21
21.113358
 31
0.0
  0
LINE
  5
C2
100
AcDbEntity
  8
1
370
    15
390
0
  6
Continuous
 62
     1
100
AcDbLine
 10
26.670592
 20
21.113358
 30
0.0
 11
26.562865
 21
20.759579
 31
0.0
  0
LINE
  5
C3
100
AcDbEntity
  8
1
370
    15
390
0
  6
Continuous
 62
     1
100
AcDbLine
 10
26.562865
 20
20.759579
 30
0.0
 11
26.485915
 21
20.574999
 31
0.0
  0
LINE
  5
C4
100
AcDbEntity
  8
1
370
    15
390
0
  6
Continuous
 62
     1
100
AcDbLine
 10
26.485915
 20
20.574999
 30
0.0
 11
26.455138
 21
20.344273
 31
0.0
  0
LINE
  5
C5
100
AcDbEntity
  8
1
370
    15
390
0
  6
Continuous
 62
     1
100
AcDbLine
 10
26.455138
 20
20.344273
 30
0.0
 11
26.485915
 21
20.082785
 31
0.0
  0
LINE
  5
C6
100
AcDbEntity
  8
1
370
    15
390
0
  6
Continuous
 62
     1
100
AcDbLine
 10
26.485915
 20
20.082785
 30
0.0
 11
26.547476
 21
19.852059
 31
0.0
  0
LINE
  5
C7
100
AcDbEntity
  8
1
370
    15
390
0
  6
Continuous
 62
     1
100
AcDbLine
 10
26.547476
 20
19.852059
 30
0.0
 11
26.547476
 21
19.652098
 31
0.0
  0
LINE
  5
C8
100
AcDbEntity
  8
1
370
    15
390
0
  6
Continuous
 62
     1
100
AcDbLine
 10
26.547476
 20
19.652098
 30
0.0
 11
26.547476
 21
19.40599
 31
0.0
  0
LINE
  5
C9
100
AcDbEntity
  8
1
370
    15
390
0
  6
Continuous
 62
     1
100
AcDbLine
 10
26.547476
 20
19.40599
 30
0.0
 11
26.516696
 21
19.206029
 31
0.0
  0
LINE
  5
CA
100
AcDbEntity
  8
1
370
    15
390
0
  6
Continuous
 62
     1
100
AcDbLine
 10
26.516696
 20
19.206029
 30
0.0
 11
26.439746
 21
18.990686
 31
0.0
  0
LINE
  5
CB
100
AcDbEntity
  8
1
370
    15
390
0
  6
Continuous
 62
     1
100
AcDbLine
 10
26.439746
 20
18.990686
 30
0.0
 11
26.408969
 21
18.759961
 31
0.0
  0
LINE
  5
CC
100
AcDbEntity
  8
1
370
    15
390
0
  6
Continuous
 62
     1
100
AcDbLine
 10
26.408969
 20
18.759961
 30
0.0
 11
26.424357
 21
18.559999
 31
0.0
  0
LINE
  5
CD
100
AcDbEntity
  8
1
370
    15
390
0
  6
Continuous
 62
     1
100
AcDbLine
 10
26.424357
 20
18.559999
 30
0.0
 11
26.439746
 21
18.483091
 31
0.0
  0
LINE
  5
CE
100
AcDbEntity
  8
1
370
    15
390
0
  6
Continuous
 62
     1
100
AcDbLine
 10
26.439746
 20
18.483091
 30
0.0
 11
26.470526
 21
18.267747
 31
0.0
  0
LINE
  5
CF
100
AcDbEntity
  8
1
370
    15
390
0
  6
Continuous
 62
     1
100
AcDbLine
 10
26.470526
 20
18.267747
 30
0.0
 11
26.470526
 21
17.898587
 31
0.0
  0
LINE
  5
D0
100
AcDbEntity
  8
1
370
    15
390
0
  6
Continuous
 62
     1
100
AcDbLine
 10
26.470526
 20
17.898587
 30
0.0
 11
26.393576
 21
17.637099
 31
0.0
  0
LINE
  5
D1
100
AcDbEntity
  8
1
370
    15
390
0
  6
Continuous
 62
     1
100
AcDbLine
 10
26.393576
 20
17.637099
 30
0.0
 11
26.362799
 21
17.544809
 31
0.0
  0
LINE
  5
D2
100
AcDbEntity
  8
1
370
    15
390
0
  6
Continuous
 62
     1
100
AcDbLine
 10
26.362799
 20
17.544809
 30
0.0
 11
26.31663
 21
17.360228
 31
0.0
  0
LINE
  5
D3
100
AcDbEntity
  8
1
370
    15
390
0
  6
Continuous
 62
     1
100
AcDbLine
 10
26.31663
 20
17.360228
 30
0.0
 11
26.301238
 21
17.160266
 31
0.0
  0
LINE
  5
D4
100
AcDbEntity
  8
1
370
    15
390
0
  6
Continuous
 62
     1
100
AcDbLine
 10
26.301238
 20
17.160266
 30
0.0
 11
26.193511
 21
16.883397
 31
0.0
  0
LINE
  5
D5
100
AcDbEntity
  8
1
370
    15
390
0
  6
Continuous
 62
     1
100
AcDbLine
 10
26.193511
 20
16.883397
 30
0.0
 11
26.055003
 21
16.837251
 31
0.0
  0
LINE
  5
D6
100
AcDbEntity
  8
1
370
    15
390
0
  6
Continuous
 62
     1
100
AcDbLine
 10
26.055003
 20
16.837251
 30
0.0
 11
25.931887
 21
16.683435
 31
0.0
  0
LINE
  5
D7
100
AcDbEntity
  8
1
370
    15
390
0
  6
Continuous
 62
     1
100
AcDbLine
 10
25.876277
 20
18.157822
 30
0.0
 11
26.470526
 21
18.157822
 31
0.0
  0
LINE
  5
D8
100
AcDbEntity
  8
1
370
    15
390
0
  6
Continuous
 62
     1
100
AcDbLine
 10
25.876277
 20
19.407822
 30
0.0
 11
26.547476
 21
19.407822
 31
0.0
  0
LINE
  5
D9
100
AcDbEntity
  8
1
370
    15
390
0
  6
Continuous
 62
     1
100
AcDbLine
 10
26.060492
 20
18.782822
 30
0.0
 11
26.177378
 21
18.782822
 31
0.0
  0
LINE
  5
DA
100
AcDbEntity
  8
1
370
    15
390
0
  6
Continuous
 62
     1
100
AcDbLine
 10
26.002047
 20
18.782822
 30
0.0
 11
25.776278
 21
18.782822
 31
0.0
  0
LINE
  5
DB
100
AcDbEntity
  8
1
370
    15
390
0
  6
Continuous
 62
     1
100
AcDbLine
 10
26.171149
 20
20.656821
 30
0.0
 11
26.272612
 21
20.656821
 31
0.0
  0
LINE
  5
DC
100
AcDbEntity
  8
1
370
    15
390
0
  6
Continuous
 62
     1
100
AcDbLine
 10
26.095053
 20
20.656821
 30
0.0
 11
25.921858
 21
20.656821
 31
0.0
  0
LINE
  5
DD
100
AcDbEntity
  8
1
370
    15
390
0
  6
Continuous
 62
     1
100
AcDbLine
 10
26.084258
 20
21.657822
 30
0.0
 11
26.578253
 21
21.657822
 31
0.0
  0
LINE
  5
DE
100
AcDbEntity
  8
1
370
    15
390
0
  6
Continuous
 62
     1
100
AcDbLine
 10
26.021857
 20
21.031821
 30
0.0
 11
26.646083
 21
21.03287
 31
0.0
  0
LINE
  5
DF
100
AcDbEntity
  8
1
370
    15
390
0
  6
Continuous
 62
     1
100
AcDbLine
 10
26.021857
 20
20.281821
 30
0.0
 11
26.462508
 21
20.281659
 31
0.0
  0
ELLIPSE
  5
E0
100
AcDbEntity
  8
1
370
    15
390
0
  6
Continuous
 62
     1
100
AcDbEllipse
 10
25.963832
 20
21.27214
 30
0.0
 11
-0.0007476806640625
 21
0.0836477279663086
 31
0.0
210
0.0
220
0.0
230
1.0
 40
0.683381
 41
0.0
 42
6.2831853071795862
  0
ELLIPSE
  5
E1
100
AcDbEntity
  8
1
370
    15
390
0
  6
Continuous
 62
     1
100
AcDbEllipse
 10
25.914067
 20
20.048911
 30
0.0
 11
-0.0005664825439453
 21
-0.0764579772949219
 31
0.0
210
0.0
220
0.0
230
1.0
 40
0.748566
 41
0.0
 42
6.2831853071795862
  0
ELLIPSE
  5
E2
100
AcDbEntity
  8
1
370
    15
390
0
  6
Continuous
 62
     1
100
AcDbEllipse
 10
25.758752
 20
17.779585
 30
0.0
 11
-0.0009975433349609
 21
0.0748534202575684
 31
0.0
210
0.0
220
0.0
230
1.0
 40
0.747081
 41
0.0
 42
6.2831853071795862
  0
LINE
  5
E3
100
AcDbEntity
  8
1
370
    15
390
0
  6
CL____X1
 62
     1
100
AcDbLine
 10
26.25492
 20
21.828484
 30
0.0
 11
26.017859
 21
21.828484
 31
0.0
  0
LINE
  5
E4
100
AcDbEntity
  8
1
370
    15
390
0
  6
CL____X1
 62
     1
100
AcDbLine
 10
26.25492
 20
22.361893
 30
0.0
 11
26.441859
 21
22.469822
 31
0.0
  0
LINE
  5
E5
100
AcDbEntity
  8
1
370
    15
390
0
  6
CL____X1
 62
     1
100
AcDbLine
 10
26.25492
 20
22.361893
 30
0.0
 11
26.25492
 21
21.828484
 31
0.0
  0
LINE
  5
E6
100
AcDbEntity
  8
1
370
    15
390
0
  6
CL____X1
 62
     1
100
AcDbLine
 10
26.441859
 20
22.469822
 30
0.0
 11
26.240897
 21
22.469822
 31
0.0
  0
LINE
  5
E7
100
AcDbEntity
  8
1
370
    15
390
0
  6
CL____X1
 62
     1
100
AcDbLine
 10
26.441859
 20
23.373404
 30
0.0
 11
26.441859
 21
22.469822
 31
0.0
  0
LINE
  5
E8
100
AcDbEntity
  8
1
370
    15
390
0
  6
Continuous
 62
     1
100
AcDbLine
 10
26.8091
 20
23.389845
 30
0.0
 11
26.740203
 21
23.383849
 31
0.0
  0
LINE
  5
E9
100
AcDbEntity
  8
1
370
    15
390
0
  6
Continuous
 62
     1
100
AcDbLine
 10
26.740203
 20
23.383849
 30
0.0
 11
26.677504
 21
23.34207
 31
0.0
  0
LINE
  5
EA
100
AcDbEntity
  8
1
370
    15
390
0
  6
Continuous
 62
     1
100
AcDbLine
 10
26.677504
 20
23.34207
 30
0.0
 11
26.583457
 21
23.34207
 31
0.0
  0
LINE
  5
EB
100
AcDbEntity
  8
1
370
    15
390
0
  6
Continuous
 62
     1
100
AcDbLine
 10
26.583457
 20
23.34207
 30
0.0
 11
26.520755
 21
23.394293
 31
0.0
  0
LINE
  5
EC
100
AcDbEntity
  8
1
370
    15
390
0
  6
Continuous
 62
     1
100
AcDbLine
 10
26.520755
 20
23.394293
 30
0.0
 11
26.441859
 21
23.373404
 31
0.0
  0
LINE
  5
ED
100
AcDbEntity
  8
1
370
    15
390
0
  6
Continuous
 62
     1
100
AcDbLine
 10
25.931887
 20
16.683435
 30
0.0
 11
25.899138
 21
16.643806
 31
0.0
  0
LINE
  5
EE
100
AcDbEntity
  8
1
370
    15
390
0
  6
Continuous
 62
     1
100
AcDbLine
 10
25.899138
 20
16.643806
 30
0.0
 11
25.834414
 21
16.600679
 31
0.0
  0
LINE
  5
EF
100
AcDbEntity
  8
1
370
    15
390
0
  6
Continuous
 62
     1
100
AcDbLine
 10
25.834414
 20
16.600679
 30
0.0
 11
25.791266
 21
16.525207
 31
0.0
  0
LINE
  5
F0
100
AcDbEntity
  8
1
370
    15
390
0
  6
Continuous
 62
     1
100
AcDbLine
 10
25.791266
 20
16.525207
 30
0.0
 11
25.715754
 21
16.48208
 31
0.0
  0
LINE
  5
F1
100
AcDbEntity
  8
1
370
    15
390
0
  6
Continuous
 62
     1
100
AcDbLine
 10
25.715754
 20
16.48208
 30
0.0
 11
25.645636
 21
16.471298
 31
0.0
  0
LINE
  5
F2
100
AcDbEntity
  8
1
370
    15
390
0
  6
Continuous
 62
     1
100
AcDbLine
 10
25.645636
 20
16.471298
 30
0.0
 11
25.629859
 21
16.455125
 31
0.0
  0
LINE
  5
F3
100
AcDbEntity
  8
1
370
    15
390
0
  6
Continuous
 62
     1
100
AcDbLine
 10
25.629859
 20
16.455125
 30
0.0
 11
25.629859
 21
17.446635
 31
0.0
  0
LINE
  5
F4
100
AcDbEntity
  8
1
370
    15
390
0
  6
Continuous
 62
     1
100
AcDbLine
 10
26.539805
 20
21.03269
 30
0.0
 11
26.664694
 21
21.157578
 31
0.0
  0
LINE
  5
F5
100
AcDbEntity
  8
1
370
    15
390
0
  6
Continuous
 62
     1
100
AcDbLine
 10
26.362731
 20
21.032393
 30
0.0
 11
26.643885
 21
21.313548
 31
0.0
  0
LINE
  5
F6
100
AcDbEntity
  8
1
370
    15
390
0
  6
Continuous
 62
     1
100
AcDbLine
 10
26.185656
 20
21.032097
 30
0.0
 11
26.611369
 21
21.457806
 31
0.0
  0
LINE
  5
F7
100
AcDbEntity
  8
1
370
    15
390
0
  6
Continuous
 62
     1
100
AcDbLine
 10
26.104273
 20
21.657822
 30
0.0
 11
26.021857
 21
21.575404
 31
0.0
  0
LINE
  5
F8
100
AcDbEntity
  8
1
370
    15
390
0
  6
Continuous
 62
     1
100
AcDbLine
 10
26.281054
 20
21.657822
 30
0.0
 11
26.021857
 21
21.398627
 31
0.0
  0
LINE
  5
F9
100
AcDbEntity
  8
1
370
    15
390
0
  6
Continuous
 62
     1
100
AcDbLine
 10
26.457831
 20
21.657822
 30
0.0
 11
26.021857
 21
21.22185
 31
0.0
  0
LINE
  5
FA
100
AcDbEntity
  8
1
370
    15
390
0
  6
Continuous
 62
     1
100
AcDbLine
 10
26.578253
 20
21.601471
 30
0.0
 11
26.021857
 21
21.045073
 31
0.0
  0
LINE
  5
FB
100
AcDbEntity
  8
1
370
    15
390
0
  6
Continuous
 62
     1
100
AcDbLine
 10
26.464835
 20
19.407822
 30
0.0
 11
26.547476
 21
19.49046
 31
0.0
  0
LINE
  5
FC
100
AcDbEntity
  8
1
370
    15
390
0
  6
Continuous
 62
     1
100
AcDbLine
 10
26.288058
 20
19.407822
 30
0.0
 11
26.547476
 21
19.667237
 31
0.0
  0
LINE
  5
FD
100
AcDbEntity
  8
1
370
    15
390
0
  6
Continuous
 62
     1
100
AcDbLine
 10
26.111281
 20
19.407822
 30
0.0
 11
26.547476
 21
19.844014
 31
0.0
  0
LINE
  5
FE
100
AcDbEntity
  8
1
370
    15
390
0
  6
Continuous
 62
     1
100
AcDbLine
 10
25.934508
 20
19.407822
 30
0.0
 11
26.511939
 21
19.985253
 31
0.0
  0
LINE
  5
FF
100
AcDbEntity
  8
1
370
    15
390
0
  6
Continuous
 62
     1
100
AcDbLine
 10
25.876277
 20
19.526369
 30
0.0
 11
26.480311
 21
20.130404
 31
0.0
  0
LINE
  5
100
100
AcDbEntity
  8
1
370
    15
390
0
  6
Continuous
 62
     1
100
AcDbLine
 10
25.876277
 20
19.703146
 30
0.0
 11
26.454791
 21
20.28166
 31
0.0
  0
LINE
  5
101
100
AcDbEntity
  8
1
370
    15
390
0
  6
Continuous
 62
     1
100
AcDbLine
 10
25.973857
 20
19.977503
 30
0.0
 11
26.278079
 21
20.281727
 31
0.0
  0
LINE
  5
102
100
AcDbEntity
  8
1
370
    15
390
0
  6
Continuous
 62
     1
100
AcDbLine
 10
25.973857
 20
20.15428
 30
0.0
 11
26.10137
 21
20.281792
 31
0.0
  0
LINE
  5
103
100
AcDbEntity
  8
1
370
    15
390
0
  6
Continuous
 62
     1
100
AcDbLine
 10
25.998431
 20
18.157822
 30
0.0
 11
25.816878
 21
17.976272
 31
0.0
  0
LINE
  5
104
100
AcDbEntity
  8
1
370
    15
390
0
  6
Continuous
 62
     1
100
AcDbLine
 10
26.175208
 20
18.157822
 30
0.0
 11
25.816878
 21
17.799495
 31
0.0
  0
LINE
  5
105
100
AcDbEntity
  8
1
370
    15
390
0
  6
Continuous
 62
     1
100
AcDbLine
 10
26.351985
 20
18.157822
 30
0.0
 11
25.816878
 21
17.622718
 31
0.0
  0
LINE
  5
106
100
AcDbEntity
  8
1
370
    15
390
0
  6
Continuous
 62
     1
100
AcDbLine
 10
25.629859
 20
17.258919
 30
0.0
 11
26.470526
 21
18.099588
 31
0.0
  0
LINE
  5
107
100
AcDbEntity
  8
1
370
    15
390
0
  6
Continuous
 62
     1
100
AcDbLine
 10
26.228728
 20
16.973905
 30
0.0
 11
26.110594
 21
16.855771
 31
0.0
  0
LINE
  5
108
100
AcDbEntity
  8
1
370
    15
390
0
  6
Continuous
 62
     1
100
AcDbLine
 10
26.306487
 20
17.228442
 30
0.0
 11
25.629859
 21
16.551813
 31
0.0
  0
LINE
  5
109
100
AcDbEntity
  8
1
370
    15
390
0
  6
Continuous
 62
     1
100
AcDbLine
 10
26.335021
 20
17.433751
 30
0.0
 11
25.629859
 21
16.728588
 31
0.0
  0
LINE
  5
10A
100
AcDbEntity
  8
1
370
    15
390
0
  6
Continuous
 62
     1
100
AcDbLine
 10
26.409583
 20
17.68509
 30
0.0
 11
25.629859
 21
16.905365
 31
0.0
  0
LINE
  5
10B
100
AcDbEntity
  8
1
370
    15
390
0
  6
Continuous
 62
     1
100
AcDbLine
 10
26.470526
 20
17.922811
 30
0.0
 11
25.629859
 21
17.082141
 31
0.0
  0
LINE
  5
10C
100
AcDbEntity
  8
1
370
    15
390
0
  6
Continuous
 62
     7
100
AcDbLine
 10
25.81436
 20
17.469822
 30
0.0
 11
25.774489
 21
17.446435
 31
0.0
  0
LINE
  5
10D
100
AcDbEntity
  8
1
370
    15
390
0
  6
Continuous
 62
     7
100
AcDbLine
 10
25.774489
 20
17.446435
 30
0.0
 11
24.941859
 21
17.446435
 31
0.0
  0
ARC
  5
10E
100
AcDbEntity
  8
1
370
    15
390
0
  6
Continuous
 62
     7
100
AcDbCircle
 10
24.941859
 20
18.407822
 30
0.0
 40
0.25
100
AcDbArc
 50
270.0
 51
450.0
  0
ARC
  5
10F
100
AcDbEntity
  8
1
370
    15
390
0
  6
Continuous
 62
     7
100
AcDbCircle
 10
24.941859
 20
21.055825
 30
0.0
 40
0.034
100
AcDbArc
 50
270.0
 51
450.0
  0
LINE
  5
110
100
AcDbEntity
  8
1
370
    15
390
0
  6
Continuous
 62
     7
100
AcDbLine
 10
23.861857
 20
20.219822
 30
0.0
 11
23.861857
 21
21.569741
 31
0.0
  0
ARC
  5
111
100
AcDbEntity
  8
1
370
    15
390
0
  6
Continuous
 62
     7
100
AcDbCircle
 10
23.799855
 20
21.569743
 30
0.0
 40
0.062002
100
AcDbArc
 50
359.997849
 51
404.997415
  0
LINE
  5
112
100
AcDbEntity
  8
1
370
    15
390
0
  6
Continuous
 62
     7
100
AcDbLine
 10
23.628794
 20
21.828484
 30
0.0
 11
23.843699
 21
21.613583
 31
0.0
  0
LINE
  5
113
100
AcDbEntity
  8
1
370
    15
390
0
  6
Continuous
 62
     7
100
AcDbLine
 10
23.861857
 20
20.219822
 30
0.0
 11
23.86986
 21
20.219822
 31
0.0
  0
ARC
  5
114
100
AcDbEntity
  8
1
370
    15
390
0
  6
Continuous
 62
     7
100
AcDbCircle
 10
23.869857
 20
20.179822
 30
0.0
 40
0.040001
100
AcDbArc
 50
359.999472
 51
449.995063
  0
LINE
  5
115
100
AcDbEntity
  8
1
370
    15
390
0
  6
Continuous
 62
     7
100
AcDbLine
 10
23.909857
 20
19.907822
 30
0.0
 11
23.909857
 21
20.179821
 31
0.0
  0
LINE
  5
116
100
AcDbEntity
  8
1
370
    15
390
0
  6
Continuous
 62
     7
100
AcDbLine
 10
23.909857
 20
19.907822
 30
0.0
 11
24.007441
 21
19.81024
 31
0.0
  0
LINE
  5
117
100
AcDbEntity
  8
1
370
    15
390
0
  6
Continuous
 62
     7
100
AcDbLine
 10
24.007441
 20
19.81024
 30
0.0
 11
24.007441
 21
18.121823
 31
0.0
  0
LINE
  5
118
100
AcDbEntity
  8
1
370
    15
390
0
  6
CL____X1
 62
     7
100
AcDbLine
 10
23.941859
 20
18.969822
 30
0.0
 11
23.941859
 21
19.865822
 31
0.0
  0
LINE
  5
119
100
AcDbEntity
  8
1
370
    15
390
0
  6
Continuous
 62
     7
100
AcDbLine
 10
24.007441
 20
18.121823
 30
0.0
 11
24.048678
 21
18.080586
 31
0.0
  0
ARC
  5
11A
100
AcDbEntity
  8
1
370
    15
390
0
  6
Continuous
 62
     7
100
AcDbCircle
 10
24.004834
 20
18.036746
 30
0.0
 40
0.062002
100
AcDbArc
 50
359.999611
 51
404.997415
  0
LINE
  5
11B
100
AcDbEntity
  8
1
370
    15
390
0
  6
Continuous
 62
     7
100
AcDbLine
 10
24.066836
 20
17.446425
 30
0.0
 11
24.066836
 21
18.036745
 31
0.0
  0
LINE
  5
11C
100
AcDbEntity
  8
1
370
    15
390
0
  6
Continuous
 62
     7
100
AcDbLine
 10
24.253859
 20
17.44647
 30
0.0
 11
24.066836
 21
17.446425
 31
0.0
  0
LINE
  5
11D
100
AcDbEntity
  8
1
370
    15
390
0
  6
Continuous
 62
     7
100
AcDbLine
 10
23.628794
 20
23.071232
 30
0.0
 11
23.628794
 21
21.828484
 31
0.0
  0
LINE
  5
11E
100
AcDbEntity
  8
1
370
    15
390
0
  6
CL____X1
 62
     1
100
AcDbLine
 10
23.91986
 20
21.709551
 30
0.0
 11
23.687297
 21
21.843821
 31
0.0
  0
LINE
  5
11F
100
AcDbEntity
  8
1
370
    15
390
0
  6
CL____X1
 62
     1
100
AcDbLine
 10
23.91986
 20
21.709551
 30
0.0
 11
23.91986
 21
20.281821
 31
0.0
  0
LINE
  5
120
100
AcDbEntity
  8
1
370
    15
390
0
  6
CL____X1
 62
     1
100
AcDbLine
 10
23.684859
 20
23.07769
 30
0.0
 11
23.684859
 21
21.843821
 31
0.0
  0
LINE
  5
121
100
AcDbEntity
  8
1
370
    15
390
0
  6
CL____X1
 62
     1
100
AcDbLine
 10
23.965857
 20
20.255263
 30
0.0
 11
23.91986
 21
20.281821
 31
0.0
  0
LINE
  5
122
100
AcDbEntity
  8
1
370
    15
390
0
  6
CL____X1
 62
     1
100
AcDbLine
 10
23.965857
 20
20.255263
 30
0.0
 11
23.965857
 21
19.969822
 31
0.0
  0
LINE
  5
123
100
AcDbEntity
  8
1
370
    15
390
0
  6
CL____X1
 62
     1
100
AcDbLine
 10
24.059859
 20
19.915551
 30
0.0
 11
23.965857
 21
19.969822
 31
0.0
  0
LINE
  5
124
100
AcDbEntity
  8
1
370
    15
390
0
  6
CL____X1
 62
     1
100
AcDbLine
 10
24.059859
 20
19.915551
 30
0.0
 11
24.059859
 21
18.156822
 31
0.0
  0
LINE
  5
125
100
AcDbEntity
  8
1
370
    15
390
0
  6
CL____X1
 62
     1
100
AcDbLine
 10
24.12786
 20
18.117563
 30
0.0
 11
24.059859
 21
18.156822
 31
0.0
  0
LINE
  5
126
100
AcDbEntity
  8
1
370
    15
390
0
  6
CL____X1
 62
     1
100
AcDbLine
 10
24.12786
 20
18.117563
 30
0.0
 11
24.12786
 21
17.593822
 31
0.0
  0
LINE
  5
127
100
AcDbEntity
  8
1
370
    15
390
0
  6
CL____X1
 62
     1
100
AcDbLine
 10
24.253859
 20
17.521076
 30
0.0
 11
24.253859
 21
16.654635
 31
0.0
  0
LINE
  5
128
100
AcDbEntity
  8
1
370
    15
390
0
  6
CL____X1
 62
     1
100
AcDbLine
 10
24.253859
 20
17.521076
 30
0.0
 11
24.12786
 21
17.593822
 31
0.0
  0
CIRCLE
  5
12A
100
AcDbEntity
  8
1
370
    15
390
0
  6
DIVIDE
 62
     1
100
AcDbCircle
 10
23.926497
 20
20.222914
 30
0.0
 40
0.153886
  0
LINE
  5
12B
100
AcDbEntity
  8
1
370
    15
390
0
  6
CL____X1
 62
     1
100
AcDbLine
 10
24.941859
 20
16.257418
 30
0.0
 11
24.253859
 21
16.654635
 31
0.0
  0
LINE
  5
12C
100
AcDbEntity
  8
1
370
    15
390
0
  6
Continuous
 62
     7
100
AcDbLine
 10
24.941859
 20
18.255351
 30
0.0
 11
24.941859
 21
16.257418
 31
0.0
  0
LINE
  5
12D
100
AcDbEntity
  8
1
370
    15
390
0
  6
CL____X1
 62
     1
100
AcDbLine
 10
24.941859
 20
16.654635
 30
0.0
 11
24.253859
 21
16.654635
 31
0.0
  0
LINE
  5
12E
100
AcDbEntity
  8
2
370
    15
390
0
  6
Continuous
 62
     7
100
AcDbLine
 10
24.941859
 20
19.001824
 30
0.0
 11
25.843859
 21
19.001824
 31
0.0
  0
LINE
  5
12F
100
AcDbEntity
  8
3
370
    15
390
0
  6
Continuous
 62
     1
100
AcDbLine
 10
23.628794
 20
21.986346
 30
0.0
 11
23.040362
 21
21.986346
 31
0.0
  0
LINE
  5
130
100
AcDbEntity
  8
1
370
    15
390
0
  6
Continuous
 62
     1
100
AcDbLine
 10
23.499858
 20
21.95678
 30
0.0
 11
23.569327
 21
21.887658
 31
0.0
  0
LINE
  5
131
100
AcDbEntity
  8
1
370
    15
390
0
  6
Continuous
 62
     1
100
AcDbLine
 10
23.859858
 20
19.907822
 30
0.0
 11
23.551642
 21
19.907822
 31
0.0
  0
LINE
  5
132
100
AcDbEntity
  8
3
370
    15
390
0
  6
Continuous
 62
     1
100
AcDbLine
 10
23.551642
 20
19.907822
 30
0.0
 11
23.284568
 21
19.660969
 31
0.0
  0
LINE
  5
133
100
AcDbEntity
  8
3
370
    15
390
0
  6
Continuous
 62
     1
100
AcDbLine
 10
23.278956
 20
19.842883
 30
0.0
 11
23.436148
 21
19.988173
 31
0.0
  0
LINE
  5
134
100
AcDbEntity
  8
3
370
    15
390
0
  6
Continuous
 62
     1
100
AcDbLine
 10
23.436148
 20
19.988173
 30
0.0
 11
23.909857
 21
19.988173
 31
0.0
  0
LINE
  5
135
100
AcDbEntity
  8
3
370
    15
390
0
  6
Continuous
 62
     1
100
AcDbLine
 10
27.055674
 20
23.213681
 30
0.0
 11
26.441859
 21
23.213681
 31
0.0
  0
LINE
  5
136
100
AcDbEntity
  8
3
370
    15
390
0
  6
Continuous
 62
     1
100
AcDbLine
 10
25.880503
 20
17.446425
 30
0.0
 11
27.079463
 21
17.446425
 31
0.0
  0
LINE
  5
137
100
AcDbEntity
  8
3
370
    15
390
0
  6
Continuous
 62
     1
100
AcDbLine
 10
23.861857
 20
20.894781
 30
0.0
 11
23.040362
 21
20.894781
 31
0.0
  0
LINE
  5
138
100
AcDbEntity
  8
4
370
    15
390
0
  6
Continuous
 62
     7
100
AcDbLine
 10
22.899783
 20
21.906638
 30
0.0
 11
22.979811
 21
22.074973
 31
0.0
  0
LINE
  5
139
100
AcDbEntity
  8
4
370
    15
390
0
  6
Continuous
 62
     7
100
AcDbLine
 10
22.899783
 20
20.815073
 30
0.0
 11
22.979811
 21
20.983408
 31
0.0
  0
LINE
  5
13A
100
AcDbEntity
  8
3
370
    15
390
0
  6
Continuous
 62
     1
100
AcDbLine
 10
22.805354
 20
20.894781
 30
0.0
 11
22.113158
 21
20.894781
 31
0.0
  0
LINE
  5
13B
100
AcDbEntity
  8
4
370
    15
390
0
  6
Continuous
 62
     7
100
AcDbLine
 10
22.899783
 20
19.763174
 30
0.0
 11
22.979811
 21
19.931509
 31
0.0
  0
LINE
  5
13C
100
AcDbEntity
  8
3
370
    15
390
0
  6
Continuous
 62
     1
100
AcDbLine
 10
23.040362
 20
19.842883
 30
0.0
 11
23.278956
 21
19.842883
 31
0.0
  0
LINE
  5
13D
100
AcDbEntity
  8
3
370
    15
390
0
  6
Continuous
 62
     1
100
AcDbLine
 10
24.015856
 20
20.255263
 30
0.0
 11
24.4014
 21
20.255263
 31
0.0
  0
LINE
  5
13E
100
AcDbEntity
  8
3
370
    15
390
0
  6
Continuous
 62
     1
100
AcDbLine
 10
23.92451
 20
20.219822
 30
0.0
 11
24.552195
 21
20.219822
 31
0.0
  0
LINE
  5
13F
100
AcDbEntity
  8
3
370
    15
390
0
  6
Continuous
 62
     1
100
AcDbLine
 10
24.250399
 20
20.219822
 30
0.0
 11
24.250399
 21
19.967982
 31
0.0
  0
LINE
  5
140
100
AcDbEntity
  8
1
370
    15
390
0
  6
Continuous
 62
     7
100
AcDbLine
 10
24.941859
 20
23.087628
 30
0.0
 11
24.941859
 21
22.083166
 31
0.0
  0
ARC
  5
141
100
AcDbEntity
  8
3
370
    15
390
0
  6
Continuous
 62
     1
100
AcDbCircle
 10
23.472771
 20
22.20586
 30
0.0
 40
0.647676
100
AcDbArc
 50
36.065333
 51
76.060528
  0
ARC
  5
142
100
AcDbEntity
  8
3
370
    15
390
0
  6
Continuous
 62
     1
100
AcDbCircle
 10
23.4728
 20
22.205863
 30
0.0
 40
0.647687
100
AcDbArc
 50
149.214907
 51
178.061138
  0
LINE
  5
143
100
AcDbEntity
  8
1
370
    15
390
0
  6
Continuous
 62
     1
100
AcDbLine
 10
22.776282
 20
22.67676
 30
0.0
 11
23.418242
 21
22.037991
 31
0.0
  0
LINE
  5
144
100
AcDbEntity
  8
0
370
    15
390
0
  6
Continuous
 62
     7
100
AcDbLine
 10
20.436423
 20
19.096123
 30
0.0
 11
20.436423
 21
21.471123
 31
0.0
  0
LINE
  5
145
100
AcDbEntity
  8
0
370
    15
390
0
  6
Continuous
 62
     7
100
AcDbLine
 10
20.280425
 20
19.096123
 30
0.0
 11
20.280425
 21
21.471123
 31
0.0
  0
LINE
  5
146
100
AcDbEntity
  8
0
370
    15
390
0
  6
Continuous
 62
     7
100
AcDbLine
 10
19.812422
 20
19.096123
 30
0.0
 11
19.812422
 21
21.471123
 31
0.0
  0
LINE
  5
147
100
AcDbEntity
  8
0
370
    15
390
0
  6
Continuous
 62
     7
100
AcDbLine
 10
19.656424
 20
19.096123
 30
0.0
 11
19.656424
 21
21.471123
 31
0.0
  0
LINE
  5
148
100
AcDbEntity
  8
0
370
    15
390
0
  6
Continuous
 62
     7
100
AcDbLine
 10
19.500426
 20
21.721123
 30
0.0
 11
19.500426
 21
17.846123
 31
0.0
  0
LINE
  5
149
100
AcDbEntity
  8
3
370
    15
390
0
  6
Continuous
 62
     1
100
AcDbLine
 10
23.284568
 20
19.660969
 30
0.0
 11
21.387534
 21
19.660969
 31
0.0
  0
LINE
  5
14A
100
AcDbEntity
  8
4
370
    15
390
0
  6
Continuous
 62
     7
100
AcDbLine
 10
27.945895
 20
23.127571
 30
0.0
 11
28.025923
 21
23.295905
 31
0.0
  0
LINE
  5
14B
100
AcDbEntity
  8
3
370
    15
390
0
  6
Continuous
 62
     1
100
AcDbLine
 10
26.651927
 20
21.657822
 30
0.0
 11
28.064307
 21
21.657822
 31
0.0
  0
LINE
  5
14C
100
AcDbEntity
  8
4
370
    15
390
0
  6
Continuous
 62
     1
100
AcDbLine
 10
28.064307
 20
21.657822
 30
0.0
 11
28.270819
 21
21.657822
 31
0.0
  0
LINE
  5
14D
100
AcDbEntity
  8
4
370
    15
390
0
  6
Continuous
 62
     1
100
AcDbLine
 10
28.111243
 20
20.656821
 30
0.0
 11
28.111243
 21
20.656821
 31
0.0
  0
LINE
  5
14E
100
AcDbEntity
  8
3
370
    15
390
0
  6
Continuous
 62
     1
100
AcDbLine
 10
25.704966
 20
16.719822
 30
0.0
 11
27.014132
 21
16.719822
 31
0.0
  0
LINE
  5
14F
100
AcDbEntity
  8
4
370
    15
390
0
  6
Continuous
 62
     1
100
AcDbLine
 10
21.942435
 20
19.957499
 30
0.0
 11
21.741645
 21
19.957499
 31
0.0
  0
LINE
  5
150
100
AcDbEntity
  8
4
370
    15
390
0
  6
Continuous
 62
     1
100
AcDbLine
 10
21.942435
 20
19.957499
 30
0.0
 11
21.741645
 21
19.957499
 31
0.0
  0
LINE
  5
151
100
AcDbEntity
  8
4
370
    15
390
0
  6
Continuous
 62
     1
100
AcDbLine
 10
21.942435
 20
19.749972
 30
0.0
 11
21.741645
 21
19.749972
 31
0.0
  0
LINE
  5
152
100
AcDbEntity
  8
4
370
    15
390
0
  6
Continuous
 62
     1
100
AcDbLine
 10
21.741645
 20
19.749972
 30
0.0
 11
21.718474
 21
19.749972
 31
0.0
  0
LINE
  5
153
100
AcDbEntity
  8
4
370
    15
390
0
  6
Continuous
 62
     1
100
AcDbLine
 10
21.718474
 20
19.749972
 30
0.0
 11
21.718474
 21
19.957499
 31
0.0
  0
LINE
  5
154
100
AcDbEntity
  8
4
370
    15
390
0
  6
Continuous
 62
     1
100
AcDbLine
 10
21.718474
 20
19.957499
 30
0.0
 11
21.776538
 21
19.957499
 31
0.0
  0
LINE
  5
155
100
AcDbEntity
  8
4
370
    15
390
0
  6
Continuous
 62
     1
100
AcDbLine
 10
21.942435
 20
19.749972
 30
0.0
 11
21.958888
 21
19.749972
 31
0.0
  0
LINE
  5
156
100
AcDbEntity
  8
4
370
    15
390
0
  6
Continuous
 62
     1
100
AcDbLine
 10
21.958888
 20
19.749972
 30
0.0
 11
21.958888
 21
19.957499
 31
0.0
  0
LINE
  5
157
100
AcDbEntity
  8
4
370
    15
390
0
  6
Continuous
 62
     1
100
AcDbLine
 10
21.958888
 20
19.957499
 30
0.0
 11
21.885569
 21
19.957499
 31
0.0
  0
LINE
  5
158
100
AcDbEntity
  8
3
370
    15
390
0
  6
Continuous
 62
     1
100
AcDbLine
 10
22.805354
 20
19.842883
 30
0.0
 11
21.958888
 21
19.842883
 31
0.0
  0
LINE
  5
159
100
AcDbEntity
  8
0
370
    15
390
0
  6
Continuous
 62
     1
100
AcDbLine
 10
23.245997
 20
22.207737
 30
0.0
 11
23.119982
 21
21.988472
 31
0.0
  0
LINE
  5
15A
100
AcDbEntity
  8
0
370
    15
390
0
  6
Continuous
 62
     1
100
AcDbLine
 10
23.159281
 20
22.207737
 30
0.0
 11
23.245997
 21
22.207737
 31
0.0
  0
LINE
  5
15B
100
AcDbEntity
  8
0
370
    15
390
0
  6
Continuous
 62
     1
100
AcDbLine
 10
23.11999
 20
21.988488
 30
0.0
 11
23.067591
 21
22.079251
 31
0.0
  0
LINE
  5
15C
100
AcDbEntity
  8
0
370
    15
390
0
  6
Continuous
 62
     1
100
AcDbLine
 10
23.567481
 20
21.110698
 30
0.0
 11
23.441466
 21
20.891433
 31
0.0
  0
LINE
  5
15D
100
AcDbEntity
  8
0
370
    15
390
0
  6
Continuous
 62
     1
100
AcDbLine
 10
23.480765
 20
21.110698
 30
0.0
 11
23.567481
 21
21.110698
 31
0.0
  0
LINE
  5
15E
100
AcDbEntity
  8
0
370
    15
390
0
  6
Continuous
 62
     1
100
AcDbLine
 10
23.441474
 20
20.891448
 30
0.0
 11
23.389075
 21
20.982211
 31
0.0
  0
LINE
  5
15F
100
AcDbEntity
  8
3
370
    15
390
0
  6
Continuous
 62
     1
100
AcDbLine
 10
24.253859
 20
16.604635
 30
0.0
 11
24.253859
 21
15.820513
 31
0.0
  0
LINE
  5
160
100
AcDbEntity
  8
3
370
    15
390
0
  6
Continuous
 62
     1
100
AcDbLine
 10
25.629859
 20
16.413082
 30
0.0
 11
25.629859
 21
15.820513
 31
0.0
  0
LINE
  5
161
100
AcDbEntity
  8
4
370
    15
390
0
  6
Continuous
 62
     7
100
AcDbLine
 10
25.237979
 20
15.846765
 30
0.0
 11
25.318003
 21
16.0151
 31
0.0
  0
LINE
  5
162
100
AcDbEntity
  8
3
370
    15
390
0
  6
Continuous
 62
     1
100
AcDbLine
 10
24.066836
 20
17.446425
 30
0.0
 11
23.584243
 21
16.687228
 31
0.0
  0
LINE
  5
163
100
AcDbEntity
  8
3
370
    15
390
0
  6
Continuous
 62
     1
100
AcDbLine
 10
24.49178
 20
15.933383
 30
0.0
 11
24.253859
 21
15.933383
 31
0.0
  0
LINE
  5
164
100
AcDbEntity
  8
3
370
    15
390
0
  6
Continuous
 62
     1
100
AcDbLine
 10
25.380091
 20
15.933383
 30
0.0
 11
25.629859
 21
15.933383
 31
0.0
  0
LINE
  5
165
100
AcDbEntity
  8
3
370
    15
390
0
  6
Continuous
 62
     1
100
AcDbLine
 10
23.628794
 20
21.828484
 30
0.0
 11
24.02599
 21
21.828484
 31
0.0
  0
LINE
  5
166
100
AcDbEntity
  8
3
370
    15
390
0
  6
Continuous
 62
     1
100
AcDbLine
 10
23.861857
 20
21.569741
 30
0.0
 11
24.02599
 21
21.569741
 31
0.0
  0
LINE
  5
167
100
AcDbEntity
  8
3
370
    15
390
0
  6
Continuous
 62
     1
100
AcDbLine
 10
23.941859
 20
18.969822
 30
0.0
 11
24.217393
 21
18.969822
 31
0.0
  0
LINE
  5
168
100
AcDbEntity
  8
1
370
    15
390
0
  6
Continuous
 62
     1
100
AcDbLine
 10
24.066836
 20
18.036745
 30
0.0
 11
24.217393
 21
18.036745
 31
0.0
  0
LINE
  5
169
100
AcDbEntity
  8
1
370
    15
390
0
  6
Continuous
 62
     1
100
AcDbLine
 10
24.007441
 20
18.121823
 30
0.0
 11
24.217393
 21
18.121823
 31
0.0
  0
LINE
  5
16A
100
AcDbEntity
  8
1
370
    15
390
0
  6
Continuous
 62
     1
100
AcDbLine
 10
24.007441
 20
19.81024
 30
0.0
 11
24.217393
 21
19.81024
 31
0.0
  0
LINE
  5
16B
100
AcDbEntity
  8
1
370
    15
390
0
  6
Continuous
 62
     1
100
AcDbLine
 10
23.909857
 20
19.907822
 30
0.0
 11
24.217393
 21
19.907822
 31
0.0
  0
TEXT
  5
16D
100
AcDbEntity
  8
0
370
    15
390
0
  6
Continuous
 62
     7
100
AcDbText
 10
19.234679
 20
21.684946
 30
0.0
 40
0.065844
  1
LET
 50
270.0
  7
Vcadd_SIMP
100
AcDbText
  0
TEXT
  5
16E
100
AcDbEntity
  8
0
370
    15
390
0
  6
Continuous
 62
     7
100
AcDbText
 10
19.234702
 20
20.577662
 30
0.0
 40
0.065844
  1
REVISION 
 50
270.0
  7
Vcadd_SIMP
100
AcDbText
  0
TEXT
  5
16F
100
AcDbEntity
  8
0
370
    15
390
0
  6
Continuous
 62
     7
100
AcDbText
 10
19.232672
 20
18.976496
 30
0.0
 40
0.065844
  1
DATE 
 50
270.0
  7
Vcadd_SIMP
100
AcDbText
  0
TEXT
  5
170
100
AcDbEntity
  8
0
370
    15
390
0
  6
Continuous
 62
     7
100
AcDbText
 10
19.23284
 20
18.562474
 30
0.0
 40
0.065844
  1
DRN 
 50
270.0
  7
Vcadd_SIMP
100
AcDbText
  0
TEXT
  5
171
100
AcDbEntity
  8
0
370
    15
390
0
  6
Continuous
 62
     7
100
AcDbText
 10
19.232508
 20
18.315002
 30
0.0
 40
0.065844
  1
CHK 
 50
270.0
  7
Vcadd_SIMP
100
AcDbText
  0
TEXT
  5
172
100
AcDbEntity
  8
0
370
    15
390
0
  6
Continuous
 62
     7
100
AcDbText
 10
19.23284
 20
18.065975
 30
0.0
 40
0.065844
  1
REL
 50
270.0
  7
Vcadd_SIMP
100
AcDbText
  0
TEXT
  5
173
100
AcDbEntity
  8
0
370
    15
390
0
  6
Continuous
 62
     7
100
AcDbText
 10
20.456782
 20
17.528998
 30
0.0
 40
0.062
  1
UNLESS
 50
270.0
  7
Vcadd_SIMP
100
AcDbText
  0
TEXT
  5
174
100
AcDbEntity
  8
0
370
    15
390
0
  6
Continuous
 62
     7
100
AcDbText
 10
20.353026
 20
17.619423
 30
0.0
 40
0.062
  1
OTHERWISE
 50
270.0
  7
Vcadd_SIMP
100
AcDbText
  0
TEXT
  5
175
100
AcDbEntity
  8
0
370
    15
390
0
  6
Continuous
 62
     7
100
AcDbText
 10
20.240966
 20
17.617271
 30
0.0
 40
0.062
  1
SPECIFIED
 50
270.0
  7
Vcadd_SIMP
100
AcDbText
  0
TEXT
  5
176
100
AcDbEntity
  8
0
370
    15
390
0
  6
Continuous
 62
     7
100
AcDbText
 10
20.443976
 20
13.806588
 30
0.0
 40
0.062
  1
REVISION
 50
270.0
  7
Vcadd_SIMP
100
AcDbText
  0
TEXT
  5
177
100
AcDbEntity
  8
0
370
    15
390
0
  6
Continuous
 62
     7
100
AcDbText
 10
20.023837
 20
16.816294
 30
0.0
 40
0.062
  1
SCALE
 50
270.0
  7
Vcadd_SIMP
100
AcDbText
  0
TEXT
  5
178
100
AcDbEntity
  8
0
370
    15
390
0
  6
Continuous
 62
     7
100
AcDbText
 10
20.023837
 20
16.816294
 30
0.0
 40
0.062
  1
      REF.                
 50
270.0
  7
Vcadd_SIMP
100
AcDbText
  0
TEXT
  5
179
100
AcDbEntity
  8
0
370
    15
390
0
  6
Continuous
 62
     7
100
AcDbText
 10
20.023837
 20
15.182515
 30
0.0
 40
0.062
  1
MATERIAL
 50
270.0
  7
Vcadd_SIMP
100
AcDbText
  0
TEXT
  5
17A
100
AcDbEntity
  8
0
370
    15
390
0
  6
Continuous
 62
     7
100
AcDbText
 10
19.656481
 20
16.811228
 30
0.0
 40
0.062
  1
DRAWN    
 50
270.0
  7
Vcadd_SIMP
100
AcDbText
  0
TEXT
  5
17B
100
AcDbEntity
  8
0
370
    15
390
0
  6
Continuous
 62
     7
100
AcDbText
 10
19.656481
 20
16.27554
 30
0.0
 40
0.062
  1
CHECK 
 50
270.0
  7
Vcadd_SIMP
100
AcDbText
  0
TEXT
  5
17C
100
AcDbEntity
  8
0
370
    15
390
0
  6
Continuous
 62
     7
100
AcDbText
 10
19.656481
 20
15.734785
 30
0.0
 40
0.062
  1
RELEASE
 50
270.0
  7
Vcadd_SIMP
100
AcDbText
  0
TEXT
  5
17D
100
AcDbEntity
  8
0
370
    15
390
0
  6
Continuous
 62
     7
100
AcDbText
 10
19.367263
 20
16.805196
 30
0.0
 40
0.062
  1
DATE     
 50
270.0
  7
Vcadd_SIMP
100
AcDbText
  0
TEXT
  5
17E
100
AcDbEntity
  8
0
370
    15
390
0
  6
Continuous
 62
     7
100
AcDbText
 10
19.367263
 20
16.269508
 30
0.0
 40
0.062
  1
DATE  
 50
270.0
  7
Vcadd_SIMP
100
AcDbText
  0
TEXT
  5
17F
100
AcDbEntity
  8
0
370
    15
390
0
  6
Continuous
 62
     7
100
AcDbText
 10
19.367263
 20
15.728753
 30
0.0
 40
0.062
  1
DATE
 50
270.0
  7
Vcadd_SIMP
100
AcDbText
  0
TEXT
  5
180
100
AcDbEntity
  8
0
370
    15
390
0
  6
Continuous
 62
     7
100
AcDbText
 10
19.656481
 20
15.185778
 30
0.0
 40
0.062
  1
HEAT TREAT & FINISH
 50
270.0
  7
Vcadd_SIMP
100
AcDbText
  0
TEXT
  5
181
100
AcDbEntity
  8
0
370
    15
390
0
  6
Continuous
 62
     7
100
AcDbText
 10
20.443976
 20
13.620587
 30
0.0
 40
0.062
  1
      PART NO.
 50
270.0
  7
Vcadd_SIMP
100
AcDbText
  0
TEXT
  5
182
100
AcDbEntity
  8
0
370
    15
390
0
  6
Continuous
 62
     7
100
AcDbText
 10
29.073023
 20
13.819042
 30
0.0
 40
0.062
  1
REVISION PART NO.
 50
270.0
  7
Vcadd_SIMP
100
AcDbText
  0
TEXT
  5
183
100
AcDbEntity
  8
0
370
    15
390
0
  6
Continuous
 62
     7
100
AcDbText
 10
20.443946
 20
16.807778
 30
0.0
 40
0.062
  1
TITLE
 50
270.0
  7
Vcadd_SIMP
100
AcDbText
  0
TEXT
  5
184
100
AcDbEntity
  8
0
370
    15
390
0
  6
Continuous
 62
     7
100
AcDbText
 10
19.811831
 20
16.781772
 30
0.0
 40
0.094
  1
2:1
 50
270.0
  7
Vcadd_SIMP
100
AcDbText
  0
TEXT
  5
185
100
AcDbEntity
  8
0
370
    15
390
0
  6
Continuous
 62
     7
100
AcDbText
 10
19.509616
 20
16.775608
 30
0.0
 40
0.094
  1
HHP   JDA
 50
270.0
  7
Vcadd_SIMP
100
AcDbText
  0
TEXT
  5
186
100
AcDbEntity
  8
0
370
    15
390
0
  6
Continuous
 62
     7
100
AcDbText
 10
19.225905
 20
16.775607
 30
0.0
 40
0.065
  1
5-4-76  5-20-76
 50
270.0
  7
Vcadd_SIMP
100
AcDbText
  0
TEXT
  5
187
100
AcDbEntity
  8
4
370
    15
390
0
  6
Continuous
 62
     7
100
AcDbText
 10
22.859664
 20
21.921803
 30
0.0
 40
0.16275
  1
O
  7
Vcadd_SIMP
100
AcDbText
  0
TEXT
  5
188
100
AcDbEntity
  8
4
370
    15
390
0
  6
Continuous
 62
     7
100
AcDbText
 10
22.859664
 20
20.830237
 30
0.0
 40
0.16275
  1
O
  7
Vcadd_SIMP
100
AcDbText
  0
TEXT
  5
189
100
AcDbEntity
  8
4
370
    15
390
0
  6
Continuous
 62
     7
100
AcDbText
 10
22.859664
 20
19.77834
 30
0.0
 40
0.16275
  1
O
  7
Vcadd_SIMP
100
AcDbText
  0
TEXT
  5
18A
100
AcDbEntity
  8
0
370
    15
390
0
  6
Continuous
 62
     7
100
AcDbText
 10
19.398894
 20
21.645783
 30
0.0
 40
0.06
  1
K
 50
270.0
  7
Vcadd_SIMP
100
AcDbText
  0
TEXT
  5
18B
100
AcDbEntity
  8
0
370
    15
390
0
  6
Continuous
 62
     7
100
AcDbText
 10
19.38399
 20
20.198065
 30
0.0
 40
0.06
  1
.
 50
270.0
  7
Vcadd_SIMP
100
AcDbText
  0
TEXT
  5
18C
100
AcDbEntity
  8
0
370
    15
390
0
  6
Continuous
 62
     7
100
AcDbText
 10
19.38399
 20
18.573484
 30
0.0
 40
0.069
  1
BRS
 50
270.0
  7
Vcadd_SIMP
100
AcDbText
  0
TEXT
  5
18D
100
AcDbEntity
  8
4
370
    15
390
0
  6
Continuous
 62
     7
100
AcDbText
 10
22.119803
 20
20.916905
 30
0.0
 40
0.142
  1
27,38
  7
Vcadd_SIMP
100
AcDbText
  0
TEXT
  5
18E
100
AcDbEntity
  8
4
370
    15
390
0
  6
Continuous
 62
     7
100
AcDbText
 10
22.119803
 20
20.739405
 30
0.0
 40
0.142
  1
27,43
  7
Vcadd_SIMP
100
AcDbText
  0
TEXT
  5
18F
100
AcDbEntity
  8
4
370
    15
390
0
  6
Continuous
 62
     7
100
AcDbText
 10
22.130534
 20
19.866614
 30
0.0
 40
0.142
  1
26,19
  7
Vcadd_SIMP
100
AcDbText
  0
TEXT
  5
190
100
AcDbEntity
  8
4
370
    15
390
0
  6
Continuous
 62
     7
100
AcDbText
 10
22.130534
 20
19.689114
 30
0.0
 40
0.142
  1
26,24
  7
Vcadd_SIMP
100
AcDbText
  0
TEXT
  5
191
100
AcDbEntity
  8
4
370
    15
390
0
  6
Continuous
 62
     7
100
AcDbText
 10
27.144381
 20
23.160141
 30
0.0
 40
0.142
  1
38,10
  7
Vcadd_SIMP
100
AcDbText
  0
TEXT
  5
192
100
AcDbEntity
  8
4
370
    15
390
0
  6
Continuous
 62
     7
100
AcDbText
 10
27.904593
 20
23.139326
 30
0.0
 40
0.16275
  1
O
  7
Vcadd_SIMP
100
AcDbText
  0
TEXT
  5
193
100
AcDbEntity
  8
4
370
    15
390
0
  6
Continuous
 62
     7
100
AcDbText
 10
28.421015
 20
20.599247
 30
0.0
 40
0.142
  1
5,56
  7
Vcadd_SIMP
100
AcDbText
  0
TEXT
  5
194
100
AcDbEntity
  8
4
370
    15
390
0
  6
Continuous
 62
     7
100
AcDbText
 10
28.383464
 20
21.590245
 30
0.0
 40
0.142
  1
18,26
  7
Vcadd_SIMP
100
AcDbText
  0
TEXT
  5
195
100
AcDbEntity
  8
4
370
    15
390
0
  6
Continuous
 62
     7
100
AcDbText
 10
28.327143
 20
18.725182
 30
0.0
 40
0.142
  1
18,26
  7
Vcadd_SIMP
100
AcDbText
  0
TEXT
  5
196
100
AcDbEntity
  8
4
370
    15
390
0
  6
Continuous
 62
     7
100
AcDbText
 10
21.771659
 20
19.787424
 30
0.0
 40
0.142
  1
A
  7
Vcadd_SIMP
100
AcDbText
  0
TEXT
  5
197
100
AcDbEntity
  8
4
370
    15
390
0
  6
Continuous
 62
     7
100
AcDbText
 10
25.197856
 20
15.86193
 30
0.0
 40
0.16275
  1
O
  7
Vcadd_SIMP
100
AcDbText
  0
TEXT
  5
198
100
AcDbEntity
  8
4
370
    15
390
0
  6
Continuous
 62
     7
100
AcDbText
 10
19.382464
 20
19.094582
 30
0.0
 40
0.084987
  1
06 JUL93
 50
270.0
 41
0.72
  7
Vcadd_SIMP
100
AcDbText
  0
LINE
  5
199
100
AcDbEntity
  8
4
370
    15
390
0
  6
Continuous
 62
     7
100
AcDbLine
 10
24.238742
 20
14.377586
 30
0.0
 11
24.606207
 21
14.377586
 31
0.0
  0
LINE
  5
19A
100
AcDbEntity
  8
4
370
    15
390
0
  6
Continuous
 62
     7
100
AcDbLine
 10
24.606207
 20
14.377586
 30
0.0
 11
24.606207
 21
14.709173
 31
0.0
  0
LINE
  5
19B
100
AcDbEntity
  8
4
370
    15
390
0
  6
Continuous
 62
     7
100
AcDbLine
 10
24.606207
 20
14.709173
 30
0.0
 11
24.238742
 21
14.709173
 31
0.0
  0
LINE
  5
19C
100
AcDbEntity
  8
4
370
    15
390
0
  6
Continuous
 62
     7
100
AcDbLine
 10
24.238742
 20
14.709173
 30
0.0
 11
24.238742
 21
14.377586
 31
0.0
  0
CIRCLE
  5
19D
100
AcDbEntity
  8
4
370
    15
390
0
  6
Continuous
 62
     7
100
AcDbCircle
 10
24.422474
 20
14.543379
 30
0.0
 40
0.129336
  0
CIRCLE
  5
19E
100
AcDbEntity
  8
4
370
    15
390
0
  6
Continuous
 62
     7
100
AcDbCircle
 10
24.422474
 20
14.543379
 30
0.0
 40
0.057001
  0
HATCH
  5
19F
100
AcDbEntity
  8
4
370
     0
390
0
  6
Continuous
 62
     7
100
AcDbHatch
 10
0.0
 20
0.0
 30
0.0
210
0.0
220
0.0
230
1.0
  2
SOLID
 70
     1
 71
     0
 91
        1
 92
        1
 93
        1
 72
     2
 10
24.422474417054531
 20
14.543379398478752
 40
0.0570005946738519
 50
0.0
 51
359.999994
 73
     1
 97
        0
 75
     0
 76
     1
 98
        1
 10
0.0
 20
0.0
  0
LINE
  5
1A0
100
AcDbEntity
  8
4
370
    15
390
0
  6
Continuous
 62
     7
100
AcDbLine
 10
24.606207
 20
14.709173
 30
0.0
 11
25.589794
 21
14.709173
 31
0.0
  0
LINE
  5
1A1
100
AcDbEntity
  8
4
370
    15
390
0
  6
Continuous
 62
     7
100
AcDbLine
 10
24.606207
 20
14.377586
 30
0.0
 11
25.589794
 21
14.377586
 31
0.0
  0
LINE
  5
1A2
100
AcDbEntity
  8
4
370
    15
390
0
  6
Continuous
 62
     7
100
AcDbLine
 10
25.589794
 20
14.709173
 30
0.0
 11
25.589794
 21
14.377586
 31
0.0
  0
LINE
  5
1A3
100
AcDbEntity
  8
4
370
    15
390
0
  6
Continuous
 62
     7
100
AcDbLine
 10
25.589794
 20
14.377586
 30
0.0
 11
25.957259
 21
14.377586
 31
0.0
  0
LINE
  5
1A4
100
AcDbEntity
  8
4
370
    15
390
0
  6
Continuous
 62
     7
100
AcDbLine
 10
25.957259
 20
14.377586
 30
0.0
 11
25.957259
 21
14.709173
 31
0.0
  0
LINE
  5
1A5
100
AcDbEntity
  8
4
370
    15
390
0
  6
Continuous
 62
     7
100
AcDbLine
 10
25.957259
 20
14.709173
 30
0.0
 11
25.589794
 21
14.709173
 31
0.0
  0
TEXT
  5
1A6
100
AcDbEntity
  8
4
370
    15
390
0
  6
Continuous
 62
     7
100
AcDbText
 10
25.636404
 20
14.41579
 30
0.0
 40
0.24
  1
A
  7
Vcadd_SIMP
 72
     1
 11
25.774404
 21
14.41579
 31
0.0
100
AcDbText
  0
TEXT
  5
1A7
100
AcDbEntity
  8
4
370
    15
390
0
  6
Continuous
 62
     7
100
AcDbText
 10
24.519353
 20
14.424444
 30
0.0
 40
0.24
  1
0,05
  7
Vcadd_SIMP
 72
     1
 11
25.071353
 21
14.424444
 31
0.0
100
AcDbText
  0
LINE
  5
1A8
100
AcDbEntity
  8
3
370
    15
390
0
  6
Continuous
 62
     1
100
AcDbLine
 10
23.543315
 20
16.622842
 30
0.0
 11
23.403521
 21
16.402922
 31
0.0
  0
LINE
  5
1A9
100
AcDbEntity
  8
3
370
    15
390
0
  6
Continuous
 62
     1
100
AcDbLine
 10
23.211033
 20
16.402922
 30
0.0
 11
23.403521
 21
16.402922
 31
0.0
  0
LINE
  5
1AA
100
AcDbEntity
  8
14
370
    15
390
0
  6
Continuous
 62
     7
100
AcDbLine
 10
21.361311
 20
15.5601
 30
0.0
 11
22.673374
 21
15.5601
 31
0.0
  0
LINE
  5
1AB
100
AcDbEntity
  8
14
370
    15
390
0
  6
Continuous
 62
     7
100
AcDbLine
 10
21.477842
 20
14.755769
 30
0.0
 11
21.477842
 21
15.412568
 31
0.0
  0
LINE
  5
1AC
100
AcDbEntity
  8
14
370
    15
390
0
  6
Continuous
 62
     7
100
AcDbLine
 10
22.556842
 20
15.443568
 30
0.0
 11
21.508842
 21
15.443568
 31
0.0
  0
LINE
  5
1AD
100
AcDbEntity
  8
14
370
    15
390
0
  6
Continuous
 62
     7
100
AcDbLine
 10
21.477842
 20
15.443568
 30
0.0
 11
21.508842
 21
15.443568
 31
0.0
  0
LINE
  5
1AE
100
AcDbEntity
  8
14
370
    15
390
0
  6
Continuous
 62
     7
100
AcDbLine
 10
21.477842
 20
15.412568
 30
0.0
 11
21.477842
 21
15.430728
 31
0.0
  0
ARC
  5
1AF
100
AcDbEntity
  8
14
370
    15
390
0
  6
Continuous
 62
     7
100
AcDbCircle
 10
21.44685
 20
15.430731
 30
0.0
 40
0.030992
100
AcDbArc
 50
359.994592
 51
405.009182
  0
LINE
  5
1B0
100
AcDbEntity
  8
14
370
    15
390
0
  6
Continuous
 62
     7
100
AcDbLine
 10
21.361311
 20
15.5601
 30
0.0
 11
21.468761
 21
15.452649
 31
0.0
  0
LINE
  5
1B1
100
AcDbEntity
  8
14
370
    15
390
0
  6
Continuous
 62
     7
100
AcDbLine
 10
21.477842
 20
15.443568
 30
0.0
 11
21.475341
 21
15.443568
 31
0.0
  0
LINE
  5
1B2
100
AcDbEntity
  8
14
370
    15
390
0
  6
Continuous
 62
     7
100
AcDbLine
 10
22.556842
 20
14.755769
 30
0.0
 11
22.556842
 21
15.430728
 31
0.0
  0
ARC
  5
1B3
100
AcDbEntity
  8
14
370
    15
390
0
  6
Continuous
 62
     7
100
AcDbCircle
 10
22.587843
 20
15.430729
 30
0.0
 40
0.031001
100
AcDbArc
 50
135.002585
 51
180.002151
  0
LINE
  5
1B4
100
AcDbEntity
  8
14
370
    15
390
0
  6
Continuous
 62
     7
100
AcDbLine
 10
22.673374
 20
15.5601
 30
0.0
 11
22.565921
 21
15.452649
 31
0.0
  0
LINE
  5
1B5
100
AcDbEntity
  8
14
370
    15
390
0
  6
Continuous
 62
     7
100
AcDbLine
 10
22.556842
 20
15.443568
 30
0.0
 11
22.559341
 21
15.443568
 31
0.0
  0
LINE
  5
1B6
100
AcDbEntity
  8
14
370
    15
390
0
  6
Continuous
 62
     7
100
AcDbLine
 10
22.53284
 20
14.599769
 30
0.0
 11
22.48405
 21
14.550979
 31
0.0
  0
LINE
  5
1B7
100
AcDbEntity
  8
14
370
    15
390
0
  6
Continuous
 62
     7
100
AcDbLine
 10
22.48405
 20
14.550979
 30
0.0
 11
22.48405
 21
13.706769
 31
0.0
  0
LINE
  5
1B8
100
AcDbEntity
  8
14
370
    15
390
0
  6
Continuous
 62
     7
100
AcDbLine
 10
21.500843
 20
14.599769
 30
0.0
 11
22.53284
 21
14.599769
 31
0.0
  0
LINE
  5
1B9
100
AcDbEntity
  8
14
370
    15
390
0
  6
Continuous
 62
     7
100
AcDbLine
 10
22.48405
 20
14.550979
 30
0.0
 11
21.549051
 21
14.550979
 31
0.0
  0
LINE
  5
1BA
100
AcDbEntity
  8
14
370
    15
390
0
  6
Continuous
 62
     7
100
AcDbLine
 10
21.549051
 20
14.550979
 30
0.0
 11
21.500843
 21
14.599769
 31
0.0
  0
LINE
  5
1BB
100
AcDbEntity
  8
14
370
    15
390
0
  6
Continuous
 62
     7
100
AcDbLine
 10
21.549051
 20
14.550979
 30
0.0
 11
21.549051
 21
13.706979
 31
0.0
  0
LINE
  5
1BC
100
AcDbEntity
  8
14
370
    15
390
0
  6
Continuous
 62
     7
100
AcDbLine
 10
21.549051
 20
13.706979
 30
0.0
 11
22.48405
 21
13.706769
 31
0.0
  0
LINE
  5
1BD
100
AcDbEntity
  8
14
370
    15
390
0
  6
Continuous
 62
     7
100
AcDbLine
 10
21.477842
 20
14.755769
 30
0.0
 11
22.556842
 21
14.755769
 31
0.0
  0
LINE
  5
1BE
100
AcDbEntity
  8
14
370
    15
390
0
  6
Continuous
 62
     7
100
AcDbLine
 10
22.454353
 20
13.369071
 30
0.0
 11
21.57875
 21
13.369281
 31
0.0
  0
LINE
  5
1BF
100
AcDbEntity
  8
14
370
    15
390
0
  6
Continuous
 62
     7
100
AcDbLine
 10
21.57875
 20
13.369281
 30
0.0
 11
21.57875
 21
13.664439
 31
0.0
  0
ARC
  5
1C0
100
AcDbEntity
  8
14
370
    15
390
0
  6
Continuous
 62
     7
100
AcDbCircle
 10
21.547737
 20
13.664433
 30
0.0
 40
0.031013
100
AcDbArc
 50
0.010965
 51
44.99281
  0
LINE
  5
1C1
100
AcDbEntity
  8
14
370
    15
390
0
  6
Continuous
 62
     7
100
AcDbLine
 10
21.549051
 20
13.706979
 30
0.0
 11
21.569669
 21
13.68636
 31
0.0
  0
LINE
  5
1C2
100
AcDbEntity
  8
14
370
    15
390
0
  6
Continuous
 62
     7
100
AcDbLine
 10
22.48405
 20
13.706769
 30
0.0
 11
22.463432
 21
13.686151
 31
0.0
  0
ARC
  5
1C3
100
AcDbEntity
  8
14
370
    15
390
0
  6
Continuous
 62
     7
100
AcDbCircle
 10
22.485354
 20
13.664231
 30
0.0
 40
0.031001
100
AcDbArc
 50
135.002585
 51
180.002151
  0
LINE
  5
1C4
100
AcDbEntity
  8
14
370
    15
390
0
  6
Continuous
 62
     7
100
AcDbLine
 10
22.454353
 20
13.369071
 30
0.0
 11
22.454353
 21
13.66423
 31
0.0
  0
LINE
  5
1C5
100
AcDbEntity
  8
14
370
    15
390
0
  6
Continuous
 62
     7
100
AcDbLine
 10
21.575678
 20
13.677894
 30
0.0
 11
22.456712
 21
13.676093
 31
0.0
  0
LINE
  5
1C6
100
AcDbEntity
  8
14
370
    15
390
0
  6
Continuous
 62
     7
100
AcDbLine
 10
22.360841
 20
13.369174
 30
0.0
 11
22.360841
 21
12.973174
 31
0.0
  0
LINE
  5
1C7
100
AcDbEntity
  8
14
370
    15
390
0
  6
Continuous
 62
     7
100
AcDbLine
 10
21.672842
 20
13.369174
 30
0.0
 11
21.672842
 21
12.973174
 31
0.0
  0
LINE
  5
1C8
100
AcDbEntity
  8
14
370
    15
390
0
  6
Continuous
 62
     7
100
AcDbLine
 10
21.672842
 20
12.973174
 30
0.0
 11
22.360841
 21
12.973174
 31
0.0
  0
LINE
  5
1C9
100
AcDbEntity
  8
14
370
    15
390
0
  6
Continuous
 62
     7
100
AcDbLine
 10
22.360841
 20
12.973174
 30
0.0
 11
22.009235
 21
12.770175
 31
0.0
  0
LINE
  5
1CA
100
AcDbEntity
  8
14
370
    15
390
0
  6
Continuous
 62
     7
100
AcDbLine
 10
21.672842
 20
12.973174
 30
0.0
 11
22.024448
 21
12.770175
 31
0.0
  0
LINE
  5
1CB
100
AcDbEntity
  8
14
370
    15
390
0
  6
Continuous
 62
     7
100
AcDbLine
 10
22.016842
 20
15.215394
 30
0.0
 11
22.016842
 21
15.104852
 31
0.0
  0
LINE
  5
1CC
100
AcDbEntity
  8
14
370
    15
390
0
  6
Continuous
 62
     7
100
AcDbLine
 10
22.016842
 20
15.049581
 30
0.0
 11
22.016842
 21
14.248145
 31
0.0
  0
LINE
  5
1CD
100
AcDbEntity
  8
14
370
    15
390
0
  6
Continuous
 62
     7
100
AcDbLine
 10
22.016842
 20
14.179055
 30
0.0
 11
22.016842
 21
14.08233
 31
0.0
  0
LINE
  5
1CE
100
AcDbEntity
  8
14
370
    15
390
0
  6
Continuous
 62
     7
100
AcDbLine
 10
22.016842
 20
14.01324
 30
0.0
 11
22.016842
 21
12.686726
 31
0.0
  0
LINE
  5
1CF
100
AcDbEntity
  8
14
370
    15
390
0
  6
Continuous
 62
     7
100
AcDbLine
 10
21.500843
 20
14.73845
 30
0.0
 11
21.490843
 21
14.755769
 31
0.0
  0
LINE
  5
1D0
100
AcDbEntity
  8
14
370
    15
390
0
  6
Continuous
 62
     7
100
AcDbLine
 10
21.500843
 20
14.73845
 30
0.0
 11
21.500843
 21
14.599769
 31
0.0
  0
LINE
  5
1D1
100
AcDbEntity
  8
14
370
    15
390
0
  6
Continuous
 62
     7
100
AcDbLine
 10
22.53284
 20
14.738448
 30
0.0
 11
22.542841
 21
14.755769
 31
0.0
  0
LINE
  5
1D2
100
AcDbEntity
  8
14
370
    15
390
0
  6
Continuous
 62
     7
100
AcDbLine
 10
22.53284
 20
14.738448
 30
0.0
 11
22.53284
 21
14.599769
 31
0.0
  0
LINE
  5
1D3
100
AcDbEntity
  8
14
370
    15
390
0
  6
Continuous
 62
     7
100
AcDbLine
 10
21.500843
 20
14.73845
 30
0.0
 11
22.53284
 21
14.738448
 31
0.0
  0
POINT
  5
1D4
100
AcDbEntity
  8
100
370
    15
390
0
  6
Continuous
 62
     7
100
AcDbPoint
 10
22.016842
 20
14.755769
 30
0.0
  0
LINE
  5
1D5
100
AcDbEntity
  8
14
370
    15
390
0
  6
CL____X1
 62
     7
100
AcDbLine
 10
21.516842
 20
14.130769
 30
0.0
 11
21.516842
 21
14.578769
 31
0.0
  0
LINE
  5
1D6
100
AcDbEntity
  8
14
370
    15
390
0
  6
CL____X1
 62
     7
100
AcDbLine
 10
22.516842
 20
14.130769
 30
0.0
 11
22.516842
 21
14.578769
 31
0.0
  0
LINE
  5
1D7
100
AcDbEntity
  8
14
370
    15
390
0
  6
CL____X1
 62
     7
100
AcDbLine
 10
21.516842
 20
14.130769
 30
0.0
 11
22.516842
 21
14.130769
 31
0.0
  0
LINE
  5
1D8
100
AcDbEntity
  8
14
370
    15
390
0
  6
Continuous
 62
     7
100
AcDbLine
 10
21.266842
 20
15.880769
 30
0.0
 11
21.361311
 21
15.826227
 31
0.0
  0
LINE
  5
1D9
100
AcDbEntity
  8
14
370
    15
390
0
  6
Continuous
 62
     7
100
AcDbLine
 10
21.361311
 20
15.5601
 30
0.0
 11
21.361311
 21
15.826227
 31
0.0
  0
LINE
  5
1DA
100
AcDbEntity
  8
14
370
    15
390
0
  6
Continuous
 62
     7
100
AcDbLine
 10
22.673374
 20
15.5601
 30
0.0
 11
22.673374
 21
15.826227
 31
0.0
  0
LINE
  5
1DB
100
AcDbEntity
  8
14
370
    15
390
0
  6
Continuous
 62
     7
100
AcDbLine
 10
21.361311
 20
15.826227
 30
0.0
 11
22.673374
 21
15.826227
 31
0.0
  0
LINE
  5
1DC
100
AcDbEntity
  8
14
370
    15
390
0
  6
Continuous
 62
     7
100
AcDbLine
 10
22.766842
 20
15.880769
 30
0.0
 11
22.672373
 21
15.826227
 31
0.0
  0
LINE
  5
1DD
100
AcDbEntity
  8
14
370
    15
390
0
  6
Continuous
 62
     7
100
AcDbLine
 10
21.266842
 20
15.880769
 30
0.0
 11
22.766842
 21
15.880769
 31
0.0
  0
LINE
  5
1DE
100
AcDbEntity
  8
14
370
    15
390
0
  6
Continuous
 62
     7
100
AcDbLine
 10
21.266842
 20
16.020281
 30
0.0
 11
21.266842
 21
15.880769
 31
0.0
  0
LINE
  5
1DF
100
AcDbEntity
  8
14
370
    15
390
0
  6
Continuous
 62
     7
100
AcDbLine
 10
22.766842
 20
16.020281
 30
0.0
 11
22.766842
 21
15.880769
 31
0.0
  0
LINE
  5
1E0
100
AcDbEntity
  8
14
370
    15
390
0
  6
Continuous
 62
     7
100
AcDbLine
 10
22.016842
 20
16.062301
 30
0.0
 11
22.016842
 21
15.256848
 31
0.0
  0
LINE
  5
1E1
100
AcDbEntity
  8
0
370
    15
390
0
  6
Continuous
 62
     1
100
AcDbLine
 10
28.925725
 20
23.349451
 30
0.0
 11
28.925725
 21
23.349451
 31
0.0
  0
LINE
  5
1E2
100
AcDbEntity
  8
4
370
    15
390
0
  6
Continuous
 62
     1
100
AcDbLine
 10
26.992625
 20
24.019297
 30
0.0
 11
26.881435
 21
24.019297
 31
0.0
  0
LINE
  5
1E3
100
AcDbEntity
  8
4
370
    15
390
0
  6
Continuous
 62
     1
100
AcDbLine
 10
26.881435
 20
24.019297
 30
0.0
 11
26.881435
 21
23.429478
 31
0.0
  0
LINE
  5
1E4
100
AcDbEntity
  8
4
370
    15
390
0
  6
Continuous
 62
     1
100
AcDbLine
 10
26.881435
 20
23.429478
 30
0.0
 11
28.194276
 21
23.429478
 31
0.0
  0
LINE
  5
1E5
100
AcDbEntity
  8
4
370
    15
390
0
  6
Continuous
 62
     1
100
AcDbLine
 10
27.320645
 20
22.469822
 30
0.0
 11
27.193034
 21
22.215338
 31
0.0
  0
LINE
  5
1E6
100
AcDbEntity
  8
4
370
    15
390
0
  6
Continuous
 62
     1
100
AcDbLine
 10
26.535508
 20
22.469822
 30
0.0
 11
27.320645
 21
22.469822
 31
0.0
  0
LINE
  5
1E7
100
AcDbEntity
  8
4
370
    15
390
0
  6
Continuous
 62
     1
100
AcDbLine
 10
27.193034
 20
22.215338
 30
0.0
 11
28.277275
 21
22.215338
 31
0.0
  0
LINE
  5
1E8
100
AcDbEntity
  8
4
370
    15
390
0
  6
Continuous
 62
     1
100
AcDbLine
 10
28.194276
 20
23.429478
 30
0.0
 11
28.194276
 21
23.213681
 31
0.0
  0
LINE
  5
1E9
100
AcDbEntity
  8
4
370
    15
390
0
  6
Continuous
 62
     1
100
AcDbLine
 10
28.08963
 20
23.213681
 30
0.0
 11
28.194276
 21
23.213681
 31
0.0
  0
TEXT
  5
1EA
100
AcDbEntity
  8
4
370
    15
390
0
  6
Continuous
 62
     7
100
AcDbText
 10
28.297577
 20
22.149047
 30
0.0
 40
0.142
  1
28,57*
  7
Vcadd_SIMP
100
AcDbText
  0
TEXT
  5
1EB
100
AcDbEntity
  8
4
370
    15
390
0
  6
Continuous
 62
     7
100
AcDbText
 10
28.297577
 20
21.936047
 30
0.0
 40
0.142
  1
 REF
  7
Vcadd_SIMP
100
AcDbText
  0
LINE
  5
1EC
100
AcDbEntity
  8
4
370
    15
390
0
  6
Continuous
 62
     1
100
AcDbLine
 10
24.116437
 20
19.701244
 30
0.0
 11
24.63995
 21
19.177732
 31
0.0
  0
ARC
  5
1ED
100
AcDbEntity
  8
4
370
    15
390
0
  6
Continuous
 62
     1
100
AcDbCircle
 10
24.007441
 20
19.81024
 30
0.0
 40
0.731923
100
AcDbArc
 50
315.0
 51
334.186528
  0
ARC
  5
1EE
100
AcDbEntity
  8
4
370
    15
390
0
  6
Continuous
 62
     1
100
AcDbCircle
 10
24.007441
 20
19.81024
 30
0.0
 40
0.731923
100
AcDbArc
 50
248.456372
 51
270.0
  0
TEXT
  5
1EF
100
AcDbEntity
  8
4
370
    15
390
0
  6
Continuous
 62
     7
100
AcDbText
 10
24.100091
 20
19.093665
 30
0.0
 40
0.142
  1
45^  
  7
Vcadd_SIMP
100
AcDbText
  0
TEXT
  5
1F0
100
AcDbEntity
  8
0
370
    15
390
0
  6
Continuous
 62
     7
100
AcDbText
 10
19.825405
 20
16.33268
 30
0.0
 40
0.12032
  1
SERIES 2
 50
270.0
  7
Vcadd_SIMP
100
AcDbText
  0
LINE
  5
1F1
100
AcDbEntity
  8
1
370
    15
390
0
  6
Continuous
 62
     7
100
AcDbLine
 10
20.645554
 20
22.324236
 30
0.0
 11
20.780758
 21
22.324236
 31
0.0
  0
LINE
  5
1F2
100
AcDbEntity
  8
1
370
    15
390
0
  6
Continuous
 62
     7
100
AcDbLine
 10
20.895153
 20
22.12609
 30
0.0
 11
20.780758
 21
22.324236
 31
0.0
  0
CIRCLE
  5
1F3
100
AcDbEntity
  8
1
370
    15
390
0
  6
Continuous
 62
     1
100
AcDbCircle
 10
20.774796
 20
22.263472
 30
0.0
 40
0.276708
  0
LINE
  5
1F4
100
AcDbEntity
  8
1
370
    15
390
0
  6
Continuous
 62
     7
100
AcDbLine
 10
20.645554
 20
22.324236
 30
0.0
 11
20.645554
 21
22.510218
 31
0.0
  0
LINE
  5
1F5
100
AcDbEntity
  8
1
370
    15
390
0
  6
Continuous
 62
     7
100
AcDbLine
 10
20.895153
 20
22.014307
 30
0.0
 11
20.895153
 21
22.12609
 31
0.0
  0
LINE
  5
1F6
100
AcDbEntity
  8
1
370
    15
390
0
  6
Continuous
 62
     1
100
AcDbLine
 10
20.780758
 20
22.359225
 30
0.0
 11
20.780758
 21
22.882555
 31
0.0
  0
LINE
  5
1F7
100
AcDbEntity
  8
1
370
    15
390
0
  6
Continuous
 62
     1
100
AcDbLine
 10
20.499684
 20
22.811072
 30
0.0
 11
20.763607
 21
22.353941
 31
0.0
  0
INSERT
  5
205
100
AcDbEntity
  8
3
370
    40
390
0
  6
Continuous
 62
     1
100
AcDbBlockReference
  2
MAU
 10
20.780758
 20
22.797232
 30
0.0
 42
-1.0
 50
270.0
  0
LINE
  5
206
100
AcDbEntity
  8
3
370
    15
390
0
  6
Continuous
 62
     1
100
AcDbLine
 10
21.03344
 20
22.797232
 30
0.0
 11
20.780758
 21
22.797232
 31
0.0
  0
INSERT
  5
214
100
AcDbEntity
  8
3
370
    60
390
0
  6
Continuous
 62
     1
100
AcDbBlockReference
  2
MAL
 10
20.544758
 20
22.733
 30
0.0
 42
-1.0
 50
205.0
  0
LINE
  5
215
100
AcDbEntity
  8
3
370
    15
390
0
  6
Continuous
 62
     1
100
AcDbLine
 10
20.331189
 20
22.622511
 30
0.0
 11
20.544758
 21
22.733
 31
0.0
  0
INSERT
  5
216
100
AcDbEntity
  8
3
370
    40
390
0
  6
Continuous
 62
     1
100
AcDbBlockReference
  2
MAU
 10
20.780758
 20
22.43886
 30
0.0
 42
-1.0
 50
270.0
  0
LINE
  5
217
100
AcDbEntity
  8
3
370
    15
390
0
  6
Continuous
 62
     1
100
AcDbLine
 10
21.195084
 20
22.43886
 30
0.0
 11
20.780758
 21
22.43886
 31
0.0
  0
TEXT
  5
218
100
AcDbEntity
  8
4
370
    15
390
0
  6
Continuous
 62
     7
100
AcDbText
 10
21.078587
 20
22.728499
 30
0.0
 40
0.142
  1
30^ **
  7
Vcadd_SIMP
100
AcDbText
  0
LINE
  5
219
100
AcDbEntity
  8
4
370
    15
390
0
  6
Continuous
 62
     7
100
AcDbLine
 10
22.082292
 20
22.359152
 30
0.0
 11
22.162321
 21
22.527487
 31
0.0
  0
TEXT
  5
21A
100
AcDbEntity
  8
4
370
    15
390
0
  6
Continuous
 62
     7
100
AcDbText
 10
22.042177
 20
22.374318
 30
0.0
 40
0.16275
  1
O
  7
Vcadd_SIMP
100
AcDbText
  0
LINE
  5
21B
100
AcDbEntity
  8
3
370
    15
390
0
  6
Continuous
 62
     1
100
AcDbLine
 10
21.971357
 20
22.43886
 30
0.0
 11
21.195084
 21
22.43886
 31
0.0
  0
LINE
  5
21D
100
AcDbEntity
  8
4
370
    15
390
0
  6
TYPE___8
 62
     1
100
AcDbLine
 10
22.053077
 20
21.704594
 30
0.0
 11
20.931394
 21
22.478235
 31
0.0
  0
LINE
  5
21E
100
AcDbEntity
  8
4
370
    15
390
0
  6
TYPE___8
 62
     1
100
AcDbLine
 10
24.015091
 20
20.351363
 30
0.0
 11
23.356593
 21
20.805539
 31
0.0
  0
LINE
  5
21F
100
AcDbEntity
  8
4
370
    15
390
0
  6
TYPE___8
 62
     1
100
AcDbLine
 10
23.09591
 20
20.985336
 30
0.0
 11
22.29796
 21
21.535694
 31
0.0
  0
LINE
  5
220
100
AcDbEntity
  8
4
370
    15
390
0
  6
TYPE___8
 62
     1
100
AcDbLine
 10
23.820285
 20
20.111559
 30
0.0
 11
22.868223
 21
20.682481
 31
0.0
  0
LINE
  5
221
100
AcDbEntity
  8
4
370
    15
390
0
  6
TYPE___8
 62
     1
100
AcDbLine
 10
22.126722
 20
21.127136
 30
0.0
 11
21.564657
 21
21.46419
 31
0.0
  0
LINE
  5
222
100
AcDbEntity
  8
4
370
    15
390
0
  6
TYPE___8
 62
     1
100
AcDbLine
 10
21.157536
 20
21.708327
 30
0.0
 11
20.599325
 21
22.043069
 31
0.0
  0
TEXT
  5
223
100
AcDbEntity
  8
4
370
    15
390
0
  6
Continuous
 62
     7
100
AcDbText
 10
20.7727
 20
19.591462
 30
0.0
 40
0.142
  1
3,96
  7
Vcadd_SIMP
100
AcDbText
  0
TEXT
  5
224
100
AcDbEntity
  8
4
370
    15
390
0
  6
Continuous
 62
     7
100
AcDbText
 10
24.464463
 20
15.873678
 30
0.0
 40
0.142
  1
17,48
  7
Vcadd_SIMP
100
AcDbText
  0
TEXT
  5
225
100
AcDbEntity
  8
4
370
    15
390
0
  6
Continuous
 62
     7
100
AcDbText
 10
23.107207
 20
22.742093
 30
0.0
 40
0.142
  1
45^  
  7
Vcadd_SIMP
100
AcDbText
  0
TEXT
  5
226
100
AcDbEntity
  8
4
370
    15
390
0
  6
Continuous
 62
     7
100
AcDbText
 10
23.107207
 20
22.529093
 30
0.0
 40
0.142
  1
**
  7
Vcadd_SIMP
100
AcDbText
  0
LINE
  5
227
100
AcDbEntity
  8
3
370
    15
390
0
  6
Continuous
 62
     1
100
AcDbLine
 10
23.615457
 20
21.42428
 30
0.0
 11
23.346209
 21
21.42428
 31
0.0
  0
LINE
  5
228
100
AcDbEntity
  8
3
370
    15
390
0
  6
Continuous
 62
     1
100
AcDbLine
 10
23.857138
 20
21.593468
 30
0.0
 11
23.615457
 21
21.42428
 31
0.0
  0
TEXT
  5
229
100
AcDbEntity
  8
4
370
    15
390
0
  6
Continuous
 62
     7
100
AcDbText
 10
23.366437
 20
21.246089
 30
0.0
 40
0.142
  1
**
  7
Vcadd_SIMP
100
AcDbText
  0
LINE
  5
22A
100
AcDbEntity
  8
4
370
    15
390
0
  6
Continuous
 62
     7
100
AcDbLine
 10
23.278748
 20
18.455033
 30
0.0
 11
23.358776
 21
18.623368
 31
0.0
  0
LINE
  5
22B
100
AcDbEntity
  8
3
370
    15
390
0
  6
Continuous
 62
     1
100
AcDbLine
 10
23.184319
 20
18.534741
 30
0.0
 11
22.492123
 21
18.534741
 31
0.0
  0
LINE
  5
22C
100
AcDbEntity
  8
4
370
    15
390
0
  6
Continuous
 62
     7
100
AcDbLine
 10
23.278748
 20
17.661877
 30
0.0
 11
23.358776
 21
17.830212
 31
0.0
  0
TEXT
  5
22D
100
AcDbEntity
  8
4
370
    15
390
0
  6
Continuous
 62
     7
100
AcDbText
 10
23.238628
 20
18.470197
 30
0.0
 40
0.16275
  1
O
  7
Vcadd_SIMP
100
AcDbText
  0
TEXT
  5
22E
100
AcDbEntity
  8
4
370
    15
390
0
  6
Continuous
 62
     7
100
AcDbText
 10
23.238628
 20
17.677041
 30
0.0
 40
0.16275
  1
O
  7
Vcadd_SIMP
100
AcDbText
  0
TEXT
  5
22F
100
AcDbEntity
  8
4
370
    15
390
0
  6
Continuous
 62
     7
100
AcDbText
 10
22.51815
 20
17.768801
 30
0.0
 40
0.142
  1
22,23
  7
Vcadd_SIMP
100
AcDbText
  0
TEXT
  5
230
100
AcDbEntity
  8
4
370
    15
390
0
  6
Continuous
 62
     7
100
AcDbText
 10
22.51815
 20
17.5913
 30
0.0
 40
0.142
  1
22,28
  7
Vcadd_SIMP
100
AcDbText
  0
LINE
  5
231
100
AcDbEntity
  8
0
370
    15
390
0
  6
Continuous
 62
     1
100
AcDbLine
 10
23.799632
 20
17.9604
 30
0.0
 11
23.673617
 21
17.741135
 31
0.0
  0
LINE
  5
232
100
AcDbEntity
  8
0
370
    15
390
0
  6
Continuous
 62
     1
100
AcDbLine
 10
23.712916
 20
17.9604
 30
0.0
 11
23.799632
 21
17.9604
 31
0.0
  0
LINE
  5
233
100
AcDbEntity
  8
0
370
    15
390
0
  6
Continuous
 62
     1
100
AcDbLine
 10
23.673625
 20
17.74115
 30
0.0
 11
23.621226
 21
17.831913
 31
0.0
  0
LINE
  5
234
100
AcDbEntity
  8
3
370
    15
390
0
  6
Continuous
 62
     1
100
AcDbLine
 10
23.421063
 20
18.534741
 30
0.0
 11
24.007441
 21
18.534741
 31
0.0
  0
LINE
  5
235
100
AcDbEntity
  8
3
370
    15
390
0
  6
Continuous
 62
     1
100
AcDbLine
 10
24.066836
 20
17.741585
 30
0.0
 11
23.421063
 21
17.741585
 31
0.0
  0
LINE
  5
236
100
AcDbEntity
  8
3
370
    15
390
0
  6
Continuous
 62
     1
100
AcDbLine
 10
23.184319
 20
17.741585
 30
0.0
 11
22.493596
 21
17.741585
 31
0.0
  0
LINE
  5
237
100
AcDbEntity
  8
1
370
    15
390
0
  6
Continuous
 62
     1
100
AcDbLine
 10
23.931101
 20
18.121823
 30
0.0
 11
22.095049
 21
18.121823
 31
0.0
  0
TEXT
  5
238
100
AcDbEntity
  8
4
370
    15
390
0
  6
Continuous
 62
     7
100
AcDbText
 10
20.651992
 20
17.756921
 30
0.0
 40
0.142
  1
26,59
  7
Vcadd_SIMP
100
AcDbText
  0
LINE
  5
239
100
AcDbEntity
  8
1
370
    15
390
0
  6
Continuous
 62
     1
100
AcDbLine
 10
22.095049
 20
18.121823
 30
0.0
 11
22.200971
 21
17.822308
 31
0.0
  0
LINE
  5
23A
100
AcDbEntity
  8
1
370
    15
390
0
  6
Continuous
 62
     1
100
AcDbLine
 10
22.200971
 20
17.822308
 30
0.0
 11
21.377898
 21
17.822308
 31
0.0
  0
LINE
  5
23B
100
AcDbEntity
  8
1
370
    15
390
0
  6
Continuous
 62
     7
100
AcDbLine
 10
21.777332
 20
18.5503
 30
0.0
 11
21.841908
 21
18.485756
 31
0.0
  0
ARC
  5
23C
100
AcDbEntity
  8
1
370
    15
390
0
  6
Continuous
 62
     7
100
AcDbCircle
 10
21.78514
 20
18.429096
 30
0.0
 40
0.080205
100
AcDbArc
 50
0.057109
 51
44.945426
  0
CIRCLE
  5
23E
100
AcDbEntity
  8
3
370
    15
390
0
  6
PHANTOM
 62
     1
100
AcDbCircle
 10
21.809421
 20
18.501131
 30
0.0
 40
0.315099
  0
LINE
  5
23F
100
AcDbEntity
  8
1
370
    15
390
0
  6
Continuous
 62
     7
100
AcDbLine
 10
21.777332
 20
18.5503
 30
0.0
 11
21.777332
 21
18.814591
 31
0.0
  0
LINE
  5
240
100
AcDbEntity
  8
1
370
    15
390
0
  6
Continuous
 62
     7
100
AcDbLine
 10
21.865345
 20
18.429176
 30
0.0
 11
21.865345
 21
18.191034
 31
0.0
  0
LINE
  5
241
100
AcDbEntity
  8
3
370
    15
390
0
  6
Continuous
 62
     1
100
AcDbLine
 10
21.859242
 20
18.459785
 30
0.0
 11
21.521916
 21
18.278603
 31
0.0
  0
LINE
  5
242
100
AcDbEntity
  8
3
370
    15
390
0
  6
Continuous
 62
     1
100
AcDbLine
 10
21.521916
 20
18.278603
 30
0.0
 11
21.429344
 21
18.278603
 31
0.0
  0
LINE
  5
243
100
AcDbEntity
  8
3
370
    15
390
0
  6
Continuous
 62
     1
100
AcDbLine
 10
21.741577
 20
18.586039
 30
0.0
 11
21.40976
 21
18.917699
 31
0.0
  0
LINE
  5
244
100
AcDbEntity
  8
3
370
    15
390
0
  6
Continuous
 62
     1
100
AcDbLine
 10
21.777332
 20
18.873281
 30
0.0
 11
21.777332
 21
19.071729
 31
0.0
  0
ARC
  5
245
100
AcDbEntity
  8
3
370
    15
390
0
  6
Continuous
 62
     1
100
AcDbCircle
 10
21.777332
 20
18.5503
 30
0.0
 40
0.460409
100
AcDbArc
 50
65.863881
 51
90.0
  0
ARC
  5
246
100
AcDbEntity
  8
3
370
    15
390
0
  6
Continuous
 62
     1
100
AcDbCircle
 10
21.777332
 20
18.5503
 30
0.0
 40
0.460409
100
AcDbArc
 50
135.013542
 51
163.25445
  0
CIRCLE
  5
247
100
AcDbEntity
  8
1
370
    15
390
0
  6
DIVIDE
 62
     1
100
AcDbCircle
 10
24.050677
 20
18.099584
 30
0.0
 40
0.153886
  0
TEXT
  5
248
100
AcDbEntity
  8
4
370
    15
390
0
  6
Continuous
 62
     7
100
AcDbText
 10
22.018375
 20
18.960718
 30
0.0
 40
0.142
  1
45^  
  7
Vcadd_SIMP
100
AcDbText
  0
TEXT
  5
249
100
AcDbEntity
  8
4
370
    15
390
0
  6
Continuous
 62
     7
100
AcDbText
 10
22.018375
 20
18.783218
 30
0.0
 40
0.142
  1
**
  7
Vcadd_SIMP
100
AcDbText
  0
LINE
  5
24A
100
AcDbEntity
  8
4
370
    15
390
0
  6
TYPE___8
 62
     1
100
AcDbLine
 10
24.10635
 20
18.242419
 30
0.0
 11
23.408785
 21
18.419372
 31
0.0
  0
LINE
  5
24B
100
AcDbEntity
  8
4
370
    15
390
0
  6
TYPE___8
 62
     1
100
AcDbLine
 10
22.456453
 20
18.660953
 30
0.0
 11
21.89179
 21
18.804193
 31
0.0
  0
LINE
  5
24C
100
AcDbEntity
  8
4
370
    15
390
0
  6
TYPE___8
 62
     1
100
AcDbLine
 10
22.062675
 20
18.156651
 30
0.0
 11
21.772403
 21
18.18758
 31
0.0
  0
LINE
  5
24D
100
AcDbEntity
  8
4
370
    15
390
0
  6
TYPE___8
 62
     1
100
AcDbLine
 10
24.015826
 20
17.948544
 30
0.0
 11
23.868594
 21
17.964231
 31
0.0
  0
LINE
  5
24E
100
AcDbEntity
  8
4
370
    15
390
0
  6
TYPE___8
 62
     1
100
AcDbLine
 10
23.573218
 20
17.995703
 30
0.0
 11
22.76079
 21
18.082267
 31
0.0
  0
TEXT
  5
24F
100
AcDbEntity
  8
4
370
    15
390
0
  6
Continuous
 62
     7
100
AcDbText
 10
20.594421
 20
18.204724
 30
0.0
 40
0.142
  1
0,80 R
  7
Vcadd_SIMP
100
AcDbText
  0
TEXT
  5
250
100
AcDbEntity
  8
4
370
    15
390
0
  6
Continuous
 62
     7
100
AcDbText
 10
20.594421
 20
18.027224
 30
0.0
 40
0.142
  1
 **
  7
Vcadd_SIMP
100
AcDbText
  0
TEXT
  5
251
100
AcDbEntity
  8
0
370
    15
390
0
  6
Continuous
 62
     7
100
AcDbText
 10
19.535571
 20
21.437302
 30
0.0
 40
0.074
  1
17,48 WAS 17,25 (METRIC DWG ONLY)
 50
270.0
 41
0.75
  7
Vcadd_SIMP
100
AcDbText
  0
TEXT
  5
252
100
AcDbEntity
  8
0
370
    15
390
0
  6
Continuous
 62
     7
100
AcDbText
 10
19.694686
 20
21.638982
 30
0.0
 40
0.075
  1
L
 50
270.0
  7
Vcadd_SIMP
100
AcDbText
  0
TEXT
  5
253
100
AcDbEntity
  8
0
370
    15
390
0
  6
Continuous
 62
     7
100
AcDbText
 10
19.699775
 20
19.064249
 30
0.0
 40
0.074
  1
20JUL99
 50
270.0
 41
0.75
  7
Vcadd_SIMP
100
AcDbText
  0
TEXT
  5
254
100
AcDbEntity
  8
0
370
    15
390
0
  6
Continuous
 62
     7
100
AcDbText
 10
19.694465
 20
18.557621
 30
0.0
 40
0.074
  1
DAS
 50
270.0
 41
0.75
  7
Vcadd_SIMP
100
AcDbText
  0
LINE
  5
255
100
AcDbEntity
  8
0
370
    15
390
0
  6
Continuous
 62
     7
100
AcDbLine
 10
19.968424
 20
17.846123
 30
0.0
 11
19.968424
 21
21.721123
 31
0.0
  0
TEXT
  5
256
100
AcDbEntity
  8
0
370
    15
390
0
  6
Continuous
 62
     7
100
AcDbText
 10
19.683406
 20
21.431906
 30
0.0
 40
0.074
  1
0,05 CONCENTRICITY WAS 0,03
 50
270.0
  7
Vcadd_SIMP
100
AcDbText
  0
TEXT
  5
257
100
AcDbEntity
  8
4
370
    15
390
0
  6
Continuous
 62
     7
100
AcDbText
 10
21.190385
 20
16.335597
 30
0.0
 40
0.142
  1
0,30 x 45^  MAX
  7
Vcadd_SIMP
100
AcDbText
  0
TEXT
  5
258
100
AcDbEntity
  8
4
370
    15
390
0
  6
Continuous
 62
     7
100
AcDbText
 10
23.187963
 20
21.009963
 30
0.0
 40
0.104
  1
1,6
  7
Vcadd_SIMP
100
AcDbText
  0
TEXT
  5
259
100
AcDbEntity
  8
4
370
    15
390
0
  6
Continuous
 62
     7
100
AcDbText
 10
23.418187
 20
17.8707
 30
0.0
 40
0.104
  1
1,6
  7
Vcadd_SIMP
100
AcDbText
  0
TEXT
  5
25A
100
AcDbEntity
  8
4
370
    15
390
0
  6
Continuous
 62
     7
100
AcDbText
 10
22.855445
 20
22.133597
 30
0.0
 40
0.104
  1
1,6
  7
Vcadd_SIMP
100
AcDbText
  0
TEXT
  5
25B
100
AcDbEntity
  8
4
370
    15
390
0
  6
Continuous
 62
     7
100
AcDbText
 10
22.634771
 20
21.366062
 30
0.0
 40
0.142
  1
0,80R
  7
Vcadd_SIMP
100
AcDbText
  0
TEXT
  5
25C
100
AcDbEntity
  8
4
370
    15
390
0
  6
Continuous
 62
     7
100
AcDbText
 10
27.1248
 20
16.675782
 30
0.0
 40
0.142
  1
44,4
  7
Vcadd_SIMP
100
AcDbText
  0
TEXT
  5
25D
100
AcDbEntity
  8
4
370
    15
390
0
  6
Continuous
 62
     7
100
AcDbText
 10
22.085957
 20
21.920099
 30
0.0
 40
0.142
  1
33,32
  7
Vcadd_SIMP
100
AcDbText
  0
TEXT
  5
25E
100
AcDbEntity
  8
4
370
    15
390
0
  6
Continuous
 62
     7
100
AcDbText
 10
22.500851
 20
18.564523
 30
0.0
 40
0.142
  1
23,70
  7
Vcadd_SIMP
100
AcDbText
  0
TEXT
  5
25F
100
AcDbEntity
  8
4
370
    15
390
0
  6
Continuous
 62
     7
100
AcDbText
 10
22.500851
 20
18.387023
 30
0.0
 40
0.142
  1
23,80
  7
Vcadd_SIMP
100
AcDbText
  0
TEXT
  5
260
100
AcDbEntity
  8
4
370
    15
390
0
  6
Continuous
 62
     7
100
AcDbText
 10
20.674044
 20
19.286888
 30
0.0
 40
0.142
  1
15,88
  7
Vcadd_SIMP
100
AcDbText
  0
TEXT
  5
261
100
AcDbEntity
  8
4
370
    15
390
0
  6
Continuous
 62
     7
100
AcDbText
 10
20.668219
 20
16.60411
 30
0.0
 40
0.142
  1
45,24
  7
Vcadd_SIMP
100
AcDbText
  0
LINE
  5
262
100
AcDbEntity
  8
1
370
    15
390
0
  6
Continuous
 62
     1
100
AcDbLine
 10
28.308367
 20
20.656821
 30
0.0
 11
26.348708
 21
20.656821
 31
0.0
  0
LINE
  5
263
100
AcDbEntity
  8
3
370
    15
390
0
  6
Continuous
 62
     1
100
AcDbLine
 10
28.308367
 20
18.782822
 30
0.0
 11
26.243128
 21
18.782822
 31
0.0
  0
TEXT
  5
264
100
AcDbEntity
  8
4
370
    15
390
0
  6
Continuous
 62
     7
100
AcDbText
 10
21.403092
 20
20.26832
 30
0.0
 40
0.142
  1
L.S.
  7
Vcadd_SIMP
100
AcDbText
  0
LINE
  5
265
100
AcDbEntity
  8
3
370
    15
390
0
  6
Continuous
 62
     1
100
AcDbLine
 10
26.898452
 20
19.40599
 30
0.0
 11
26.898452
 21
18.157822
 31
0.0
  0
LINE
  5
266
100
AcDbEntity
  8
3
370
    15
390
0
  6
Continuous
 62
     1
100
AcDbLine
 10
26.898452
 20
21.03287
 30
0.0
 11
26.898452
 21
20.281659
 31
0.0
  0
LINE
  5
267
100
AcDbEntity
  8
3
370
    15
390
0
  6
Continuous
 62
     1
100
AcDbLine
 10
26.898452
 20
21.03287
 30
0.0
 11
26.898452
 21
21.216475
 31
0.0
  0
LINE
  5
268
100
AcDbEntity
  8
3
370
    15
390
0
  6
Continuous
 62
     1
100
AcDbLine
 10
26.528849
 20
20.281659
 30
0.0
 11
27.021204
 21
20.281659
 31
0.0
  0
LINE
  5
269
100
AcDbEntity
  8
3
370
    15
390
0
  6
Continuous
 62
     1
100
AcDbLine
 10
26.709521
 20
21.03287
 30
0.0
 11
27.021204
 21
21.03287
 31
0.0
  0
LINE
  5
26A
100
AcDbEntity
  8
3
370
    15
390
0
  6
Continuous
 62
     1
100
AcDbLine
 10
26.616774
 20
19.40599
 30
0.0
 11
27.021204
 21
19.40599
 31
0.0
  0
LINE
  5
26B
100
AcDbEntity
  8
3
370
    15
390
0
  6
Continuous
 62
     1
100
AcDbLine
 10
26.537413
 20
18.157822
 30
0.0
 11
27.021204
 21
18.157822
 31
0.0
  0
TEXT
  5
26C
100
AcDbEntity
  8
4
370
    15
390
0
  6
Continuous
 62
     7
100
AcDbText
 10
27.053988
 20
21.158523
 30
0.0
 40
0.142
  1
9,53
  7
Vcadd_SIMP
100
AcDbText
  0
LINE
  5
26D
100
AcDbEntity
  8
4
370
    15
390
0
  6
Continuous
 62
     1
100
AcDbLine
 10
26.898452
 20
21.216475
 30
0.0
 11
27.032956
 21
21.216475
 31
0.0
  0
LINE
  5
26E
100
AcDbEntity
  8
3
370
    15
390
0
  6
Continuous
 62
     1
100
AcDbLine
 10
26.898452
 20
19.40599
 30
0.0
 11
26.898452
 21
19.571783
 31
0.0
  0
LINE
  5
26F
100
AcDbEntity
  8
3
370
    15
390
0
  6
Continuous
 62
     1
100
AcDbLine
 10
26.898452
 20
19.571783
 30
0.0
 11
27.103591
 21
19.571783
 31
0.0
  0
TEXT
  5
270
100
AcDbEntity
  8
4
370
    15
390
0
  6
Continuous
 62
     7
100
AcDbText
 10
27.128642
 20
19.510131
 30
0.0
 40
0.142
  1
15,88
  7
Vcadd_SIMP
100
AcDbText
  0
TEXT
  5
271
100
AcDbEntity
  8
4
370
    15
390
0
  6
Continuous
 62
     7
100
AcDbText
 10
20.795394
 20
20.163536
 30
0.0
 40
0.142
  1
0,00
  7
Vcadd_SIMP
100
AcDbText
  0
TEXT
  5
272
100
AcDbEntity
  8
4
370
    15
390
0
  6
Continuous
 62
     7
100
AcDbText
 10
28.393828
 20
20.163536
 30
0.0
 40
0.142
  1
0,00
  7
Vcadd_SIMP
100
AcDbText
  0
LINE
  5
273
100
AcDbEntity
  8
4
370
    15
390
0
  6
Continuous
 62
     1
100
AcDbLine
 10
24.175544
 20
16.654635
 30
0.0
 11
21.377898
 21
16.654635
 31
0.0
  0
TEXT
  5
274
100
AcDbEntity
  8
0
370
    15
390
0
  6
Continuous
 62
     7
100
AcDbText
 10
19.693203
 20
18.087931
 30
0.0
 40
0.074
  1
8372
 50
270.0
 41
0.75
  7
Vcadd_SIMP
100
AcDbText
  0
LINE
  5
275
100
AcDbEntity
  8
4
370
    15
390
0
  6
Continuous
 62
     1
100
AcDbLine
 10
20.574399
 20
22.324236
 30
0.0
 11
20.226602
 21
22.324236
 31
0.0
  0
TEXT
  5
276
100
AcDbEntity
  8
4
370
    15
390
0
  6
Continuous
 62
     7
100
AcDbText
 10
19.704829
 20
22.267629
 30
0.0
 40
0.142
  1
L.S.
  7
Vcadd_SIMP
100
AcDbText
  0
LINE
  5
277
100
AcDbEntity
  8
3
370
    15
390
0
  6
Continuous
 62
     1
100
AcDbLine
 10
24.823626
 20
24.19519
 30
0.0
 11
24.552195
 21
24.19519
 31
0.0
  0
LINE
  5
278
100
AcDbEntity
  8
3
370
    15
390
0
  6
Continuous
 62
     1
100
AcDbLine
 10
24.823626
 20
24.65332
 30
0.0
 11
24.4014
 21
24.65332
 31
0.0
  0
LINE
  5
279
100
AcDbEntity
  8
3
370
    15
390
0
  6
Continuous
 62
     1
100
AcDbLine
 10
24.823626
 20
25.11132
 30
0.0
 11
24.250399
 21
25.11132
 31
0.0
  0
LINE
  5
27A
100
AcDbEntity
  8
3
370
    15
390
0
  6
Continuous
 62
     1
100
AcDbLine
 10
24.552195
 20
20.219822
 30
0.0
 11
24.552195
 21
24.19519
 31
0.0
  0
LINE
  5
27B
100
AcDbEntity
  8
3
370
    15
390
0
  6
Continuous
 62
     1
100
AcDbLine
 10
24.4014
 20
20.255263
 30
0.0
 11
24.4014
 21
24.65332
 31
0.0
  0
LINE
  5
27C
100
AcDbEntity
  8
3
370
    15
390
0
  6
Continuous
 62
     1
100
AcDbLine
 10
24.250399
 20
20.255263
 30
0.0
 11
24.250399
 21
25.11132
 31
0.0
  0
INSERT
  5
285
100
AcDbEntity
  8
3
370
    15
390
0
  6
Continuous
 62
     7
100
AcDbBlockReference
  2
ARROW
 10
24.250399
 20
20.219822
 30
0.0
 50
90.0
  0
INSERT
  5
286
100
AcDbEntity
  8
3
370
    15
390
0
  6
Continuous
 62
     7
100
AcDbBlockReference
  2
ARROW
 10
24.250399
 20
20.255263
 30
0.0
 50
270.0
  0
INSERT
  5
287
100
AcDbEntity
  8
3
370
    15
390
0
  6
Continuous
 62
     7
100
AcDbBlockReference
  2
ARROW
 10
24.066836
 20
17.446425
 30
0.0
 50
57.557446
  0
INSERT
  5
288
100
AcDbEntity
  8
3
370
    15
390
0
  6
Continuous
 62
     7
100
AcDbBlockReference
  2
ARROW
 10
23.628794
 20
22.834462
 30
0.0
 50
158.939102
  0
INSERT
  5
289
100
AcDbEntity
  8
3
370
    15
390
0
  6
Continuous
 62
     7
100
AcDbBlockReference
  2
ARROW
 10
22.916377
 20
22.537362
 30
0.0
 50
67.220055
  0
INSERT
  5
28A
100
AcDbEntity
  8
3
370
    15
390
0
  6
Continuous
 62
     7
100
AcDbBlockReference
  2
ARROW
 10
23.857138
 20
21.593468
 30
0.0
 50
34.993965
  0
INSERT
  5
28B
100
AcDbEntity
  8
3
370
    15
390
0
  6
Continuous
 62
     7
100
AcDbBlockReference
  2
ARROW
 10
25.629859
 20
15.933383
 30
0.0
 41
0.9
 42
0.9
  0
INSERT
  5
28C
100
AcDbEntity
  8
3
370
    15
390
0
  6
Continuous
 62
     7
100
AcDbBlockReference
  2
ARROW
 10
24.253859
 20
15.933383
 30
0.0
 41
0.9
 42
0.9
 50
180.0
  0
INSERT
  5
28D
100
AcDbEntity
  8
4
370
     0
390
0
  6
Continuous
 62
     1
100
AcDbBlockReference
  2
ARROW
 10
24.007441
 20
19.078317
 30
0.0
 41
1.0
 50
352.34741
  0
INSERT
  5
28E
100
AcDbEntity
  8
4
370
     0
390
0
  6
Continuous
 62
     1
100
AcDbBlockReference
  2
ARROW
 10
24.524989
 20
19.292692
 30
0.0
 41
1.0
 42
1.0
 50
231.917248
  0
INSERT
  5
28F
100
AcDbEntity
  8
3
370
    15
390
0
  6
Continuous
 62
     7
100
AcDbBlockReference
  2
ARROW
 10
21.859242
 20
18.459785
 30
0.0
 41
1.0
 42
1.0
 50
28.240833
  0
INSERT
  5
290
100
AcDbEntity
  8
3
370
    15
390
0
  6
Continuous
 62
     7
100
AcDbBlockReference
  2
ARROW
 10
21.451697
 20
18.875782
 30
0.0
 41
1.0
 42
1.0
 50
55.0
  0
INSERT
  5
291
100
AcDbEntity
  8
3
370
    15
390
0
  6
Continuous
 62
     7
100
AcDbBlockReference
  2
ARROW
 10
21.777332
 20
19.01071
 30
0.0
 41
1.0
 42
1.0
 50
165.0
  0
INSERT
  5
292
100
AcDbEntity
  8
3
370
    15
390
0
  6
Continuous
 62
     7
100
AcDbBlockReference
  2
ARROW
 10
26.898452
 20
19.40599
 30
0.0
 50
90.0
  0
INSERT
  5
293
100
AcDbEntity
  8
3
370
    15
390
0
  6
Continuous
 62
     7
100
AcDbBlockReference
  2
ARROW
 10
26.898452
 20
18.157822
 30
0.0
 50
270.0
  0
INSERT
  5
294
100
AcDbEntity
  8
3
370
    15
390
0
  6
Continuous
 62
     7
100
AcDbBlockReference
  2
ARROW
 10
26.898452
 20
21.03287
 30
0.0
 50
90.0
  0
INSERT
  5
295
100
AcDbEntity
  8
3
370
    15
390
0
  6
Continuous
 62
     7
100
AcDbBlockReference
  2
ARROW
 10
26.898452
 20
20.281659
 30
0.0
 50
270.0
  0
INSERT
  5
296
100
AcDbEntity
  8
4
370
     0
390
0
  6
Continuous
 62
     1
100
AcDbBlockReference
  2
ARROW
 10
26.441859
 20
23.213681
 30
0.0
 50
180.0
  0
LINE
  5
297
100
AcDbEntity
  8
4
370
    15
390
0
  6
Continuous
 62
     1
100
AcDbLine
 10
26.007181
 20
23.721797
 30
0.0
 11
26.365613
 21
23.721797
 31
0.0
  0
LINE
  5
298
100
AcDbEntity
  8
4
370
    15
390
0
  6
Continuous
 62
     1
100
AcDbLine
 10
26.365613
 20
23.721797
 30
0.0
 11
25.945167
 21
22.971827
 31
0.0
  0
INSERT
  5
299
100
AcDbEntity
  8
4
370
     0
390
0
  6
Continuous
 62
     1
100
AcDbBlockReference
  2
ARROW
 10
25.945167
 20
22.971827
 30
0.0
 41
1.0
 42
1.0
 50
240.724283
  0
TEXT
  5
29A
100
AcDbEntity
  8
0
370
    15
390
0
  6
Continuous
 62
     7
100
AcDbText
 10
21.083553
 20
12.214266
 30
0.0
 40
0.09
  1
Wichtige Bemerkung:
  7
Vcadd_SIMP
100
AcDbText
  0
TEXT
  5
29B
100
AcDbEntity
  8
0
370
    15
390
0
  6
Continuous
 62
     7
100
AcDbText
 10
21.083553
 20
12.079266
 30
0.0
 40
0.09
  1
Diese Zeichnung beschreibt ein
  7
Vcadd_SIMP
100
AcDbText
  0
TEXT
  5
29C
100
AcDbEntity
  8
0
370
    15
390
0
  6
Continuous
 62
     7
100
AcDbText
 10
21.083553
 20
11.944266
 30
0.0
 40
0.09
  1
Produkt der Firma SUN Hydraulik
  7
Vcadd_SIMP
100
AcDbText
  0
TEXT
  5
29D
100
AcDbEntity
  8
0
370
    15
390
0
  6
Continuous
 62
     7
100
AcDbText
 10
21.083553
 20
11.809266
 30
0.0
 40
0.09
  1
und darf nicht ohne Genehmigung
  7
Vcadd_SIMP
100
AcDbText
  0
TEXT
  5
29E
100
AcDbEntity
  8
0
370
    15
390
0
  6
Continuous
 62
     7
100
AcDbText
 10
21.083553
 20
11.674266
 30
0.0
 40
0.09
  1
vervielfδltigt oder an Dritte wei-
  7
Vcadd_SIMP
100
AcDbText
  0
TEXT
  5
29F
100
AcDbEntity
  8
0
370
    15
390
0
  6
Continuous
 62
     7
100
AcDbText
 10
21.083553
 20
11.539266
 30
0.0
 40
0.09
  1
tergegeben werden. 
  7
Vcadd_SIMP
100
AcDbText
  0
TEXT
  5
2A0
100
AcDbEntity
  8
0
370
    15
390
0
  6
Continuous
 62
     7
100
AcDbText
 10
21.191706
 20
11.244846
 30
0.0
 40
0.09
  1
SUN HYDRAULICS CORPORATION
  7
Vcadd_SIMP
100
AcDbText
  0
TEXT
  5
2A1
100
AcDbEntity
  8
0
370
    15
390
0
  6
Continuous
 62
     7
100
AcDbText
 10
21.049859
 20
11.25172
 30
0.0
 40
0.085
  1
C
  7
Vcadd_SIMP
100
AcDbText
  0
CIRCLE
  5
2A2
100
AcDbEntity
  8
4
370
    15
390
0
  6
Continuous
 62
     1
100
AcDbCircle
 10
21.079358
 20
11.284688
 30
0.0
 40
0.058579
  0
LINE
  5
2A3
100
AcDbEntity
  8
4
370
    15
390
0
  6
Continuous
 62
   134
100
AcDbLine
 10
21.333421
 20
12.497042
 30
0.0
 11
22.733928
 21
12.497042
 31
0.0
  0
LINE
  5
2A4
100
AcDbEntity
  8
4
370
    15
390
0
  6
Continuous
 62
   134
100
AcDbLine
 10
21.333421
 20
12.480595
 30
0.0
 11
22.733928
 21
12.480595
 31
0.0
  0
TEXT
  5
2A5
100
AcDbEntity
  8
4
370
    15
390
0
  6
Continuous
 62
     7
100
AcDbText
 10
21.34986
 20
12.5176
 30
0.0
 40
0.14
  1
Komplettansicht
  7
Vcadd_SIMP
100
AcDbText
  0
TEXT
  5
2A6
100
AcDbEntity
  8
4
370
    15
390
0
  6
Continuous
 62
     7
100
AcDbText
 10
23.850389
 20
13.74326
 30
0.0
 40
0.133
  1
38,10
  7
Vcadd_SIMP
100
AcDbText
  0
TEXT
  5
2A7
100
AcDbEntity
  8
4
370
    15
390
0
  6
Continuous
 62
     7
100
AcDbText
 10
23.850389
 20
13.54376
 30
0.0
 40
0.133
  1
28,57
  7
Vcadd_SIMP
100
AcDbText
  0
TEXT
  5
2A8
100
AcDbEntity
  8
4
370
    15
390
0
  6
Continuous
 62
     7
100
AcDbText
 10
23.850389
 20
13.34426
 30
0.0
 40
0.133
  1
19,05
  7
Vcadd_SIMP
100
AcDbText
  0
TEXT
  5
2A9
100
AcDbEntity
  8
4
370
    15
390
0
  6
Continuous
 62
     7
100
AcDbText
 10
23.850389
 20
13.14476
 30
0.0
 40
0.133
  1
34,92
  7
Vcadd_SIMP
100
AcDbText
  0
TEXT
  5
2AA
100
AcDbEntity
  8
4
370
    15
390
0
  6
Continuous
 62
     7
100
AcDbText
 10
24.414634
 20
13.744953
 30
0.0
 40
0.133
  1
Freiraum fόr Sechskantnuss
  7
Vcadd_SIMP
100
AcDbText
  0
TEXT
  5
2AB
100
AcDbEntity
  8
4
370
    15
390
0
  6
Continuous
 62
     7
100
AcDbText
 10
24.414634
 20
13.545453
 30
0.0
 40
0.133
  1
Max. empfohlene Tiefe bis zum LS-Anschlag
  7
Vcadd_SIMP
100
AcDbText
  0
TEXT
  5
2AC
100
AcDbEntity
  8
4
370
    15
390
0
  6
Continuous
 62
     7
100
AcDbText
 10
24.414634
 20
13.345953
 30
0.0
 40
0.133
  1
ohne Freiraum fόr die Sechskantnuss
  7
Vcadd_SIMP
100
AcDbText
  0
TEXT
  5
2AD
100
AcDbEntity
  8
4
370
    15
390
0
  6
Continuous
 62
     7
100
AcDbText
 10
24.414634
 20
13.146453
 30
0.0
 40
0.133
  1
Min. Abstand von der Mittellinie bis zur End-
  7
Vcadd_SIMP
100
AcDbText
  0
TEXT
  5
2AE
100
AcDbEntity
  8
4
370
    15
390
0
  6
Continuous
 62
     7
100
AcDbText
 10
24.414634
 20
12.946953
 30
0.0
 40
0.133
  1
kante des Ventilkφrpers
  7
Vcadd_SIMP
100
AcDbText
  0
TEXT
  5
2AF
100
AcDbEntity
  8
4
370
    15
390
0
  6
Continuous
 62
     7
100
AcDbText
 10
24.414634
 20
12.747453
 30
0.0
 40
0.133
  1
Min. Abstand von der Mittellinie bis zur Mittel-
  7
Vcadd_SIMP
100
AcDbText
  0
TEXT
  5
2B0
100
AcDbEntity
  8
4
370
    15
390
0
  6
Continuous
 62
     7
100
AcDbText
 10
24.414634
 20
12.547953
 30
0.0
 40
0.133
  1
linie bei gleicher Einschraubbohrung
  7
Vcadd_SIMP
100
AcDbText
  0
TEXT
  5
2B1
100
AcDbEntity
  8
0
370
    15
390
0
  6
Continuous
 62
     7
100
AcDbText
 10
28.365997
 20
11.962684
 30
0.0
 40
0.13
  1
T-2A Metrisch
 50
270.0
  7
Vcadd_SIMP
 72
     1
 11
29.027912
 21
11.962684
 31
0.0
100
AcDbText
  0
TEXT
  5
2B2
100
AcDbEntity
  8
0
370
    15
390
0
  6
Continuous
 62
     7
100
AcDbText
 10
28.212794
 20
11.962684
 30
0.0
 40
0.13
  1
Blatt 3 von 3
 50
270.0
  7
Vcadd_SIMP
 72
     1
 11
28.858912
 21
11.962684
 31
0.0
100
AcDbText
  0
TEXT
  5
2B3
100
AcDbEntity
  8
4
370
    15
390
0
  6
Continuous
 62
     7
100
AcDbText
 10
26.184346
 20
14.578889
 30
0.0
 40
0.15
  1
Gewinde und alle
  7
Vcadd_SIMP
100
AcDbText
  0
TEXT
  5
2B4
100
AcDbEntity
  8
4
370
    15
390
0
  6
Continuous
 62
     7
100
AcDbText
 10
26.184346
 20
14.383889
 30
0.0
 40
0.15
  1
Durchmesser
  7
Vcadd_SIMP
100
AcDbText
  0
TEXT
  5
2B5
100
AcDbEntity
  8
4
370
    15
390
0
  6
Continuous
 62
     7
100
AcDbText
 10
24.441134
 20
15.499645
 30
0.0
 40
0.13
  1
Anschluss #1
  7
Vcadd_SIMP
100
AcDbText
  0
TEXT
  5
2B6
100
AcDbEntity
  8
4
370
    15
390
0
  6
Continuous
 62
     7
100
AcDbText
 10
27.243757
 20
17.472367
 30
0.0
 40
0.12
  1
Abstόtzung
  7
Vcadd_SIMP
100
AcDbText
  0
TEXT
  5
2B7
100
AcDbEntity
  8
4
370
    15
390
0
  6
Continuous
 62
     7
100
AcDbText
 10
27.243757
 20
17.292367
 30
0.0
 40
0.12
  1
(fόr Ventilbuchse)
  7
Vcadd_SIMP
100
AcDbText
  0
TEXT
  5
2B8
100
AcDbEntity
  8
4
370
    15
390
0
  6
Continuous
 62
     7
100
AcDbText
 10
27.15839
 20
19.119237
 30
0.0
 40
0.13
  1
Anschluss #2
  7
Vcadd_SIMP
100
AcDbText
  0
TEXT
  5
2B9
100
AcDbEntity
  8
4
370
    15
390
0
  6
Continuous
 62
     7
100
AcDbText
 10
27.072167
 20
20.830432
 30
0.0
 40
0.13
  1
Anschluss #3
  7
Vcadd_SIMP
100
AcDbText
  0
TEXT
  5
2BA
100
AcDbEntity
  8
4
370
    15
390
0
  6
Continuous
 62
     7
100
AcDbText
 10
27.183383
 20
20.255781
 30
0.0
 40
0.12
  1
LS-Anschlag
  7
Vcadd_SIMP
 72
     1
 11
27.709197
 21
20.255781
 31
0.0
100
AcDbText
  0
TEXT
  5
2BB
100
AcDbEntity
  8
4
370
    15
390
0
  6
Continuous
 62
     7
100
AcDbText
 10
26.992638
 20
20.075781
 30
0.0
 40
0.12
  1
(Maίbezugskante)
  7
Vcadd_SIMP
 72
     1
 11
27.709197
 21
20.075781
 31
0.0
100
AcDbText
  0
LINE
  5
2BC
100
AcDbEntity
  8
1
370
    15
390
0
  6
Continuous
 62
     1
100
AcDbLine
 10
26.206767
 20
22.971827
 30
0.0
 11
27.033976
 21
22.971827
 31
0.0
  0
LINE
  5
2BD
100
AcDbEntity
  8
4
370
    15
390
0
  6
Continuous
 62
     1
100
AcDbLine
 10
27.02648
 20
22.963006
 30
0.0
 11
26.91581
 21
22.742306
 31
0.0
  0
TEXT
  5
2BE
100
AcDbEntity
  8
4
370
    15
390
0
  6
Continuous
 62
     7
100
AcDbText
 10
28.422236
 20
22.688442
 30
0.0
 40
0.142
  1
34
  7
Vcadd_SIMP
100
AcDbText
  0
TEXT
  5
2BF
100
AcDbEntity
  8
4
370
    15
390
0
  6
Continuous
 62
     7
100
AcDbText
 10
28.848231
 20
22.688442
 30
0.0
 40
0.142
  1
92
  7
Vcadd_SIMP
100
AcDbText
  0
TEXT
  5
2C0
100
AcDbEntity
  8
4
370
    15
390
0
  6
Continuous
 62
     7
100
AcDbText
 10
28.706233
 20
22.688442
 30
0.0
 40
0.142
  1
,
  7
Vcadd_SIMP
100
AcDbText
  0
LINE
  5
2C1
100
AcDbEntity
  8
4
370
    15
390
0
  6
Continuous
 62
     1
100
AcDbLine
 10
26.920212
 20
22.751206
 30
0.0
 11
28.381778
 21
22.751206
 31
0.0
  0
TEXT
  5
2C2
100
AcDbEntity
  8
4
370
    15
390
0
  6
Continuous
 62
     7
100
AcDbText
 10
25.269201
 20
23.671044
 30
0.0
 40
0.12
  1
SW 28,40
  7
Vcadd_SIMP
100
AcDbText
  0
TEXT
  5
2C3
100
AcDbEntity
  8
4
370
    15
390
0
  6
Continuous
 62
     7
100
AcDbText
 10
22.344875
 20
26.558186
 30
0.0
 40
0.14
  1
T-
  7
Vcadd_SIMP
100
AcDbText
  0
TEXT
  5
2C4
100
AcDbEntity
  8
4
370
    15
390
0
  6
Continuous
 62
     7
100
AcDbText
 10
23.117407
 20
26.558186
 30
0.0
 40
0.14
  1
Einschraubventilbohrung
  7
Vcadd_SIMP
100
AcDbText
  0
LINE
  5
2C5
100
AcDbEntity
  8
3
370
    15
390
0
  6
Continuous
 62
     1
100
AcDbLine
 10
22.386532
 20
26.529839
 30
0.0
 11
26.328444
 21
26.529839
 31
0.0
  0
TEXT
  5
2C6
100
AcDbEntity
  8
4
370
    15
390
0
  6
Continuous
 62
     7
100
AcDbText
 10
22.123643
 20
26.289722
 30
0.0
 40
0.14
  1
(alle Abmessungen in Millimeter)
  7
Vcadd_SIMP
100
AcDbText
  0
TEXT
  5
2C7
100
AcDbEntity
  8
4
370
    15
390
0
  6
Continuous
 62
     7
100
AcDbText
 10
22.595726
 20
26.555478
 30
0.0
 40
0.14
  1
2A
  7
Vcadd_SIMP
100
AcDbText
  0
LINE
  5
2C8
100
AcDbEntity
  8
4
370
    15
390
0
  6
Continuous
 62
     7
100
AcDbLine
 10
22.415358
 20
26.043971
 30
0.0
 11
22.487927
 21
26.169665
 31
0.0
  0
LINE
  5
2C9
100
AcDbEntity
  8
4
370
    15
390
0
  6
Continuous
 62
     7
100
AcDbLine
 10
22.560497
 20
26.043971
 30
0.0
 11
22.487927
 21
26.169665
 31
0.0
  0
LINE
  5
2CA
100
AcDbEntity
  8
4
370
    15
390
0
  6
Continuous
 62
     7
100
AcDbLine
 10
22.415358
 20
26.043971
 30
0.0
 11
22.560497
 21
26.043971
 31
0.0
  0
TEXT
  5
2CB
100
AcDbEntity
  8
4
370
    15
390
0
  6
Continuous
 62
     7
100
AcDbText
 10
22.624632
 20
26.046791
 30
0.0
 40
0.14
  1
1.000- 14 UNS- 2B Gewinde
  7
Vcadd_SIMP
100
AcDbText
  0
TEXT
  5
2CC
100
AcDbEntity
  8
4
370
    15
390
0
  6
Continuous
 62
     7
100
AcDbText
 10
22.560663
 20
25.769382
 30
0.0
 40
0.14
  1
24,22/24,41 PITCH DIA.
  7
Vcadd_SIMP
 72
     1
 11
24.331663
 21
25.769382
 31
0.0
100
AcDbText
  0
TEXT
  5
2CD
100
AcDbEntity
  8
4
370
    15
390
0
  6
Continuous
 62
     7
100
AcDbText
 10
27.054196
 20
22.78896
 30
0.0
 40
0.12
  1
Min. Abstand des
  7
Vcadd_SIMP
100
AcDbText
  0
TEXT
  5
2CE
100
AcDbEntity
  8
4
370
    15
390
0
  6
Continuous
 62
     7
100
AcDbText
 10
27.054196
 20
22.60896
 30
0.0
 40
0.12
  1
Sechskant
  7
Vcadd_SIMP
100
AcDbText
  0
TEXT
  5
2CF
100
AcDbEntity
  8
4
370
    15
390
0
  6
Continuous
 62
     7
100
AcDbText
 10
27.268231
 20
24.031336
 30
0.0
 40
0.12
  1
Freiraum fόr
  7
Vcadd_SIMP
100
AcDbText
  0
TEXT
  5
2D0
100
AcDbEntity
  8
4
370
    15
390
0
  6
Continuous
 62
     7
100
AcDbText
 10
27.268231
 20
23.851336
 30
0.0
 40
0.12
  1
Sechskantnuss
  7
Vcadd_SIMP
100
AcDbText
  0
TEXT
  5
2D1
100
AcDbEntity
  8
4
370
    15
390
0
  6
Continuous
 62
     7
100
AcDbText
 10
27.103961
 20
24.040189
 30
0.0
 40
0.12
  1
*
  7
Vcadd_SIMP
100
AcDbText
  0
LINE
  5
2D2
100
AcDbEntity
  8
1
370
    15
390
0
  6
Continuous
 62
     1
100
AcDbLine
 10
23.881995
 20
18.969822
 30
0.0
 11
23.60723
 21
18.969822
 31
0.0
  0
LINE
  5
2D3
100
AcDbEntity
  8
4
370
    15
390
0
  6
Continuous
 62
     1
100
AcDbLine
 10
23.701851
 20
19.351563
 30
0.0
 11
23.60723
 21
18.969822
 31
0.0
  0
LINE
  5
2D4
100
AcDbEntity
  8
1
370
    15
390
0
  6
Continuous
 62
     1
100
AcDbLine
 10
23.701851
 20
19.351563
 30
0.0
 11
21.408049
 21
19.351563
 31
0.0
  0
TEXT
  5
2D5
100
AcDbEntity
  8
4
370
    15
390
0
  6
Continuous
 62
     7
100
AcDbText
 10
21.397775
 20
19.383565
 30
0.0
 40
0.12
  1
Min. Abstand fόr Bereich mit
  7
Vcadd_SIMP
100
AcDbText
  0
TEXT
  5
2D6
100
AcDbEntity
  8
4
370
    15
390
0
  6
Continuous
 62
     7
100
AcDbText
 10
21.397775
 20
19.203565
 30
0.0
 40
0.12
  1
vollstδndigen Gewindegδngen
  7
Vcadd_SIMP
100
AcDbText
  0
LINE
  5
2D7
100
AcDbEntity
  8
4
370
    15
390
0
  6
Continuous
 62
     7
100
AcDbLine
 10
23.329854
 20
18.998042
 30
0.0
 11
23.402424
 21
19.123737
 31
0.0
  0
LINE
  5
2D8
100
AcDbEntity
  8
4
370
    15
390
0
  6
Continuous
 62
     7
100
AcDbLine
 10
23.474994
 20
18.998042
 30
0.0
 11
23.402424
 21
19.123737
 31
0.0
  0
LINE
  5
2D9
100
AcDbEntity
  8
4
370
    15
390
0
  6
Continuous
 62
     7
100
AcDbLine
 10
23.329854
 20
18.998042
 30
0.0
 11
23.474994
 21
18.998042
 31
0.0
  0
TEXT
  5
2DA
100
AcDbEntity
  8
4
370
    15
390
0
  6
Continuous
 62
     7
100
AcDbText
 10
20.180995
 20
16.788632
 30
0.0
 40
0.13
  1
Abmessungen,Werkzeuge,Anschlόsse
 50
270.0
  7
Vcadd_SIMP
100
AcDbText
  0
TEXT
  5
2DB
100
AcDbEntity
  8
4
370
    15
390
0
  6
Continuous
 62
     7
100
AcDbText
 10
20.373839
 20
16.175878
 30
0.0
 40
0.13
  1
T-2A Einschraubbohrung
 50
270.0
  7
Vcadd_SIMP
100
AcDbText
  0
TEXT
  5
2DC
100
AcDbEntity
  8
0
370
    15
390
0
  6
Continuous
 62
     7
100
AcDbText
 10
19.695947
 20
12.015377
 30
0.0
 40
0.13
  1
T-2A Metrisch
 50
270.0
  7
Vcadd_SIMP
 72
     1
 11
20.357862
 21
12.015377
 31
0.0
100
AcDbText
  0
TEXT
  5
2DD
100
AcDbEntity
  8
0
370
    15
390
0
  6
Continuous
 62
     7
100
AcDbText
 10
19.542744
 20
12.015377
 30
0.0
 40
0.13
  1
Blatt 3 von 3
 50
270.0
  7
Vcadd_SIMP
 72
     1
 11
20.188862
 21
12.015377
 31
0.0
100
AcDbText
  0
CIRCLE
  5
2DE
100
AcDbEntity
  8
0
370
    15
390
0
  6
Continuous
 62
     7
100
AcDbCircle
 10
19.913519
 20
11.435139
 30
0.0
 40
0.054385
  0
CIRCLE
  5
2DF
100
AcDbEntity
  8
0
370
    15
390
0
  6
Continuous
 62
     2
100
AcDbCircle
 10
19.735277
 20
13.230858
 30
0.0
 40
0.312
  0
LINE
  5
2E0
100
AcDbEntity
  8
0
370
    15
390
0
  6
Continuous
 62
     7
100
AcDbLine
 10
19.800283
 20
13.348645
 30
0.0
 11
19.854749
 21
13.348645
 31
0.0
  0
LINE
  5
2E1
100
AcDbEntity
  8
0
370
    15
390
0
  6
Continuous
 62
     7
100
AcDbLine
 10
19.800283
 20
13.441796
 30
0.0
 11
19.800283
 21
13.348645
 31
0.0
  0
LINE
  5
2E2
100
AcDbEntity
  8
0
370
    15
390
0
  6
Continuous
 62
     7
100
AcDbLine
 10
19.762777
 20
13.441796
 30
0.0
 11
19.800283
 21
13.441796
 31
0.0
  0
LINE
  5
2E3
100
AcDbEntity
  8
0
370
    15
390
0
  6
Continuous
 62
     7
100
AcDbLine
 10
19.762777
 20
13.348645
 30
0.0
 11
19.762777
 21
13.441796
 31
0.0
  0
LINE
  5
2E4
100
AcDbEntity
  8
0
370
    15
390
0
  6
Continuous
 62
     7
100
AcDbLine
 10
19.615801
 20
13.348645
 30
0.0
 11
19.762777
 21
13.348645
 31
0.0
  0
LINE
  5
2E5
100
AcDbEntity
  8
0
370
    15
390
0
  6
Continuous
 62
     7
100
AcDbLine
 10
19.615801
 20
13.496796
 30
0.0
 11
19.615801
 21
13.348645
 31
0.0
  0
LINE
  5
2E6
100
AcDbEntity
  8
0
370
    15
390
0
  6
Continuous
 62
     7
100
AcDbLine
 10
19.670843
 20
13.496796
 30
0.0
 11
19.615801
 21
13.496796
 31
0.0
  0
LINE
  5
2E7
100
AcDbEntity
  8
0
370
    15
390
0
  6
Continuous
 62
     7
100
AcDbLine
 10
19.670843
 20
13.403645
 30
0.0
 11
19.670843
 21
13.496796
 31
0.0
  0
LINE
  5
2E8
100
AcDbEntity
  8
0
370
    15
390
0
  6
Continuous
 62
     7
100
AcDbLine
 10
19.707393
 20
13.403645
 30
0.0
 11
19.670843
 21
13.403645
 31
0.0
  0
LINE
  5
2E9
100
AcDbEntity
  8
0
370
    15
390
0
  6
Continuous
 62
     7
100
AcDbLine
 10
19.707393
 20
13.496796
 30
0.0
 11
19.707393
 21
13.403645
 31
0.0
  0
LINE
  5
2EA
100
AcDbEntity
  8
0
370
    15
390
0
  6
Continuous
 62
     7
100
AcDbLine
 10
19.854749
 20
13.496796
 30
0.0
 11
19.707393
 21
13.496796
 31
0.0
  0
LINE
  5
2EB
100
AcDbEntity
  8
0
370
    15
390
0
  6
Continuous
 62
     7
100
AcDbLine
 10
19.854749
 20
13.496796
 30
0.0
 11
19.854749
 21
13.348645
 31
0.0
  0
LINE
  5
2EC
100
AcDbEntity
  8
0
370
    15
390
0
  6
Continuous
 62
     7
100
AcDbLine
 10
19.854749
 20
13.156784
 30
0.0
 11
19.854749
 21
13.21249
 31
0.0
  0
LINE
  5
2ED
100
AcDbEntity
  8
0
370
    15
390
0
  6
Continuous
 62
     7
100
AcDbLine
 10
19.615801
 20
13.156784
 30
0.0
 11
19.854749
 21
13.156784
 31
0.0
  0
LINE
  5
2EE
100
AcDbEntity
  8
0
370
    15
390
0
  6
Continuous
 62
     7
100
AcDbLine
 10
19.615801
 20
13.304936
 30
0.0
 11
19.615801
 21
13.156784
 31
0.0
  0
LINE
  5
2EF
100
AcDbEntity
  8
0
370
    15
390
0
  6
Continuous
 62
     7
100
AcDbLine
 10
19.854749
 20
13.304936
 30
0.0
 11
19.615801
 21
13.304936
 31
0.0
  0
LINE
  5
2F0
100
AcDbEntity
  8
0
370
    15
390
0
  6
Continuous
 62
     7
100
AcDbLine
 10
19.854749
 20
13.250016
 30
0.0
 11
19.854749
 21
13.304936
 31
0.0
  0
LINE
  5
2F1
100
AcDbEntity
  8
0
370
    15
390
0
  6
Continuous
 62
     7
100
AcDbLine
 10
19.670801
 20
13.250016
 30
0.0
 11
19.854749
 21
13.250016
 31
0.0
  0
LINE
  5
2F2
100
AcDbEntity
  8
0
370
    15
390
0
  6
Continuous
 62
     7
100
AcDbLine
 10
19.670801
 20
13.21249
 30
0.0
 11
19.670801
 21
13.250016
 31
0.0
  0
LINE
  5
2F3
100
AcDbEntity
  8
0
370
    15
390
0
  6
Continuous
 62
     7
100
AcDbLine
 10
19.670801
 20
13.21249
 30
0.0
 11
19.854749
 21
13.21249
 31
0.0
  0
LINE
  5
2F4
100
AcDbEntity
  8
0
370
    15
390
0
  6
Continuous
 62
     7
100
AcDbLine
 10
19.615801
 20
13.055207
 30
0.0
 11
19.615801
 21
13.110913
 31
0.0
  0
LINE
  5
2F5
100
AcDbEntity
  8
0
370
    15
390
0
  6
Continuous
 62
     7
100
AcDbLine
 10
19.799749
 20
13.055207
 30
0.0
 11
19.615801
 21
13.055207
 31
0.0
  0
LINE
  5
2F6
100
AcDbEntity
  8
0
370
    15
390
0
  6
Continuous
 62
     7
100
AcDbLine
 10
19.799749
 20
13.017681
 30
0.0
 11
19.799749
 21
13.055207
 31
0.0
  0
LINE
  5
2F7
100
AcDbEntity
  8
0
370
    15
390
0
  6
Continuous
 62
     7
100
AcDbLine
 10
19.615801
 20
13.017681
 30
0.0
 11
19.799749
 21
13.017681
 31
0.0
  0
LINE
  5
2F8
100
AcDbEntity
  8
0
370
    15
390
0
  6
Continuous
 62
     7
100
AcDbLine
 10
19.615801
 20
12.962761
 30
0.0
 11
19.615801
 21
13.017681
 31
0.0
  0
LINE
  5
2F9
100
AcDbEntity
  8
0
370
    15
390
0
  6
Continuous
 62
     7
100
AcDbLine
 10
19.854749
 20
12.962761
 30
0.0
 11
19.615801
 21
12.962761
 31
0.0
  0
LINE
  5
2FA
100
AcDbEntity
  8
0
370
    15
390
0
  6
Continuous
 62
     7
100
AcDbLine
 10
19.854749
 20
13.110913
 30
0.0
 11
19.854749
 21
12.962761
 31
0.0
  0
LINE
  5
2FB
100
AcDbEntity
  8
0
370
    15
390
0
  6
Continuous
 62
     7
100
AcDbLine
 10
19.854749
 20
13.110913
 30
0.0
 11
19.615801
 21
13.110913
 31
0.0
  0
LINE
  5
2FC
100
AcDbEntity
  8
0
370
    15
390
0
  6
Continuous
 62
     7
100
AcDbLine
 10
19.831276
 20
12.746601
 30
0.0
 11
19.897958
 21
12.746601
 31
0.0
  0
LINE
  5
2FD
100
AcDbEntity
  8
0
370
    15
390
0
  6
Continuous
 62
     7
100
AcDbLine
 10
19.831276
 20
12.666241
 30
0.0
 11
19.831276
 21
12.746601
 31
0.0
  0
LINE
  5
2FE
100
AcDbEntity
  8
0
370
    15
390
0
  6
Continuous
 62
     7
100
AcDbLine
 10
19.635275
 20
12.666241
 30
0.0
 11
19.831276
 21
12.666241
 31
0.0
  0
LINE
  5
2FF
100
AcDbEntity
  8
0
370
    15
390
0
  6
Continuous
 62
     7
100
AcDbLine
 10
19.635275
 20
12.706421
 30
0.0
 11
19.635275
 21
12.666241
 31
0.0
  0
LINE
  5
300
100
AcDbEntity
  8
0
370
    15
390
0
  6
Continuous
 62
     7
100
AcDbLine
 10
19.791095
 20
12.706421
 30
0.0
 11
19.635275
 21
12.706421
 31
0.0
  0
LINE
  5
301
100
AcDbEntity
  8
0
370
    15
390
0
  6
Continuous
 62
     7
100
AcDbLine
 10
19.791095
 20
12.746601
 30
0.0
 11
19.791095
 21
12.706421
 31
0.0
  0
LINE
  5
302
100
AcDbEntity
  8
0
370
    15
390
0
  6
Continuous
 62
     7
100
AcDbLine
 10
19.635275
 20
12.746601
 30
0.0
 11
19.791095
 21
12.746601
 31
0.0
  0
LINE
  5
303
100
AcDbEntity
  8
0
370
    15
390
0
  6
Continuous
 62
     7
100
AcDbLine
 10
19.635275
 20
12.786782
 30
0.0
 11
19.635275
 21
12.746601
 31
0.0
  0
LINE
  5
304
100
AcDbEntity
  8
0
370
    15
390
0
  6
Continuous
 62
     7
100
AcDbLine
 10
19.897958
 20
12.786782
 30
0.0
 11
19.635275
 21
12.786782
 31
0.0
  0
LINE
  5
305
100
AcDbEntity
  8
0
370
    15
390
0
  6
Continuous
 62
     7
100
AcDbLine
 10
19.897958
 20
12.786782
 30
0.0
 11
19.897958
 21
12.746601
 31
0.0
  0
LINE
  5
306
100
AcDbEntity
  8
0
370
    15
390
0
  6
Continuous
 62
     7
100
AcDbLine
 10
19.675455
 20
12.585881
 30
0.0
 11
19.831276
 21
12.585881
 31
0.0
  0
LINE
  5
307
100
AcDbEntity
  8
0
370
    15
390
0
  6
Continuous
 62
     7
100
AcDbLine
 10
19.675455
 20
12.5457
 30
0.0
 11
19.675455
 21
12.585881
 31
0.0
  0
LINE
  5
308
100
AcDbEntity
  8
0
370
    15
390
0
  6
Continuous
 62
     7
100
AcDbLine
 10
19.831276
 20
12.5457
 30
0.0
 11
19.675455
 21
12.5457
 31
0.0
  0
LINE
  5
309
100
AcDbEntity
  8
0
370
    15
390
0
  6
Continuous
 62
     7
100
AcDbLine
 10
19.831276
 20
12.50552
 30
0.0
 11
19.831276
 21
12.5457
 31
0.0
  0
LINE
  5
30A
100
AcDbEntity
  8
0
370
    15
390
0
  6
Continuous
 62
     7
100
AcDbLine
 10
19.555616
 20
12.50552
 30
0.0
 11
19.831276
 21
12.50552
 31
0.0
  0
LINE
  5
30B
100
AcDbEntity
  8
0
370
    15
390
0
  6
Continuous
 62
     7
100
AcDbLine
 10
19.554914
 20
12.583439
 30
0.0
 11
19.555616
 21
12.50552
 31
0.0
  0
LINE
  5
30C
100
AcDbEntity
  8
0
370
    15
390
0
  6
Continuous
 62
     7
100
AcDbLine
 10
19.595094
 20
12.583439
 30
0.0
 11
19.554914
 21
12.583439
 31
0.0
  0
LINE
  5
30D
100
AcDbEntity
  8
0
370
    15
390
0
  6
Continuous
 62
     7
100
AcDbLine
 10
19.595094
 20
12.5457
 30
0.0
 11
19.595094
 21
12.583439
 31
0.0
  0
LINE
  5
30E
100
AcDbEntity
  8
0
370
    15
390
0
  6
Continuous
 62
     7
100
AcDbLine
 10
19.635275
 20
12.5457
 30
0.0
 11
19.595094
 21
12.5457
 31
0.0
  0
LINE
  5
30F
100
AcDbEntity
  8
0
370
    15
390
0
  6
Continuous
 62
     7
100
AcDbLine
 10
19.635275
 20
12.626061
 30
0.0
 11
19.635275
 21
12.5457
 31
0.0
  0
LINE
  5
310
100
AcDbEntity
  8
0
370
    15
390
0
  6
Continuous
 62
     7
100
AcDbLine
 10
19.831276
 20
12.626061
 30
0.0
 11
19.635275
 21
12.626061
 31
0.0
  0
LINE
  5
311
100
AcDbEntity
  8
0
370
    15
390
0
  6
Continuous
 62
     7
100
AcDbLine
 10
19.831276
 20
12.626061
 30
0.0
 11
19.831276
 21
12.585881
 31
0.0
  0
LINE
  5
312
100
AcDbEntity
  8
0
370
    15
390
0
  6
Continuous
 62
     7
100
AcDbLine
 10
19.897958
 20
12.383465
 30
0.0
 11
19.831276
 21
12.383465
 31
0.0
  0
LINE
  5
313
100
AcDbEntity
  8
0
370
    15
390
0
  6
Continuous
 62
     7
100
AcDbLine
 10
19.897958
 20
12.343281
 30
0.0
 11
19.897958
 21
12.383465
 31
0.0
  0
LINE
  5
314
100
AcDbEntity
  8
0
370
    15
390
0
  6
Continuous
 62
     7
100
AcDbLine
 10
19.635275
 20
12.343281
 30
0.0
 11
19.897958
 21
12.343281
 31
0.0
  0
LINE
  5
315
100
AcDbEntity
  8
0
370
    15
390
0
  6
Continuous
 62
     7
100
AcDbLine
 10
19.635275
 20
12.463825
 30
0.0
 11
19.635275
 21
12.343281
 31
0.0
  0
LINE
  5
316
100
AcDbEntity
  8
0
370
    15
390
0
  6
Continuous
 62
     7
100
AcDbLine
 10
19.831276
 20
12.463825
 30
0.0
 11
19.635275
 21
12.463825
 31
0.0
  0
LINE
  5
317
100
AcDbEntity
  8
0
370
    15
390
0
  6
Continuous
 62
     7
100
AcDbLine
 10
19.831276
 20
12.463825
 30
0.0
 11
19.831276
 21
12.383465
 31
0.0
  0
LINE
  5
318
100
AcDbEntity
  8
0
370
    15
390
0
  6
Continuous
 62
     7
100
AcDbLine
 10
19.791095
 20
12.383465
 30
0.0
 11
19.675455
 21
12.383465
 31
0.0
  0
LINE
  5
319
100
AcDbEntity
  8
0
370
    15
390
0
  6
Continuous
 62
     7
100
AcDbLine
 10
19.675455
 20
12.423641
 30
0.0
 11
19.675455
 21
12.383465
 31
0.0
  0
LINE
  5
31A
100
AcDbEntity
  8
0
370
    15
390
0
  6
Continuous
 62
     7
100
AcDbLine
 10
19.791095
 20
12.423641
 30
0.0
 11
19.675455
 21
12.423641
 31
0.0
  0
LINE
  5
31B
100
AcDbEntity
  8
0
370
    15
390
0
  6
Continuous
 62
     7
100
AcDbLine
 10
19.791095
 20
12.423641
 30
0.0
 11
19.791095
 21
12.383465
 31
0.0
  0
LINE
  5
31C
100
AcDbEntity
  8
0
370
    15
390
0
  6
Continuous
 62
     7
100
AcDbLine
 10
19.791095
 20
12.222744
 30
0.0
 11
19.831276
 21
12.222744
 31
0.0
  0
LINE
  5
31D
100
AcDbEntity
  8
0
370
    15
390
0
  6
Continuous
 62
     7
100
AcDbLine
 10
19.791095
 20
12.262924
 30
0.0
 11
19.791095
 21
12.222744
 31
0.0
  0
LINE
  5
31E
100
AcDbEntity
  8
0
370
    15
390
0
  6
Continuous
 62
     7
100
AcDbLine
 10
19.635275
 20
12.262924
 30
0.0
 11
19.791095
 21
12.262924
 31
0.0
  0
LINE
  5
31F
100
AcDbEntity
  8
0
370
    15
390
0
  6
Continuous
 62
     7
100
AcDbLine
 10
19.635275
 20
12.303105
 30
0.0
 11
19.635275
 21
12.262924
 31
0.0
  0
LINE
  5
320
100
AcDbEntity
  8
0
370
    15
390
0
  6
Continuous
 62
     7
100
AcDbLine
 10
19.831276
 20
12.303105
 30
0.0
 11
19.635275
 21
12.303105
 31
0.0
  0
LINE
  5
321
100
AcDbEntity
  8
0
370
    15
390
0
  6
Continuous
 62
     7
100
AcDbLine
 10
19.831276
 20
12.303105
 30
0.0
 11
19.831276
 21
12.222744
 31
0.0
  0
LINE
  5
322
100
AcDbEntity
  8
0
370
    15
390
0
  6
Continuous
 62
     7
100
AcDbLine
 10
19.675455
 20
11.981663
 30
0.0
 11
19.831276
 21
11.981663
 31
0.0
  0
LINE
  5
323
100
AcDbEntity
  8
0
370
    15
390
0
  6
Continuous
 62
     7
100
AcDbLine
 10
19.675455
 20
11.941483
 30
0.0
 11
19.675455
 21
11.981663
 31
0.0
  0
LINE
  5
324
100
AcDbEntity
  8
0
370
    15
390
0
  6
Continuous
 62
     7
100
AcDbLine
 10
19.831276
 20
11.941483
 30
0.0
 11
19.675455
 21
11.941483
 31
0.0
  0
LINE
  5
325
100
AcDbEntity
  8
0
370
    15
390
0
  6
Continuous
 62
     7
100
AcDbLine
 10
19.831276
 20
11.901303
 30
0.0
 11
19.831276
 21
11.941483
 31
0.0
  0
LINE
  5
326
100
AcDbEntity
  8
0
370
    15
390
0
  6
Continuous
 62
     7
100
AcDbLine
 10
19.635275
 20
11.901303
 30
0.0
 11
19.831276
 21
11.901303
 31
0.0
  0
LINE
  5
327
100
AcDbEntity
  8
0
370
    15
390
0
  6
Continuous
 62
     7
100
AcDbLine
 10
19.635275
 20
12.021843
 30
0.0
 11
19.635275
 21
11.901303
 31
0.0
  0
LINE
  5
328
100
AcDbEntity
  8
0
370
    15
390
0
  6
Continuous
 62
     7
100
AcDbLine
 10
19.831276
 20
12.021843
 30
0.0
 11
19.635275
 21
12.021843
 31
0.0
  0
LINE
  5
329
100
AcDbEntity
  8
0
370
    15
390
0
  6
Continuous
 62
     7
100
AcDbLine
 10
19.831276
 20
12.021843
 30
0.0
 11
19.831276
 21
11.981663
 31
0.0
  0
LINE
  5
32A
100
AcDbEntity
  8
0
370
    15
390
0
  6
Continuous
 62
     7
100
AcDbLine
 10
19.635275
 20
11.820942
 30
0.0
 11
19.897958
 21
11.820942
 31
0.0
  0
LINE
  5
32B
100
AcDbEntity
  8
0
370
    15
390
0
  6
Continuous
 62
     7
100
AcDbLine
 10
19.635275
 20
11.861122
 30
0.0
 11
19.635275
 21
11.820942
 31
0.0
  0
LINE
  5
32C
100
AcDbEntity
  8
0
370
    15
390
0
  6
Continuous
 62
     7
100
AcDbLine
 10
19.897958
 20
11.861122
 30
0.0
 11
19.635275
 21
11.861122
 31
0.0
  0
LINE
  5
32D
100
AcDbEntity
  8
0
370
    15
390
0
  6
Continuous
 62
     7
100
AcDbLine
 10
19.897958
 20
11.861122
 30
0.0
 11
19.897958
 21
11.820942
 31
0.0
  0
LINE
  5
32E
100
AcDbEntity
  8
0
370
    15
390
0
  6
Continuous
 62
     7
100
AcDbLine
 10
19.857778
 20
11.740582
 30
0.0
 11
19.897958
 21
11.740582
 31
0.0
  0
LINE
  5
32F
100
AcDbEntity
  8
0
370
    15
390
0
  6
Continuous
 62
     7
100
AcDbLine
 10
19.857778
 20
11.780762
 30
0.0
 11
19.857778
 21
11.740582
 31
0.0
  0
LINE
  5
330
100
AcDbEntity
  8
0
370
    15
390
0
  6
Continuous
 62
     7
100
AcDbLine
 10
19.897958
 20
11.780762
 30
0.0
 11
19.857778
 21
11.780762
 31
0.0
  0
LINE
  5
331
100
AcDbEntity
  8
0
370
    15
390
0
  6
Continuous
 62
     7
100
AcDbLine
 10
19.897958
 20
11.780762
 30
0.0
 11
19.897958
 21
11.740582
 31
0.0
  0
LINE
  5
332
100
AcDbEntity
  8
0
370
    15
390
0
  6
Continuous
 62
     7
100
AcDbLine
 10
19.635275
 20
11.740582
 30
0.0
 11
19.831276
 21
11.740582
 31
0.0
  0
LINE
  5
333
100
AcDbEntity
  8
0
370
    15
390
0
  6
Continuous
 62
     7
100
AcDbLine
 10
19.635275
 20
11.780762
 30
0.0
 11
19.635275
 21
11.740582
 31
0.0
  0
LINE
  5
334
100
AcDbEntity
  8
0
370
    15
390
0
  6
Continuous
 62
     7
100
AcDbLine
 10
19.831276
 20
11.780762
 30
0.0
 11
19.635275
 21
11.780762
 31
0.0
  0
LINE
  5
335
100
AcDbEntity
  8
0
370
    15
390
0
  6
Continuous
 62
     7
100
AcDbLine
 10
19.831276
 20
11.780762
 30
0.0
 11
19.831276
 21
11.740582
 31
0.0
  0
LINE
  5
336
100
AcDbEntity
  8
0
370
    15
390
0
  6
Continuous
 62
     7
100
AcDbLine
 10
19.791095
 20
11.58466
 30
0.0
 11
19.831276
 21
11.58466
 31
0.0
  0
LINE
  5
337
100
AcDbEntity
  8
0
370
    15
390
0
  6
Continuous
 62
     7
100
AcDbLine
 10
19.791095
 20
11.660221
 30
0.0
 11
19.791095
 21
11.58466
 31
0.0
  0
LINE
  5
338
100
AcDbEntity
  8
0
370
    15
390
0
  6
Continuous
 62
     7
100
AcDbLine
 10
19.675455
 20
11.660221
 30
0.0
 11
19.791095
 21
11.660221
 31
0.0
  0
LINE
  5
339
100
AcDbEntity
  8
0
370
    15
390
0
  6
Continuous
 62
     7
100
AcDbLine
 10
19.675455
 20
11.58466
 30
0.0
 11
19.675455
 21
11.660221
 31
0.0
  0
LINE
  5
33A
100
AcDbEntity
  8
0
370
    15
390
0
  6
Continuous
 62
     7
100
AcDbLine
 10
19.635275
 20
11.58466
 30
0.0
 11
19.675455
 21
11.58466
 31
0.0
  0
LINE
  5
33B
100
AcDbEntity
  8
0
370
    15
390
0
  6
Continuous
 62
     7
100
AcDbLine
 10
19.635275
 20
11.700402
 30
0.0
 11
19.635275
 21
11.58466
 31
0.0
  0
LINE
  5
33C
100
AcDbEntity
  8
0
370
    15
390
0
  6
Continuous
 62
     7
100
AcDbLine
 10
19.831276
 20
11.700402
 30
0.0
 11
19.635275
 21
11.700402
 31
0.0
  0
LINE
  5
33D
100
AcDbEntity
  8
0
370
    15
390
0
  6
Continuous
 62
     7
100
AcDbLine
 10
19.831276
 20
11.700402
 30
0.0
 11
19.831276
 21
11.58466
 31
0.0
  0
LINE
  5
33E
100
AcDbEntity
  8
0
370
    15
390
0
  6
Continuous
 62
     7
100
AcDbLine
 10
19.791095
 20
11.417198
 30
0.0
 11
19.831276
 21
11.417198
 31
0.0
  0
LINE
  5
33F
100
AcDbEntity
  8
0
370
    15
390
0
  6
Continuous
 62
     7
100
AcDbLine
 10
19.791095
 20
11.504299
 30
0.0
 11
19.791095
 21
11.417198
 31
0.0
  0
LINE
  5
340
100
AcDbEntity
  8
0
370
    15
390
0
  6
Continuous
 62
     7
100
AcDbLine
 10
19.753366
 20
11.504299
 30
0.0
 11
19.791095
 21
11.504299
 31
0.0
  0
LINE
  5
341
100
AcDbEntity
  8
0
370
    15
390
0
  6
Continuous
 62
     7
100
AcDbLine
 10
19.753366
 20
11.417198
 30
0.0
 11
19.753366
 21
11.504299
 31
0.0
  0
LINE
  5
342
100
AcDbEntity
  8
0
370
    15
390
0
  6
Continuous
 62
     7
100
AcDbLine
 10
19.635275
 20
11.417198
 30
0.0
 11
19.753366
 21
11.417198
 31
0.0
  0
LINE
  5
343
100
AcDbEntity
  8
0
370
    15
390
0
  6
Continuous
 62
     7
100
AcDbLine
 10
19.635275
 20
11.54448
 30
0.0
 11
19.635275
 21
11.417198
 31
0.0
  0
LINE
  5
344
100
AcDbEntity
  8
0
370
    15
390
0
  6
Continuous
 62
     7
100
AcDbLine
 10
19.675455
 20
11.54448
 30
0.0
 11
19.635275
 21
11.54448
 31
0.0
  0
LINE
  5
345
100
AcDbEntity
  8
0
370
    15
390
0
  6
Continuous
 62
     7
100
AcDbLine
 10
19.675455
 20
11.457379
 30
0.0
 11
19.675455
 21
11.54448
 31
0.0
  0
LINE
  5
346
100
AcDbEntity
  8
0
370
    15
390
0
  6
Continuous
 62
     7
100
AcDbLine
 10
19.713186
 20
11.457379
 30
0.0
 11
19.675455
 21
11.457379
 31
0.0
  0
LINE
  5
347
100
AcDbEntity
  8
0
370
    15
390
0
  6
Continuous
 62
     7
100
AcDbLine
 10
19.713186
 20
11.54448
 30
0.0
 11
19.713186
 21
11.457379
 31
0.0
  0
LINE
  5
348
100
AcDbEntity
  8
0
370
    15
390
0
  6
Continuous
 62
     7
100
AcDbLine
 10
19.831276
 20
11.54448
 30
0.0
 11
19.713186
 21
11.54448
 31
0.0
  0
LINE
  5
349
100
AcDbEntity
  8
0
370
    15
390
0
  6
Continuous
 62
     7
100
AcDbLine
 10
19.831276
 20
11.54448
 30
0.0
 11
19.831276
 21
11.417198
 31
0.0
  0
LINE
  5
34A
100
AcDbEntity
  8
0
370
    15
390
0
  6
Continuous
 62
     7
100
AcDbLine
 10
19.635275
 20
12.062023
 30
0.0
 11
19.831276
 21
12.062023
 31
0.0
  0
LINE
  5
34B
100
AcDbEntity
  8
0
370
    15
390
0
  6
Continuous
 62
     7
100
AcDbLine
 10
19.635275
 20
12.182564
 30
0.0
 11
19.635275
 21
12.062023
 31
0.0
  0
LINE
  5
34C
100
AcDbEntity
  8
0
370
    15
390
0
  6
Continuous
 62
     7
100
AcDbLine
 10
19.755815
 20
12.182564
 30
0.0
 11
19.635275
 21
12.182564
 31
0.0
  0
LINE
  5
34D
100
AcDbEntity
  8
0
370
    15
390
0
  6
Continuous
 62
     7
100
AcDbLine
 10
19.755815
 20
12.102204
 30
0.0
 11
19.755815
 21
12.182564
 31
0.0
  0
LINE
  5
34E
100
AcDbEntity
  8
0
370
    15
390
0
  6
Continuous
 62
     7
100
AcDbLine
 10
19.791095
 20
12.102204
 30
0.0
 11
19.755815
 21
12.102204
 31
0.0
  0
LINE
  5
34F
100
AcDbEntity
  8
0
370
    15
390
0
  6
Continuous
 62
     7
100
AcDbLine
 10
19.791095
 20
12.164788
 30
0.0
 11
19.791095
 21
12.102204
 31
0.0
  0
LINE
  5
350
100
AcDbEntity
  8
0
370
    15
390
0
  6
Continuous
 62
     7
100
AcDbLine
 10
19.831276
 20
12.164788
 30
0.0
 11
19.791095
 21
12.164788
 31
0.0
  0
LINE
  5
351
100
AcDbEntity
  8
0
370
    15
390
0
  6
Continuous
 62
     7
100
AcDbLine
 10
19.831276
 20
12.164788
 30
0.0
 11
19.831276
 21
12.062023
 31
0.0
  0
LINE
  5
352
100
AcDbEntity
  8
0
370
    15
390
0
  6
Continuous
 62
     7
100
AcDbLine
 10
19.675455
 20
12.102204
 30
0.0
 11
19.715635
 21
12.102204
 31
0.0
  0
LINE
  5
353
100
AcDbEntity
  8
0
370
    15
390
0
  6
Continuous
 62
     7
100
AcDbLine
 10
19.675455
 20
12.142384
 30
0.0
 11
19.675455
 21
12.102204
 31
0.0
  0
LINE
  5
354
100
AcDbEntity
  8
0
370
    15
390
0
  6
Continuous
 62
     7
100
AcDbLine
 10
19.715635
 20
12.142384
 30
0.0
 11
19.675455
 21
12.142384
 31
0.0
  0
LINE
  5
355
100
AcDbEntity
  8
0
370
    15
390
0
  6
Continuous
 62
     7
100
AcDbLine
 10
19.715635
 20
12.142384
 30
0.0
 11
19.715635
 21
12.102204
 31
0.0
  0
HATCH
  5
356
100
AcDbEntity
  8
0
370
    15
390
0
  6
Continuous
 62
   174
100
AcDbHatch
 10
0.0
 20
0.0
 30
0.0
210
0.0
220
0.0
230
1.0
  2
SOLID
 70
     1
 71
     0
 91
        4
 92
        1
 93
        1
 72
     2
 10
19.735276864019767
 20
13.230858104931389
 40
0.3120002746582031
 50
0.0
 51
359.999994
 73
     1
 97
        0
 92
        1
 93
       12
 72
     1
 10
19.800283120123282
 20
13.348644512402092
 11
19.854749367681876
 21
13.348644512402092
 72
     1
 10
19.854749367681876
 20
13.348644512402092
 11
19.854749367681876
 21
13.496795910107171
 72
     1
 10
19.854749367681876
 20
13.496795910107171
 11
19.707393334356681
 21
13.496795910107171
 72
     1
 10
19.707393334356681
 20
13.496795910107171
 11
19.707393334356681
 21
13.403644817577874
 72
     1
 10
19.707393334356681
 20
13.403644817577874
 11
19.670842812506095
 21
13.403644817577874
 72
     1
 10
19.670842812506095
 20
13.403644817577874
 11
19.670842812506095
 21
13.496795910107171
 72
     1
 10
19.670842812506095
 20
13.496795910107171
 11
19.615800545660392
 21
13.496795910107171
 72
     1
 10
19.615800545660392
 20
13.496795910107171
 11
19.615800545660392
 21
13.348644512402092
 72
     1
 10
19.615800545660392
 20
13.348644512402092
 11
19.762777016607657
 21
13.348644512402092
 72
     1
 10
19.762777016607657
 20
13.348644512402092
 11
19.762777016607657
 21
13.441795604931389
 72
     1
 10
19.762777016607657
 20
13.441795604931389
 11
19.800283120123282
 21
13.441795604931389
 72
     1
 10
19.800283120123282
 20
13.441795604931389
 11
19.800283120123282
 21
13.348644512402092
 97
        0
 92
        1
 93
        8
 72
     1
 10
19.854749367681876
 20
13.156784313427483
 11
19.854749367681876
 21
13.212490337597405
 72
     1
 10
19.854749367681876
 20
13.212490337597405
 11
19.670800850836173
 21
13.212490337597405
 72
     1
 10
19.670800850836173
 20
13.212490337597405
 11
19.670800850836173
 21
13.250015514599358
 72
     1
 10
19.670800850836173
 20
13.250015514599358
 11
19.854749367681876
 21
13.250015514599358
 72
     1
 10
19.854749367681876
 20
13.250015514599358
 11
19.854749367681876
 21
13.304935711132561
 72
     1
 10
19.854749367681876
 20
13.304935711132561
 11
19.615800545660392
 21
13.304935711132561
 72
     1
 10
19.615800545660392
 20
13.304935711132561
 11
19.615800545660392
 21
13.156784313427483
 72
     1
 10
19.615800545660392
 20
13.156784313427483
 11
19.854749367681876
 21
13.156784313427483
 97
        0
 92
        1
 93
        8
 72
     1
 10
19.615800545660392
 20
13.055206554638421
 11
19.615800545660392
 21
13.110912578808342
 72
     1
 10
19.615800545660392
 20
13.110912578808342
 11
19.854749367681876
 21
13.110912578808342
 72
     1
 10
19.854749367681876
 20
13.110912578808342
 11
19.854749367681876
 21
12.962761181103264
 72
     1
 10
19.854749367681876
 20
12.962761181103264
 11
19.615800545660392
 21
12.962761181103264
 72
     1
 10
19.615800545660392
 20
12.962761181103264
 11
19.615800545660392
 21
13.017681377636467
 72
     1
 10
19.615800545660392
 20
13.017681377636467
 11
19.799749062506095
 21
13.017681377636467
 72
     1
 10
19.799749062506095
 20
13.017681377636467
 11
19.799749062506095
 21
13.055206554638421
 72
     1
 10
19.799749062506095
 20
13.055206554638421
 11
19.615800545660392
 21
13.055206554638421
 97
        0
 75
     0
 76
     1
 98
        1
 10
0.0
 20
0.0
  0
HATCH
  5
357
100
AcDbEntity
  8
0
370
    15
390
0
  6
Continuous
 62
   174
100
AcDbHatch
 10
0.0
 20
0.0
 30
0.0
210
0.0
220
0.0
230
1.0
  2
SOLID
 70
     1
 71
     0
 91
        4
 92
        1
 93
       10
 72
     1
 10
19.831275628057853
 20
12.746601360546624
 11
19.89795844360961
 21
12.746601360546624
 72
     1
 10
19.89795844360961
 20
12.746601360546624
 11
19.89795844360961
 21
12.786781566845452
 72
     1
 10
19.89795844360961
 20
12.786781566845452
 11
19.635274575201407
 21
12.786781566845452
 72
     1
 10
19.635274575201407
 20
12.786781566845452
 11
19.635274575201407
 21
12.746601360546624
 72
     1
 10
19.635274575201407
 20
12.746601360546624
 11
19.791095421759024
 21
12.746601360546624
 72
     1
 10
19.791095421759024
 20
12.746601360546624
 11
19.791095421759024
 21
12.706421154247796
 72
     1
 10
19.791095421759024
 20
12.706421154247796
 11
19.635274575201407
 21
12.706421154247796
 72
     1
 10
19.635274575201407
 20
12.706421154247796
 11
19.635274575201407
 21
12.666240947948967
 72
     1
 10
19.635274575201407
 20
12.666240947948967
 11
19.831275628057853
 21
12.666240947948967
 72
     1
 10
19.831275628057853
 20
12.666240947948967
 11
19.831275628057853
 21
12.746601360546624
 97
        0
 92
        1
 93
       12
 72
     1
 10
19.675454781500235
 20
12.585880535351311
 11
19.831275628057853
 21
12.585880535351311
 72
     1
 10
19.831275628057853
 20
12.585880535351311
 11
19.831275628057853
 21
12.626060741650139
 72
     1
 10
19.831275628057853
 20
12.626060741650139
 11
19.635274575201407
 21
12.626060741650139
 72
     1
 10
19.635274575201407
 20
12.626060741650139
 11
19.635274575201407
 21
12.545700329052483
 72
     1
 10
19.635274575201407
 20
12.545700329052483
 11
19.595094368902579
 21
12.545700329052483
 72
     1
 10
19.595094368902579
 20
12.545700329052483
 11
19.595094368902579
 21
12.583439129101311
 72
     1
 10
19.595094368902579
 20
12.583439129101311
 11
19.554914162603751
 21
12.583439129101311
 72
     1
 10
19.554914162603751
 20
12.583439129101311
 11
19.555616066900626
 21
12.505520122753655
 72
     1
 10
19.555616066900626
 20
12.505520122753655
 11
19.831275628057853
 21
12.505520122753655
 72
     1
 10
19.831275628057853
 20
12.505520122753655
 11
19.831275628057853
 21
12.545700329052483
 72
     1
 10
19.831275628057853
 20
12.545700329052483
 11
19.675454781500235
 21
12.545700329052483
 72
     1
 10
19.675454781500235
 20
12.545700329052483
 11
19.675454781500235
 21
12.585880535351311
 97
        0
 92
        1
 93
        6
 72
     1
 10
19.89795844360961
 20
12.383465069042717
 11
19.831275628057853
 21
12.383465069042717
 72
     1
 10
19.831275628057853
 20
12.383465069042717
 11
19.831275628057853
 21
12.463825481640374
 72
     1
 10
19.831275628057853
 20
12.463825481640374
 11
19.635274575201407
 21
12.463825481640374
 72
     1
 10
19.635274575201407
 20
12.463825481640374
 11
19.635274575201407
 21
12.343281048046624
 72
     1
 10
19.635274575201407
 20
12.343281048046624
 11
19.89795844360961
 21
12.343281048046624
 72
     1
 10
19.89795844360961
 20
12.343281048046624
 11
19.89795844360961
 21
12.383465069042717
 97
        0
 92
        1
 93
        4
 72
     1
 10
19.791095421759024
 20
12.383465069042717
 11
19.675454781500235
 21
12.383465069042717
 72
     1
 10
19.675454781500235
 20
12.383465069042717
 11
19.675454781500235
 21
12.42364146064428
 72
     1
 10
19.675454781500235
 20
12.42364146064428
 11
19.791095421759024
 21
12.42364146064428
 72
     1
 10
19.791095421759024
 20
12.42364146064428
 11
19.791095421759024
 21
12.383465069042717
 97
        0
 75
     0
 76
     1
 98
        1
 10
0.0
 20
0.0
  0
HATCH
  5
358
100
AcDbEntity
  8
0
370
    15
390
0
  6
Continuous
 62
   174
100
AcDbHatch
 10
0.0
 20
0.0
 30
0.0
210
0.0
220
0.0
230
1.0
  2
SOLID
 70
     1
 71
     0
 91
        8
 92
        1
 93
        6
 72
     1
 10
19.791095421759024
 20
12.222744243847405
 11
19.831275628057853
 21
12.222744243847405
 72
     1
 10
19.831275628057853
 20
12.222744243847405
 11
19.831275628057853
 21
12.303104656445061
 72
     1
 10
19.831275628057853
 20
12.303104656445061
 11
19.635274575201407
 21
12.303104656445061
 72
     1
 10
19.635274575201407
 20
12.303104656445061
 11
19.635274575201407
 21
12.262924450146233
 72
     1
 10
19.635274575201407
 20
12.262924450146233
 11
19.791095421759024
 21
12.262924450146233
 72
     1
 10
19.791095421759024
 20
12.262924450146233
 11
19.791095421759024
 21
12.222744243847405
 97
        0
 92
        1
 93
        8
 72
     1
 10
19.675454781500235
 20
11.981663006054436
 11
19.831275628057853
 21
11.981663006054436
 72
     1
 10
19.831275628057853
 20
11.981663006054436
 11
19.831275628057853
 21
12.021843212353264
 72
     1
 10
19.831275628057853
 20
12.021843212353264
 11
19.635274575201407
 21
12.021843212353264
 72
     1
 10
19.635274575201407
 20
12.021843212353264
 11
19.635274575201407
 21
11.90130259345678
 72
     1
 10
19.635274575201407
 20
11.90130259345678
 11
19.831275628057853
 21
11.90130259345678
 72
     1
 10
19.831275628057853
 20
11.90130259345678
 11
19.831275628057853
 21
11.941482799755608
 72
     1
 10
19.831275628057853
 20
11.941482799755608
 11
19.675454781500235
 21
11.941482799755608
 72
     1
 10
19.675454781500235
 20
11.941482799755608
 11
19.675454781500235
 21
11.981663006054436
 97
        0
 92
        1
 93
        4
 72
     1
 10
19.635274575201407
 20
11.820942180859124
 11
19.89795844360961
 21
11.820942180859124
 72
     1
 10
19.89795844360961
 20
11.820942180859124
 11
19.89795844360961
 21
11.861122387157952
 72
     1
 10
19.89795844360961
 20
11.861122387157952
 11
19.635274575201407
 21
11.861122387157952
 72
     1
 10
19.635274575201407
 20
11.861122387157952
 11
19.635274575201407
 21
11.820942180859124
 97
        0
 92
        1
 93
        4
 72
     1
 10
19.857778237310782
 20
11.740581768261467
 11
19.89795844360961
 21
11.740581768261467
 72
     1
 10
19.89795844360961
 20
11.740581768261467
 11
19.89795844360961
 21
11.780761974560296
 72
     1
 10
19.89795844360961
 20
11.780761974560296
 11
19.857778237310782
 21
11.780761974560296
 72
     1
 10
19.857778237310782
 20
11.780761974560296
 11
19.857778237310782
 21
11.740581768261467
 97
        0
 92
        1
 93
        4
 72
     1
 10
19.635274575201407
 20
11.740581768261467
 11
19.831275628057853
 21
11.740581768261467
 72
     1
 10
19.831275628057853
 20
11.740581768261467
 11
19.831275628057853
 21
11.780761974560296
 72
     1
 10
19.831275628057853
 20
11.780761974560296
 11
19.635274575201407
 21
11.780761974560296
 72
     1
 10
19.635274575201407
 20
11.780761974560296
 11
19.635274575201407
 21
11.740581768261467
 97
        0
 92
        1
 93
        8
 72
     1
 10
19.791095421759024
 20
11.584659832226311
 11
19.831275628057853
 21
11.584659832226311
 72
     1
 10
19.831275628057853
 20
11.584659832226311
 11
19.831275628057853
 21
11.700401561962639
 72
     1
 10
19.831275628057853
 20
11.700401561962639
 11
19.635274575201407
 21
11.700401561962639
 72
     1
 10
19.635274575201407
 20
11.700401561962639
 11
19.635274575201407
 21
11.584659832226311
 72
     1
 10
19.635274575201407
 20
11.584659832226311
 11
19.675454781500235
 21
11.584659832226311
 72
     1
 10
19.675454781500235
 20
11.584659832226311
 11
19.675454781500235
 21
11.660221355663811
 72
     1
 10
19.675454781500235
 20
11.660221355663811
 11
19.791095421759024
 21
11.660221355663811
 72
     1
 10
19.791095421759024
 20
11.660221355663811
 11
19.791095421759024
 21
11.584659832226311
 97
        0
 92
        1
 93
        8
 72
     1
 10
19.635274575201407
 20
12.062023418652092
 11
19.831275628057853
 21
12.062023418652092
 72
     1
 10
19.831275628057853
 20
12.062023418652092
 11
19.831275628057853
 21
12.164787548290764
 72
     1
 10
19.831275628057853
 20
12.164787548290764
 11
19.791095421759024
 21
12.164787548290764
 72
     1
 10
19.791095421759024
 20
12.164787548290764
 11
19.791095421759024
 21
12.102203624950921
 72
     1
 10
19.791095421759024
 20
12.102203624950921
 11
19.755815194097892
 21
12.102203624950921
 72
     1
 10
19.755815194097892
 20
12.102203624950921
 11
19.755815194097892
 21
12.182564037548577
 72
     1
 10
19.755815194097892
 20
12.182564037548577
 11
19.635274575201407
 21
12.182564037548577
 72
     1
 10
19.635274575201407
 20
12.182564037548577
 11
19.635274575201407
 21
12.062023418652092
 97
        0
 92
        1
 93
        4
 72
     1
 10
19.675454781500235
 20
12.102203624950921
 11
19.715634987799064
 21
12.102203624950921
 72
     1
 10
19.715634987799064
 20
12.102203624950921
 11
19.715634987799064
 21
12.142383831249749
 72
     1
 10
19.715634987799064
 20
12.142383831249749
 11
19.675454781500235
 21
12.142383831249749
 72
     1
 10
19.675454781500235
 20
12.142383831249749
 11
19.675454781500235
 21
12.102203624950921
 97
        0
 75
     0
 76
     1
 98
        1
 10
0.0
 20
0.0
  0
HATCH
  5
359
100
AcDbEntity
  8
0
370
    15
390
0
  6
Continuous
 62
   174
100
AcDbHatch
 10
0.0
 20
0.0
 30
0.0
210
0.0
220
0.0
230
1.0
  2
SOLID
 70
     1
 71
     0
 91
        1
 92
        1
 93
       12
 72
     1
 10
19.791095421759024
 20
11.417198436962639
 11
19.831275628057853
 21
11.417198436962639
 72
     1
 10
19.831275628057853
 20
11.417198436962639
 11
19.831275628057853
 21
11.544479625927483
 72
     1
 10
19.831275628057853
 20
11.544479625927483
 11
19.713185952154532
 21
11.544479625927483
 72
     1
 10
19.713185952154532
 20
11.544479625927483
 11
19.713185952154532
 21
11.457378643261467
 72
     1
 10
19.713185952154532
 20
11.457378643261467
 11
19.675454781500235
 21
11.457378643261467
 72
     1
 10
19.675454781500235
 20
11.457378643261467
 11
19.675454781500235
 21
11.544479625927483
 72
     1
 10
19.675454781500235
 20
11.544479625927483
 11
19.635274575201407
 21
11.544479625927483
 72
     1
 10
19.635274575201407
 20
11.544479625927483
 11
19.635274575201407
 21
11.417198436962639
 72
     1
 10
19.635274575201407
 20
11.417198436962639
 11
19.75336615845336
 21
11.417198436962639
 72
     1
 10
19.75336615845336
 20
11.417198436962639
 11
19.75336615845336
 21
11.504299419628655
 72
     1
 10
19.75336615845336
 20
11.504299419628655
 11
19.791095421759024
 21
11.504299419628655
 72
     1
 10
19.791095421759024
 20
11.504299419628655
 11
19.791095421759024
 21
11.417198436962639
 97
        0
 75
     0
 76
     1
 98
        1
 10
0.0
 20
0.0
  0
TEXT
  5
35A
100
AcDbEntity
  8
0
370
    15
390
0
  6
Continuous
 62
     7
100
AcDbText
 10
19.890178
 20
11.453083
 30
0.0
 40
0.04606
  1
R
 50
270.0
 41
1.125
  7
Vcadd_SIMP
100
AcDbText
  0
TEXT
  5
35B
100
AcDbEntity
  8
0
370
    15
390
0
  6
Continuous
 62
     7
100
AcDbText
 10
19.53686
 20
12.09383
 30
0.0
 40
0.062
  1
CORPORATION
 50
270.0
  7
Vcadd_SIMP
100
AcDbText
  0
TEXT
  5
35C
100
AcDbEntity
  8
0
370
    15
390
0
  6
Continuous
 62
     7
100
AcDbText
 10
19.445212
 20
12.862148
 30
0.0
 40
0.062
  1
1500 WEST UNIVERSITY PKWY
 50
270.0
  7
Vcadd_SIMP
100
AcDbText
  0
TEXT
  5
35D
100
AcDbEntity
  8
0
370
    15
390
0
  6
Continuous
 62
     7
100
AcDbText
 10
19.352212
 20
12.862148
 30
0.0
 40
0.062
  1
SARASOTA, FLORIDA 34243, USA
 50
270.0
  7
Vcadd_SIMP
100
AcDbText
  0
TEXT
  5
35E
100
AcDbEntity
  8
0
370
    15
390
0
  6
Continuous
 62
     7
100
AcDbText
 10
19.259212
 20
12.862148
 30
0.0
 40
0.062
  1
TELEPHONE (941) 355-2983
 50
270.0
  7
Vcadd_SIMP
100
AcDbText
  0
TEXT
  5
35F
100
AcDbEntity
  8
4
370
    15
390
0
  6
Continuous
 62
     7
100
AcDbText
 10
23.872417
 20
14.006703
 30
0.0
 40
0.133
  1
Freiraum fόr Sechskant-Steckschlόssel
  7
Vcadd_SIMP
100
AcDbText
  0
TEXT
  5
360
100
AcDbEntity
  8
4
370
    15
390
0
  6
Continuous
 62
     7
100
AcDbText
 10
23.606472
 20
13.984883
 30
0.0
 40
0.133
  1
*
  7
Vcadd_SIMP
100
AcDbText
  0
TEXT
  5
361
100
AcDbEntity
  8
4
370
    15
390
0
  6
Continuous
 62
     7
100
AcDbText
 10
23.865029
 20
11.709912
 30
0.0
 40
0.133
  1
Alle O-Ring-Einfόhrungsschrδgen mόssen
  7
Vcadd_SIMP
100
AcDbText
  0
TEXT
  5
362
100
AcDbEntity
  8
4
370
    15
390
0
  6
Continuous
 62
     7
100
AcDbText
 10
23.865029
 20
11.510412
 30
0.0
 40
0.133
  1
glatt und frei von Kerben und Kanten sein.
  7
Vcadd_SIMP
100
AcDbText
  0
TEXT
  5
363
100
AcDbEntity
  8
4
370
    15
390
0
  6
Continuous
 62
     7
100
AcDbText
 10
23.533801
 20
11.710196
 30
0.0
 40
0.133
  1
**
  7
Vcadd_SIMP
100
AcDbText
  0
TEXT
  5
364
100
AcDbEntity
  8
4
370
    15
390
0
  6
Continuous
 62
     7
100
AcDbText
 10
23.885355
 20
12.238145
 30
0.0
 40
0.133
  1
Name in Bohrtabelle: SUN STD T-2A CAVITY
  7
Vcadd_SIMP
100
AcDbText
  0
TEXT
  5
365
100
AcDbEntity
  8
4
370
    15
390
0
  6
Continuous
 62
     7
100
AcDbText
 10
23.885355
 20
12.038645
 30
0.0
 40
0.133
  1
Code in Bohrtabelle: T2A
  7
Vcadd_SIMP
100
AcDbText
  0
TEXT
  5
366
100
AcDbEntity
  8
4
370
    15
390
0
  6
Continuous
 62
     7
100
AcDbText
 10
27.806326
 20
16.691981
 30
0.0
 40
0.12
  1
Min. Tiefe von
  7
Vcadd_SIMP
100
AcDbText
  0
TEXT
  5
367
100
AcDbEntity
  8
4
370
    15
390
0
  6
Continuous
 62
     7
100
AcDbText
 10
27.806326
 20
16.511981
 30
0.0
 40
0.12
  1
17,48 %%c (Ventil-
  7
Vcadd_SIMP
100
AcDbText
  0
TEXT
  5
368
100
AcDbEntity
  8
4
370
    15
390
0
  6
Continuous
 62
     7
100
AcDbText
 10
27.806326
 20
16.331981
 30
0.0
 40
0.12
  1
arbeitsbereich)
  7
Vcadd_SIMP
100
AcDbText
  0
TEXT
  5
369
100
AcDbEntity
  8
4
370
    15
390
0
  6
Continuous
 62
     7
100
AcDbText
 10
27.156829
 20
21.696047
 30
0.0
 40
0.12
  1
Min. Abstand
  7
Vcadd_SIMP
 72
     2
 11
28.251904
 21
21.696047
 31
0.0
100
AcDbText
  0
TEXT
  5
36A
100
AcDbEntity
  8
4
370
    15
390
0
  6
Continuous
 62
     7
100
AcDbText
 10
26.783862
 20
21.516047
 30
0.0
 40
0.12
  1
zum LS-Anschlag
  7
Vcadd_SIMP
 72
     2
 11
28.251904
 21
21.516047
 31
0.0
100
AcDbText
  0
TEXT
  5
36B
100
AcDbEntity
  8
0
370
    15
390
0
  6
Continuous
 62
     7
100
AcDbText
 10
20.200536
 20
13.647609
 30
0.0
 40
0.124
  1
M
 50
270.0
  7
Vcadd_SIMP
100
AcDbText
  0
TEXT
  5
36C
100
AcDbEntity
  8
0
370
    15
390
0
  6
Continuous
 62
     7
100
AcDbText
 10
28.878813
 20
13.647609
 30
0.0
 40
0.124
  1
M
 50
270.0
  7
Vcadd_SIMP
100
AcDbText
  0
TEXT
  5
36D
100
AcDbEntity
  8
0
370
     0
390
0
  6
Continuous
 62
     7
100
AcDbText
 10
20.059651
 20
18.846123
 30
0.0
 40
0.065844
  1
04MAY11
 50
270.0
  7
Vcadd_SIMP
 72
     1
 11
20.324673
 21
18.846123
 31
0.0
100
AcDbText
  0
TEXT
  5
36E
100
AcDbEntity
  8
0
370
     0
390
0
  6
Continuous
 62
     7
100
AcDbText
 10
20.211258
 20
18.471123
 30
0.0
 40
0.065844
  1
JRS
 50
270.0
  7
Vcadd_SIMP
 72
     1
 11
20.324839
 21
18.471123
 31
0.0
100
AcDbText
  0
TEXT
  5
36F
100
AcDbEntity
  8
0
370
     0
390
0
  6
Continuous
 62
     7
100
AcDbText
 10
20.201793
 20
17.971123
 30
0.0
 40
0.065844
  1
10164
 50
270.0
 41
0.65
  7
Vcadd_SIMP
 72
     1
 11
20.324839
 21
17.971123
 31
0.0
100
AcDbText
  0
TEXT
  5
370
100
AcDbEntity
  8
0
370
     0
390
0
  6
Continuous
 62
     7
100
AcDbText
 10
20.28882
 20
21.596123
 30
0.0
 40
0.065844
  1
M
 50
270.0
  7
Vcadd_SIMP
 72
     1
 11
20.32668
 21
21.596123
 31
0.0
100
AcDbText
  0
INSERT
  5
378
100
AcDbEntity
  8
4
370
     0
390
0
  6
Continuous
 62
     1
100
AcDbBlockReference
  2
REV
 10
19.968424
 20
21.721123
 30
0.0
 41
2.0
 42
2.0
 50
270.0
  0
LINE
  5
379
100
AcDbEntity
  8
0
370
    15
390
0
  6
Continuous
 62
     7
100
AcDbLine
 10
20.124423
 20
17.846123
 30
0.0
 11
20.124423
 21
21.721123
 31
0.0
  0
TEXT
  5
37A
100
AcDbEntity
  8
0
370
    15
390
0
  6
Continuous
 62
     7
100
AcDbText
 10
19.855195
 20
21.433945
 30
0.0
 40
0.074
  1
REDRAWN TO BE CONSISTENT WITH SIMILAR CAVS
 50
270.0
 41
0.75
  7
Vcadd_SIMP
100
AcDbText
  0
TEXT
  5
37B
100
AcDbEntity
  8
0
370
    15
390
0
  6
Continuous
 62
     7
100
AcDbText
 10
19.398894
 20
21.437302
 30
0.0
 40
0.06
  1
REDRAWN IN NEW FORMAT
 50
270.0
  7
Vcadd_SIMP
100
AcDbText
  0
TEXT
  5
37C
100
AcDbEntity
  8
4
370
    15
390
0
  6
Continuous
 62
     7
100
AcDbText
 10
24.936706
 20
24.592901
 30
0.0
 40
0.12
  1
Formbohrer 994-002-***
  7
Vcadd_SIMP
100
AcDbText
  0
TEXT
  5
37D
100
AcDbEntity
  8
4
370
    15
390
0
  6
Continuous
 62
     7
100
AcDbText
 10
24.936649
 20
24.126907
 30
0.0
 40
0.12
  1
Formreibahle 995-002-***
  7
Vcadd_SIMP
100
AcDbText
  0
INSERT
  5
395
100
AcDbEntity
  8
4
370
     0
390
0
  6
Continuous
 62
     7
100
AcDbBlockReference
  2
METRIC_TOL
 10
20.172798
 20
17.852599
 30
0.0
  0
LINE
  5
396
100
AcDbEntity
  8
0
370
     0
390
0
  6
Continuous
 62
     1
100
AcDbLine
 10
23.020565
 20
21.828484
 30
0.0
 11
22.717569
 21
21.594822
 31
0.0
  0
LINE
  5
397
100
AcDbEntity
  8
0
370
     0
390
0
  6
Continuous
 62
     1
100
AcDbLine
 10
23.569327
 20
21.828484
 30
0.0
 11
23.020565
 21
21.828484
 31
0.0
  0
LINE
  5
398
100
AcDbEntity
  8
1
370
    15
390
0
  6
Continuous
 62
     1
100
AcDbLine
 10
22.717569
 20
21.594822
 30
0.0
 11
21.468592
 21
21.594822
 31
0.0
  0
TEXT
  5
399
100
AcDbEntity
  8
4
370
    15
390
0
  6
Continuous
 62
     7
100
AcDbText
 10
20.718779
 20
21.53168
 30
0.0
 40
0.142
  1
20,45
  7
Vcadd_SIMP
100
AcDbText
  0
TEXT
  5
39A
100
AcDbEntity
  8
0
370
     0
390
0
  6
Continuous
 62
     7
100
AcDbText
 10
20.482703
 20
21.433945
 30
0.0
 40
0.065844
  1
REVISED TOOLING P/N. UPDATED DIMS FOR
 50
270.0
 41
0.9
  7
Vcadd_SIMP
100
AcDbText
  0
TEXT
  5
39B
100
AcDbEntity
  8
0
370
     0
390
0
  6
Continuous
 62
     7
100
AcDbText
 10
20.326705
 20
21.433945
 30
0.0
 40
0.065844
  1
CAVITY/TOOLING CONSISTENCY.
 50
270.0
 41
0.9
  7
Vcadd_SIMP
100
AcDbText
  0
TEXT
  5
39C
100
AcDbEntity
  8
0
370
     0
390
0
  6
Continuous
 62
     7
100
AcDbText
 10
20.170703
 20
21.433945
 30
0.0
 40
0.065844
  1
ADDED METRIC TOL. BLOCK TO SHEETS 2 & 3
 50
270.0
 41
0.9
  7
Vcadd_SIMP
100
AcDbText
  0
TEXT
  5
39D
100
AcDbEntity
  8
0
370
     0
390
0
  6
Continuous
 62
     7
100
AcDbText
 10
20.210928
 20
18.221123
 30
0.0
 40
0.065844
  1
RCL
 50
270.0
  7
Vcadd_SIMP
 72
     1
 11
20.324509
 21
18.221123
 31
0.0
100
AcDbText
  0
TEXT
  5
39E
100
AcDbEntity
  8
4
370
    15
390
0
  6
Continuous
 62
     7
100
AcDbText
 10
21.276826
 20
22.465424
 30
0.0
 40
0.142
  1
26,70
  7
Vcadd_SIMP
100
AcDbText
  0
TEXT
  5
39F
100
AcDbEntity
  8
4
370
    15
390
0
  6
Continuous
 62
     7
100
AcDbText
 10
21.276826
 20
22.287924
 30
0.0
 40
0.142
  1
26,75
  7
Vcadd_SIMP
100
AcDbText
  0
TEXT
  5
3A0
100
AcDbEntity
  8
4
370
    15
390
0
  6
Continuous
 62
     7
100
AcDbText
 10
24.913216
 20
25.119064
 30
0.0
 40
0.12
  1
Formreibahle 0,79 mm tiefer
  7
Vcadd_SIMP
100
AcDbText
  0
TEXT
  5
3A1
100
AcDbEntity
  8
4
370
    15
390
0
  6
Continuous
 62
     7
100
AcDbText
 10
24.913216
 20
24.969064
 30
0.0
 40
0.12
  1
einfόhren als Formbohrer
  7
Vcadd_SIMP
100
AcDbText
  0
LINE
  5
3A2
100
AcDbEntity
  8
1
370
    30
390
0
  6
Continuous
 62
     1
100
AcDbLine
 10
26.06494
 20
20.219822
 30
0.0
 11
28.350989
 21
20.219822
 31
0.0
  0
LINE
  5
3A3
100
AcDbEntity
  8
1
370
    30
390
0
  6
Continuous
 62
     1
100
AcDbLine
 10
23.808337
 20
20.219822
 30
0.0
 11
21.363074
 21
20.219822
 31
0.0
  0
TEXT
  5
3A4
100
AcDbEntity
  8
4
370
    15
390
0
  6
Continuous
 62
     7
100
AcDbText
 10
20.651602
 20
17.46971
 30
0.0
 40
0.142
  1
35,13
  7
Vcadd_SIMP
100
AcDbText
  0
TEXT
  5
3A5
100
AcDbEntity
  8
4
370
    15
390
0
  6
Continuous
 62
     7
100
AcDbText
 10
20.651992
 20
17.29221
 30
0.0
 40
0.142
  1
35,23
  7
Vcadd_SIMP
100
AcDbText
  0
LINE
  5
3A6
100
AcDbEntity
  8
1
370
    15
390
0
  6
Continuous
 62
     1
100
AcDbLine
 10
23.980208
 20
17.446425
 30
0.0
 11
21.463575
 21
17.446427
 31
0.0
  0
LINE
  5
3A7
100
AcDbEntity
  8
1
370
    15
390
0
  6
Continuous
 62
     1
100
AcDbLine
 10
21.355486
 20
17.446427
 30
0.0
 11
20.65062
 21
17.446427
 31
0.0
  0
ENDSEC
  0
SECTION
  2
OBJECTS
  0
DICTIONARY
  5
19
100
AcDbDictionary
280
     0
281
     1
  3
ACAD_GROUP
350
1A
  3
ACAD_MLINESTYLE
350
1B
  3
ACAD_LAYOUT
350
1E
  3
ACAD_PLOTSETTINGS
350
22
  3
ACAD_PLOTSTYLENAME
350
1F
  3
ACAD_WIPEOUT_VARS
350
23
  0
DICTIONARY
  5
1A
102
{ACAD_REACTORS
330
19
102
}
100
AcDbDictionary
280
     0
281
     1
  0
DICTIONARY
  5
1B
102
{ACAD_REACTORS
330
19
102
}
100
AcDbDictionary
280
     0
281
     1
  3
Standard
350
1C
  0
MLINESTYLE
  5
1C
102
{ACAD_REACTORS
330
1B
102
}
100
AcDbMlineStyle
  2
Standard
 70
     0
  3

 62
     0
 51
90.0
 52
90.0
 71
     2
 49
0.5
 62
   256
  6
ByLayer
 49
-0.5
 62
   256
  6
ByLayer
  0
ACDBDICTIONARYWDFLT
  5
1F
102
{ACAD_REACTORS
330
19
102
}
100
AcDbDictionary
281
     1
  3
Normal
350
1D
100
AcDbDictionaryWithDefault
340
1D
  0
ACDBPLACEHOLDER
  5
1D
102
{ACAD_REACTORS
330
1F
102
}
  0
LAYOUT
  5
20
102
{ACAD_REACTORS
330
1E
102
}
100
AcDbPlotSettings
  1

  2

  4

  6

 40
0.0
 41
0.0
 42
0.0
 43
0.0
 44
0.0
 45
0.0
 46
0.0
 47
0.0
 48
0.0
 49
0.0
140
0.0
141
0.0
142
1.0
143
1.0
 70
  1024
 72
     0
 73
     0
 74
     0
  7

 75
     0
147
1.0
148
0.0
149
0.0
100
AcDbLayout
  1
Model
 70
     0
 71
     0
 10
0.0
 20
0.0
 11
0.0
 21
0.0
 12
0.0
 22
0.0
 32
0.0
 14
0.0
 24
0.0
 34
0.0
 15
0.0
 25
0.0
 35
0.0
146
0.0
 13
0.0
 23
0.0
 33
0.0
 16
0.0
 26
0.0
 36
0.0
 17
0.0
 27
0.0
 37
0.0
 76
     0
330
A
331
0
345
0
346
0
  0
LAYOUT
  5
21
102
{ACAD_REACTORS
330
1E
102
}
100
AcDbPlotSettings
  1

  2

  4

  6

 40
0.0
 41
0.0
 42
0.0
 43
0.0
 44
0.0
 45
0.0
 46
0.0
 47
0.0
 48
0.0
 49
0.0
140
0.0
141
0.0
142
1.0
143
1.0
 70
     0
 72
     0
 73
     0
 74
     0
  7

 75
     0
147
1.0
148
0.0
149
0.0
100
AcDbLayout
  1
Layout1
 70
     0
 71
     0
 10
0.0
 20
0.0
 11
0.0
 21
0.0
 12
0.0
 22
0.0
 32
0.0
 14
0.0
 24
0.0
 34
0.0
 15
0.0
 25
0.0
 35
0.0
146
0.0
 13
0.0
 23
0.0
 33
0.0
 16
0.0
 26
0.0
 36
0.0
 17
0.0
 27
0.0
 37
0.0
 76
     0
330
B
331
0
345
0
346
0
  0
DICTIONARY
  5
1E
102
{ACAD_REACTORS
330
19
102
}
100
AcDbDictionary
280
     0
281
     1
  3
Layout1
350
21
  3
Model
350
20
  0
DICTIONARY
  5
22
102
{ACAD_REACTORS
330
19
102
}
100
AcDbDictionary
280
     0
281
     1
  0
WIPEOUTVARIABLES
  5
23
100
AcDbWipeoutVariables
 70
     1
  0
ENDSEC
  0
EOF
