  0
SECTION
  2
HEADER
  9
$ACADVER
  1
AC1015
  9
$ACADMAINTVER
 70
     6
  9
$DWGCODEPAGE
  3
ANSI_1253
  9
$INSBASE
 10
0.0
 20
0.0
 30
0.0
  9
$EXTMIN
 10
20.586985
 20
12.898079
 30
0.0
  9
$EXTMAX
 10
30.592146
 20
28.901783
 30
0.0
  9
$LIMMIN
 10
0.0
 20
0.0
  9
$LIMMAX
 10
0.0
 20
0.0
  9
$ORTHOMODE
 70
     0
  9
$REGENMODE
 70
     1
  9
$FILLMODE
 70
     1
  9
$QTEXTMODE
 70
     0
  9
$MIRRTEXT
 70
     1
  9
$LTSCALE
 40
1.0
  9
$ATTMODE
 70
     1
  9
$TEXTSIZE
 40
0.2
  9
$TRACEWID
 40
0.05
  9
$TEXTSTYLE
  7
Standard
  9
$CLAYER
  8
0
  9
$CELTYPE
  6
Continuous
  9
$CECOLOR
 62
   256
  9
$CELTSCALE
 40
1.0
  9
$DISPSILH
 70
     0
  9
$DIMSCALE
 40
1.0
  9
$DIMASZ
 40
0.18
  9
$DIMEXO
 40
0.0625
  9
$DIMDLI
 40
0.38
  9
$DIMRND
 40
0.0
  9
$DIMDLE
 40
0.0
  9
$DIMEXE
 40
0.18
  9
$DIMTP
 40
0.0
  9
$DIMTM
 40
0.0
  9
$DIMTXT
 40
0.18
  9
$DIMCEN
 40
0.09
  9
$DIMTSZ
 40
0.0
  9
$DIMTOL
 70
     0
  9
$DIMLIM
 70
     0
  9
$DIMTIH
 70
     1
  9
$DIMTOH
 70
     1
  9
$DIMSE1
 70
     0
  9
$DIMSE2
 70
     0
  9
$DIMTAD
 70
     0
  9
$DIMZIN
 70
     0
  9
$DIMBLK
  1

  9
$DIMASO
 70
     1
  9
$DIMSHO
 70
     1
  9
$DIMPOST
  1

  9
$DIMAPOST
  1

  9
$DIMALT
 70
     0
  9
$DIMALTD
 70
     2
  9
$DIMALTF
 40
25.4
  9
$DIMLFAC
 40
1.0
  9
$DIMTOFL
 70
     0
  9
$DIMTVP
 40
0.0
  9
$DIMTIX
 70
     0
  9
$DIMSOXD
 70
     0
  9
$DIMSAH
 70
     0
  9
$DIMBLK1
  1

  9
$DIMBLK2
  1

  9
$DIMSTYLE
  2
Standard
  9
$DIMCLRD
 70
     0
  9
$DIMCLRE
 70
     0
  9
$DIMCLRT
 70
     0
  9
$DIMTFAC
 40
1.0
  9
$DIMGAP
 40
0.09
  9
$DIMJUST
 70
     0
  9
$DIMSD1
 70
     0
  9
$DIMSD2
 70
     0
  9
$DIMTOLJ
 70
     1
  9
$DIMTZIN
 70
     0
  9
$DIMALTZ
 70
     0
  9
$DIMALTTZ
 70
     0
  9
$DIMUPT
 70
     0
  9
$DIMDEC
 70
     4
  9
$DIMTDEC
 70
     4
  9
$DIMALTU
 70
     2
  9
$DIMALTTD
 70
     2
  9
$DIMTXSTY
  7
Standard
  9
$DIMAUNIT
 70
     0
  9
$DIMADEC
 70
     0
  9
$DIMALTRND
 40
0.0
  9
$DIMAZIN
 70
     0
  9
$DIMDSEP
 70
     0
  9
$DIMATFIT
 70
     3
  9
$DIMFRAC
 70
     0
  9
$DIMLDRBLK
  1

  9
$DIMLUNIT
 70
     2
  9
$DIMLWD
 70
     0
  9
$DIMLWE
 70
     0
  9
$DIMTMOVE
 70
     0
  9
$LUNITS
 70
     2
  9
$LUPREC
 70
     4
  9
$SKETCHINC
 40
0.1
  9
$FILLETRAD
 40
0.0
  9
$AUNITS
 70
     0
  9
$AUPREC
 70
     0
  9
$MENU
  1
acad
  9
$ELEVATION
 40
0.0
  9
$PELEVATION
 40
0.0
  9
$THICKNESS
 40
0.0
  9
$LIMCHECK
 70
     0
  9
$CHAMFERA
 40
0.0
  9
$CHAMFERB
 40
0.0
  9
$CHAMFERC
 40
0.0
  9
$CHAMFERD
 40
0.0
  9
$SKPOLY
 70
     0
  9
$TDCREATE
 40
0.000000000
  9
$TDUCREATE
 40
0.000000000
  9
$TDUPDATE
 40
0.000000000
  9
$TDUUPDATE
 40
0.000000000
  9
$TDINDWG
 40
0.0000000000
  9
$TDUSRTIMER
 40
0.0000000000
  9
$USRTIMER
 70
     1
  9
$ANGBASE
 50
0.0
  9
$ANGDIR
 70
     0
  9
$PDMODE
 70
     2
  9
$PDSIZE
 40
-1.0
  9
$PLINEWID
 40
0.0
  9
$SPLFRAME
 70
     0
  9
$SPLINETYPE
 70
     6
  9
$SPLINESEGS
 70
     8
  9
$HANDSEED
  5
43C
  9
$SURFTAB1
 70
     6
  9
$SURFTAB2
 70
     6
  9
$SURFTYPE
 70
     6
  9
$SURFU
 70
     6
  9
$SURFV
 70
     6
  9
$UCSBASE
  2

  9
$UCSNAME
  2

  9
$UCSORG
 10
0.0
 20
0.0
 30
0.0
  9
$UCSXDIR
 10
1.0
 20
0.0
 30
0.0
  9
$UCSYDIR
 10
0.0
 20
1.0
 30
0.0
  9
$UCSORTHOREF
  2

  9
$UCSORTHOVIEW
 70
     0
  9
$UCSORGTOP
 10
0.0
 20
0.0
 30
0.0
  9
$UCSORGBOTTOM
 10
0.0
 20
0.0
 30
0.0
  9
$UCSORGLEFT
 10
0.0
 20
0.0
 30
0.0
  9
$UCSORGRIGHT
 10
0.0
 20
0.0
 30
0.0
  9
$UCSORGFRONT
 10
0.0
 20
0.0
 30
0.0
  9
$UCSORGBACK
 10
0.0
 20
0.0
 30
0.0
  9
$PUCSBASE
  2

  9
$PUCSNAME
  2

  9
$PUCSORG
 10
0.0
 20
0.0
 30
0.0
  9
$PUCSXDIR
 10
1.0
 20
0.0
 30
0.0
  9
$PUCSYDIR
 10
0.0
 20
1.0
 30
0.0
  9
$PUCSORTHOREF
  2

  9
$PUCSORTHOVIEW
 70
     0
  9
$PUCSORGTOP
 10
0.0
 20
0.0
 30
0.0
  9
$PUCSORGBOTTOM
 10
0.0
 20
0.0
 30
0.0
  9
$PUCSORGLEFT
 10
0.0
 20
0.0
 30
0.0
  9
$PUCSORGRIGHT
 10
0.0
 20
0.0
 30
0.0
  9
$PUCSORGFRONT
 10
0.0
 20
0.0
 30
0.0
  9
$PUCSORGBACK
 10
0.0
 20
0.0
 30
0.0
  9
$USERI1
 70
     0
  9
$USERI2
 70
     0
  9
$USERI3
 70
     0
  9
$USERI4
 70
     0
  9
$USERI5
 70
     0
  9
$USERR1
 40
0.0
  9
$USERR2
 40
0.0
  9
$USERR3
 40
0.0
  9
$USERR4
 40
0.0
  9
$USERR5
 40
0.0
  9
$WORLDVIEW
 70
     1
  9
$SHADEDGE
 70
     3
  9
$SHADEDIF
 70
    70
  9
$TILEMODE
 70
     1
  9
$MAXACTVP
 70
    16
  9
$PINSBASE
 10
0.0
 20
0.0
 30
0.0
  9
$PLIMCHECK
 70
     0
  9
$PEXTMIN
 10
1.000000E+20
 20
1.000000E+20
 30
1.000000E+20
  9
$PEXTMAX
 10
-1.000000E+20
 20
-1.000000E+20
 30
-1.000000E+20
  9
$PLIMMIN
 10
0.0
 20
0.0
  9
$PLIMMAX
 10
12.0
 20
9.0
  9
$UNITMODE
 70
     0
  9
$VISRETAIN
 70
     0
  9
$PLINEGEN
 70
     1
  9
$PSLTSCALE
 70
     0
  9
$TREEDEPTH
 70
  3020
  9
$CMLSTYLE
  2
Standard
  9
$CMLJUST
 70
     0
  9
$CMLSCALE
 40
1.0
  9
$PROXYGRAPHICS
 70
     0
  9
$MEASUREMENT
 70
     0
  9
$CELWEIGHT
370
     0
  9
$ENDCAPS
280
     0
  9
$JOINSTYLE
280
     0
  9
$LWDISPLAY
290
     1
  9
$INSUNITS
 70
     0
  9
$HYPERLINKBASE
  1

  9
$STYLESHEET
  1

  9
$XEDIT
290
     1
  9
$CEPSNTYPE
380
     0
  9
$PSTYLEMODE
290
     1
  9
$FINGERPRINTGUID
  2

  9
$VERSIONGUID
  2

  9
$EXTNAMES
290
     1
  9
$PSVPSCALE
 40
0.0
  0
ENDSEC
  0
SECTION
  2
CLASSES
  0
CLASS
  1
LWPOLYLINE
  2
AcDbPolyline
  3
AutoCAD 2000
 90
        0
280
     0
281
     1
  0
CLASS
  1
IMAGE
  2
AcDbRasterImage
  3
ISM
 90
      127
280
     0
281
     1
  0
CLASS
  1
OLE2FRAME
  2
AcDbOle2Frame
  3
AutoCAD 2000
 90
        0
280
     0
281
     1
  0
CLASS
  1
HATCH
  2
AcDbHatch
  3
AutoCAD 2000
 90
        0
280
     0
281
     1
  0
CLASS
  1
DICTIONARYVAR
  2
AcDbDictionaryVar
  3
AutoCAD 2000
 90
        0
280
     0
281
     0
  0
CLASS
  1
RASTERVARIABLES
  2
AcDbRasterVariables
  3
ISM
 90
        0
280
     0
281
     0
  0
CLASS
  1
IMAGEDEF
  2
AcDbRasterImageDef
  3
ISM
 90
        0
280
     0
281
     0
  0
CLASS
  1
IMAGEDEF_REACTOR
  2
AcDbRasterImageDefReactor
  3
ISM
 90
        1
280
     0
281
     0
  0
CLASS
  1
IDBUFFER
  2
AcDbIdBuffer
  3
AutoCAD 2000
 90
        0
280
     0
281
     0
  0
CLASS
  1
SPATIAL_FILTER
  2
AcDbSpatialFilter
  3
AutoCAD 2000
 90
        0
280
     0
281
     0
  0
CLASS
  1
XRECORD
  2
AcDbXrecord
  3
AutoCAD 2000
 90
        0
280
     0
281
     0
  0
CLASS
  1
SORTENTSTABLE
  2
AcDbSortentsTable
  3
AutoCAD 2000
 90
        0
280
     0
281
     0
  0
CLASS
  1
LAYER_INDEX
  2
AcDbLayerIndex
  3
AutoCAD 2000
 90
        0
280
     0
281
     0
  0
CLASS
  1
SPATIAL_INDEX
  2
AcDbSpatialIndex
  3
AutoCAD 2000
 90
        0
280
     0
281
     0
  0
CLASS
  1
OBJECT_PTR
  2
CAseDLPNTableRecord
  3
"ASE-LPNTableRecord"
 90
        1
280
     0
281
     0
  0
CLASS
  1
LAYOUT
  2
AcDbLayout
  3
AutoCAD 2000
 90
        0
280
     0
281
     0
  0
CLASS
  1
PLOTSETTINGS
  2
AcDbPlotSettings
  3
AutoCAD 2000
 90
        0
280
     0
281
     0
  0
CLASS
  1
ACDBDICTIONARYWDFLT
  2
AcDbDictionaryWithDefault
  3
AutoCAD 2000
 90
        0
280
     0
281
     0
  0
CLASS
  1
ACDBPLACEHOLDER
  2
AcDbPlaceHolder
  3
AutoCAD 2000
 90
        0
280
     0
281
     0
  0
CLASS
  1
VBA_PROJECT
  2
AcDbVbaProject
  3
acadvba
 90
        0
280
     0
281
     0
  0
CLASS
  1
WIPEOUT
  2
AcDbWipeout
  3
WipeOut|AutoCAD Express Tool|expresstools@autodesk.com
 90
      127
280
     0
281
     1
  0
CLASS
  1
WIPEOUTVARIABLES
  2
AcDbWipeoutVariables
  3
WipeOut|AutoCAD Express Tool|expresstools@autodesk.com
 90
        0
280
     0
281
     0
  0
CLASS
  1
RTEXT
  2
RText
  3
RText|AutoCAD Express Tool|expresstools@autodesk.com
 90
        0
280
     0
281
     1
  0
CLASS
  1
ARCALIGNEDTEXT
  2
AcDbArcAlignedText
  3
ATEXT|AutoCAD Express Tool|expresstools@autodesk.com
 90
        0
280
     0
281
     1
  0
ENDSEC
  0
SECTION
  2
TABLES
  0
TABLE
  2
VPORT
  5
7
100
AcDbSymbolTable
 70
     2
  0
VPORT
  5
15
100
AcDbSymbolTableRecord
100
AcDbViewportTableRecord
  2
*ACTIVE
 70
     0
 10
0.0
 20
0.0
 11
1.0
 21
1.0
 12
6.591288
 22
4.579184
 13
0.0
 23
0.0
 14
1.0
 24
1.0
 15
0.0
 25
0.0
 16
0.0
 26
0.0
 36
1.0
 17
0.0
 27
0.0
 37
0.0
 40
9.158369
 41
0.688564
 42
50.0
 43
0.0
 44
0.0
 50
0.0
 51
0.0
 71
     0
 72
   100
 73
     1
 74
     1
 75
     0
 76
     0
 77
     0
 78
     0
281
     0
 65
     0
110
0.0
120
0.0
130
0.0
111
1.0
121
0.0
131
0.0
112
0.0
122
1.0
132
0.0
345
0
346
0
 79
     0
146
0.0
  0
VPORT
  5
43B
100
AcDbSymbolTableRecord
100
AcDbViewportTableRecord
  2
MYVPORT
 70
     0
 10
0.0
 20
0.0
 11
1.0
 21
1.0
 12
6.21
 22
9.02
 13
0.0
 23
0.0
 14
1.0
 24
1.0
 15
0.0
 25
0.0
 16
0.0
 26
0.0
 36
1.0
 17
0.0
 27
0.0
 37
0.0
 40
18.04
 41
0.688564
 42
50.0
 43
0.0
 44
0.0
 50
0.0
 51
0.0
 71
     0
 72
   100
 73
     1
 74
     1
 75
     0
 76
     0
 77
     0
 78
     0
281
     0
 65
     0
110
0.0
120
0.0
130
0.0
111
1.0
121
0.0
131
0.0
112
0.0
122
1.0
132
0.0
345
0
346
0
 79
     0
146
0.0
  0
ENDTAB
  0
TABLE
  2
LTYPE
  5
4
100
AcDbSymbolTable
 70
     7
  0
LTYPE
  5
11
100
AcDbSymbolTableRecord
100
AcDbLinetypeTableRecord
  2
ByBlock
 70
    64
  3

 72
    65
 73
     0
 40
0.0
  0
LTYPE
  5
12
100
AcDbSymbolTableRecord
100
AcDbLinetypeTableRecord
  2
ByLayer
 70
    64
  3

 72
    65
 73
     0
 40
0.0
  0
LTYPE
  5
13
100
AcDbSymbolTableRecord
100
AcDbLinetypeTableRecord
  2
Continuous
 70
    64
  3
Solid line
 72
    65
 73
     0
 40
0.0
  0
LTYPE
  5
67
100
AcDbSymbolTableRecord
100
AcDbLinetypeTableRecord
  2
CL____X1
 70
    64
  3
Visual CADD Translation
 72
    65
 73
     4
 40
1.33
 49
0.05
 74
     0
 49
-0.05
 74
     0
 49
1.18
 74
     0
 49
-0.05
 74
     0
  0
LTYPE
  5
1CB
100
AcDbSymbolTableRecord
100
AcDbLinetypeTableRecord
  2
DIVIDE
 70
    64
  3
Visual CADD Translation
 72
    65
 73
     6
 40
1.0
 49
0.6
 74
     0
 49
-0.133
 74
     0
 49
0.0
 74
     0
 49
-0.134
 74
     0
 49
0.0
 74
     0
 49
-0.133
 74
     0
  0
LTYPE
  5
28C
100
AcDbSymbolTableRecord
100
AcDbLinetypeTableRecord
  2
TYPE___8
 70
    64
  3
Visual CADD Translation
 72
    65
 73
     6
 40
1.0
 49
0.6
 74
     0
 49
-0.08
 74
     0
 49
0.08
 74
     0
 49
-0.08
 74
     0
 49
0.08
 74
     0
 49
-0.08
 74
     0
  0
LTYPE
  5
2AB
100
AcDbSymbolTableRecord
100
AcDbLinetypeTableRecord
  2
PHANTOM
 70
    64
  3
Visual CADD Translation
 72
    65
 73
     6
 40
1.37
 49
0.99
 74
     0
 49
-0.05
 74
     0
 49
0.115
 74
     0
 49
-0.05
 74
     0
 49
0.115
 74
     0
 49
-0.05
 74
     0
  0
ENDTAB
  0
TABLE
  2
LAYER
  5
2
100
AcDbSymbolTable
 70
     6
  0
LAYER
  5
14
100
AcDbSymbolTableRecord
100
AcDbLayerTableRecord
  2
0
 70
     0
 62
     7
  6
Continuous
290
     1
370
    -3
390
1D
  0
LAYER
  5
24
100
AcDbSymbolTableRecord
100
AcDbLayerTableRecord
  2
1
 70
     0
 62
     7
  6
Continuous
290
     1
370
    -3
390
1D
  0
LAYER
  5
25
100
AcDbSymbolTableRecord
100
AcDbLayerTableRecord
  2
2
 70
     0
 62
     7
  6
Continuous
290
     1
370
    -3
390
1D
  0
LAYER
  5
26
100
AcDbSymbolTableRecord
100
AcDbLayerTableRecord
  2
3
 70
     0
 62
     7
  6
Continuous
290
     1
370
    -3
390
1D
  0
LAYER
  5
27
100
AcDbSymbolTableRecord
100
AcDbLayerTableRecord
  2
4
 70
     0
 62
     7
  6
Continuous
290
     1
370
    -3
390
1D
  0
LAYER
  5
2FD
100
AcDbSymbolTableRecord
100
AcDbLayerTableRecord
  2
9
 70
     0
 62
     7
  6
Continuous
290
     1
370
    -3
390
1D
  0
ENDTAB
  0
TABLE
  2
STYLE
  5
3
100
AcDbSymbolTable
 70
     3
  0
STYLE
  5
17
100
AcDbSymbolTableRecord
100
AcDbTextStyleTableRecord
  2
Standard
 70
     0
 40
0.0
 41
1.0
 50
0.0
 71
     0
 42
0.0
  3
txt
  4

  0
STYLE
  5
2F
100
AcDbSymbolTableRecord
100
AcDbTextStyleTableRecord
  2
Vcadd_Main
 70
     0
 40
0.0
 41
1.0
 50
0.0
 71
     0
 42
0.0
  3
Main
  4

  0
STYLE
  5
203
100
AcDbSymbolTableRecord
100
AcDbTextStyleTableRecord
  2
Vcadd_SIMP
 70
     0
 40
0.0
 41
1.0
 50
0.0
 71
     0
 42
0.0
  3
SIMP
  4

  0
ENDTAB
  0
TABLE
  2
VIEW
  5
5
100
AcDbSymbolTable
 70
     0
  0
ENDTAB
  0
TABLE
  2
UCS
  5
6
100
AcDbSymbolTable
 70
     1
  0
UCS
  5
43A
100
AcDbSymbolTableRecord
100
AcDbUCSTableRecord
  2
MYUCS
 70
     0
 10
0.0
 20
0.0
 30
0.0
 11
0.0
 21
1.0
 31
0.0
 12
0.0
 22
0.0
 32
1.0
 79
     0
146
0.0
  0
ENDTAB
  0
TABLE
  2
APPID
  5
8
100
AcDbSymbolTable
 70
     1
  0
APPID
  5
16
100
AcDbSymbolTableRecord
100
AcDbRegAppTableRecord
  2
ACAD
 70
     0
  0
ENDTAB
  0
TABLE
  2
DIMSTYLE
  5
9
100
AcDbSymbolTable
 70
     2
100
AcDbDimStyleTable
 71
     0
  0
DIMSTYLE
105
18
100
AcDbSymbolTableRecord
100
AcDbDimStyleTableRecord
  2
Standard
 70
     0
  3

  4

 40
1.0
 41
0.18
 42
0.0625
 43
0.38
 44
0.18
 45
0.0
 46
0.0
 47
0.0
 48
0.0
 71
     0
 72
     0
 73
     1
 74
     1
 75
     0
 76
     0
 77
     0
 78
     0
 79
     0
140
0.18
141
0.09
142
0.0
143
25.4
144
1.0
145
0.0
146
1.0
147
0.09
148
0.0
170
     0
171
     2
172
     0
173
     0
174
     0
175
     0
176
     0
177
     0
178
     0
179
     0
271
     4
272
     4
273
     2
274
     2
275
     0
276
     0
277
     2
278
    46
279
     0
280
     0
281
     0
282
     0
283
     1
284
     0
285
     0
286
     0
288
     0
289
     3
340
17
341
0
342
0
343
0
344
0
371
    -2
372
    -2
  0
DIMSTYLE
105
30
100
AcDbSymbolTableRecord
100
AcDbDimStyleTableRecord
  2
VCADD_DIMSTYLE
 70
     0
  3

  4

 40
1.0
 41
2.5
 42
0.1
 43
0.0
 44
0.1
 45
0.0
 46
0.0
 47
0.003
 48
0.002
 71
     0
 72
     0
 73
     1
 74
     1
 75
     0
 76
     0
 77
     0
 78
     3
 79
     1
140
0.1
141
0.0
142
0.0
143
1.0
144
1.0
145
0.0
146
1.0
147
0.2
148
0.0
170
     0
171
     3
172
     0
173
     0
174
     1
175
     0
176
     0
177
     0
178
     0
179
     3
271
     3
272
     4
273
     2
274
     2
275
     0
276
     0
277
     2
278
    46
279
     0
280
     0
281
     0
282
     0
283
     1
284
     0
285
     0
286
     0
288
     0
289
     3
340
2F
341
0
342
0
343
0
344
0
371
    -2
372
    -2
  0
ENDTAB
  0
TABLE
  2
BLOCK_RECORD
  5
1
100
AcDbSymbolTable
 70
     5
  0
BLOCK_RECORD
  5
A
100
AcDbSymbolTableRecord
100
AcDbBlockTableRecord
  2
*MODEL_SPACE
340
20
  0
BLOCK_RECORD
  5
B
100
AcDbSymbolTableRecord
100
AcDbBlockTableRecord
  2
*PAPER_SPACE
340
21
  0
BLOCK_RECORD
  5
28
100
AcDbSymbolTableRecord
100
AcDbBlockTableRecord
  2
_CLOSED
340
0
  0
BLOCK_RECORD
  5
268
100
AcDbSymbolTableRecord
100
AcDbBlockTableRecord
  2
MAU
340
0
102
{BLKREFS
331
275
331
286
102
}
  0
BLOCK_RECORD
  5
277
100
AcDbSymbolTableRecord
100
AcDbBlockTableRecord
  2
MAL
340
0
102
{BLKREFS
331
284
102
}
  0
BLOCK_RECORD
  5
2FB
100
AcDbSymbolTableRecord
100
AcDbBlockTableRecord
  2
ARROW
340
0
102
{BLKREFS
331
303
331
304
331
305
331
306
331
307
331
308
331
309
331
30A
331
30B
331
30C
331
30D
331
30E
331
30F
331
310
331
311
331
312
331
313
331
314
331
315
331
316
331
317
331
318
331
31B
331
3EF
331
3F0
331
3F7
331
3F8
331
402
331
403
102
}
  0
BLOCK_RECORD
  5
40C
100
AcDbSymbolTableRecord
100
AcDbBlockTableRecord
  2
METRIC_TOL
340
0
102
{BLKREFS
331
423
102
}
  0
ENDTAB
  0
ENDSEC
  0
SECTION
  2
BLOCKS
  0
BLOCK
  5
D
100
AcDbEntity
  8
0
390
0
100
AcDbBlockBegin
  2
*MODEL_SPACE
 70
     0
 10
0.0
 20
0.0
 30
0.0
  3
*MODEL_SPACE
  1

  0
ENDBLK
  5
E
100
AcDbEntity
  8
0
390
0
100
AcDbBlockEnd
  0
BLOCK
  5
F
100
AcDbEntity
 67
     1
  8
0
390
0
100
AcDbBlockBegin
  2
*PAPER_SPACE
 70
     0
 10
0.0
 20
0.0
 30
0.0
  3
*PAPER_SPACE
  1

  0
ENDBLK
  5
10
100
AcDbEntity
 67
     1
  8
0
390
0
100
AcDbBlockEnd
  0
BLOCK
  5
29
100
AcDbEntity
  8
0
390
0
100
AcDbBlockBegin
  2
_CLOSED
 70
     0
 10
0.0
 20
0.0
 30
0.0
  3
_CLOSED
  1

  0
LINE
  5
2A
100
AcDbEntity
  8
0
370
    -2
390
0
  6
ByBlock
 62
     0
100
AcDbLine
 10
-1.0
 20
0.166667
 30
0.0
 11
0.0
 21
0.0
 31
0.0
  0
LINE
  5
2B
100
AcDbEntity
  8
0
370
    -2
390
0
  6
ByBlock
 62
     0
100
AcDbLine
 10
0.0
 20
0.0
 30
0.0
 11
-1.0
 21
-0.166667
 31
0.0
  0
LINE
  5
2C
100
AcDbEntity
  8
0
370
    -2
390
0
  6
ByBlock
 62
     0
100
AcDbLine
 10
-1.0
 20
0.166667
 30
0.0
 11
-1.0
 21
-0.166667
 31
0.0
  0
LINE
  5
2D
100
AcDbEntity
  8
0
370
    -2
390
0
  6
ByBlock
 62
     0
100
AcDbLine
 10
0.0
 20
0.0
 30
0.0
 11
-1.0
 21
0.0
 31
0.0
  0
ENDBLK
  5
2E
100
AcDbEntity
  8
0
390
0
100
AcDbBlockEnd
  0
BLOCK
  5
269
100
AcDbEntity
  8
0
390
0
100
AcDbBlockBegin
  2
MAU
 70
     0
 10
0.0
 20
0.0
 30
0.0
  3
MAU
  1

  0
LINE
  5
26A
100
AcDbEntity
  8
0
370
     0
390
0
  6
Continuous
 62
     2
100
AcDbLine
 10
0.0
 20
0.0
 30
0.0
 11
-0.024965
 21
-0.169856
 31
0.0
  0
LINE
  5
26B
100
AcDbEntity
  8
0
370
     0
390
0
  6
Continuous
 62
     2
100
AcDbLine
 10
0.0
 20
0.0
 30
0.0
 11
0.022192
 21
-0.169856
 31
0.0
  0
LINE
  5
26C
100
AcDbEntity
  8
0
370
     0
390
0
  6
Continuous
 62
     2
100
AcDbLine
 10
0.022192
 20
-0.169856
 30
0.0
 11
-0.024965
 21
-0.169856
 31
0.0
  0
LINE
  5
26D
100
AcDbEntity
  8
0
370
     0
390
0
  6
Continuous
 62
     7
100
AcDbLine
 10
-0.015773
 20
-0.160825
 30
0.0
 11
0.013481
 21
-0.160825
 31
0.0
  0
LINE
  5
26E
100
AcDbEntity
  8
0
370
     0
390
0
  6
Continuous
 62
     7
100
AcDbLine
 10
0.013481
 20
-0.160825
 30
0.0
 11
-0.000196
 21
-0.036413
 31
0.0
  0
LINE
  5
26F
100
AcDbEntity
  8
0
370
     0
390
0
  6
Continuous
 62
     7
100
AcDbLine
 10
-0.015773
 20
-0.160825
 30
0.0
 11
-0.000196
 21
-0.036413
 31
0.0
  0
LINE
  5
270
100
AcDbEntity
  8
0
370
     0
390
0
  6
Continuous
 62
     7
100
AcDbLine
 10
-0.006656
 20
-0.149436
 30
0.0
 11
-0.000576
 21
-0.078031
 31
0.0
  0
LINE
  5
271
100
AcDbEntity
  8
0
370
     0
390
0
  6
Continuous
 62
     7
100
AcDbLine
 10
-0.006656
 20
-0.149436
 30
0.0
 11
0.005122
 21
-0.149436
 31
0.0
  0
LINE
  5
272
100
AcDbEntity
  8
0
370
     0
390
0
  6
Continuous
 62
     7
100
AcDbLine
 10
0.005122
 20
-0.149436
 30
0.0
 11
-0.000576
 21
-0.078031
 31
0.0
  0
LINE
  5
273
100
AcDbEntity
  8
0
370
     0
390
0
  6
Continuous
 62
     7
100
AcDbLine
 10
-0.000957
 20
-0.142427
 30
0.0
 11
-0.000957
 21
-0.119647
 31
0.0
  0
ENDBLK
  5
274
100
AcDbEntity
  8
0
390
0
100
AcDbBlockEnd
  0
BLOCK
  5
278
100
AcDbEntity
  8
0
390
0
100
AcDbBlockBegin
  2
MAL
 70
     0
 10
0.0
 20
0.0
 30
0.0
  3
MAL
  1

  0
LINE
  5
279
100
AcDbEntity
  8
0
370
     0
390
0
  6
Continuous
 62
     2
100
AcDbLine
 10
0.0
 20
0.0
 30
0.0
 11
0.169856
 21
0.024965
 31
0.0
  0
LINE
  5
27A
100
AcDbEntity
  8
0
370
     0
390
0
  6
Continuous
 62
     2
100
AcDbLine
 10
0.0
 20
0.0
 30
0.0
 11
0.169856
 21
-0.022192
 31
0.0
  0
LINE
  5
27B
100
AcDbEntity
  8
0
370
     0
390
0
  6
Continuous
 62
     2
100
AcDbLine
 10
0.169856
 20
-0.022192
 30
0.0
 11
0.169856
 21
0.024965
 31
0.0
  0
LINE
  5
27C
100
AcDbEntity
  8
0
370
     0
390
0
  6
Continuous
 62
     7
100
AcDbLine
 10
0.160825
 20
0.015773
 30
0.0
 11
0.160825
 21
-0.013481
 31
0.0
  0
LINE
  5
27D
100
AcDbEntity
  8
0
370
     0
390
0
  6
Continuous
 62
     7
100
AcDbLine
 10
0.160825
 20
-0.013481
 30
0.0
 11
0.036413
 21
0.000196
 31
0.0
  0
LINE
  5
27E
100
AcDbEntity
  8
0
370
     0
390
0
  6
Continuous
 62
     7
100
AcDbLine
 10
0.160825
 20
0.015773
 30
0.0
 11
0.036413
 21
0.000196
 31
0.0
  0
LINE
  5
27F
100
AcDbEntity
  8
0
370
     0
390
0
  6
Continuous
 62
     7
100
AcDbLine
 10
0.149436
 20
0.006656
 30
0.0
 11
0.078031
 21
0.000576
 31
0.0
  0
LINE
  5
280
100
AcDbEntity
  8
0
370
     0
390
0
  6
Continuous
 62
     7
100
AcDbLine
 10
0.149436
 20
0.006656
 30
0.0
 11
0.149436
 21
-0.005122
 31
0.0
  0
LINE
  5
281
100
AcDbEntity
  8
0
370
     0
390
0
  6
Continuous
 62
     7
100
AcDbLine
 10
0.149436
 20
-0.005122
 30
0.0
 11
0.078031
 21
0.000576
 31
0.0
  0
LINE
  5
282
100
AcDbEntity
  8
0
370
     0
390
0
  6
Continuous
 62
     7
100
AcDbLine
 10
0.142427
 20
0.000957
 30
0.0
 11
0.119647
 21
0.000957
 31
0.0
  0
ENDBLK
  5
283
100
AcDbEntity
  8
0
390
0
100
AcDbBlockEnd
  0
BLOCK
  5
2FC
100
AcDbEntity
  8
0
390
0
100
AcDbBlockBegin
  2
ARROW
 70
     0
 10
0.0
 20
0.0
 30
0.0
  3
ARROW
  1

  0
LINE
  5
2FE
100
AcDbEntity
  8
9
370
     0
390
0
  6
Continuous
 62
     5
100
AcDbLine
 10
0.0
 20
0.0
 30
0.0
 11
-0.160849
 21
0.031523
 31
0.0
  0
LINE
  5
2FF
100
AcDbEntity
  8
9
370
     0
390
0
  6
Continuous
 62
     5
100
AcDbLine
 10
-0.160849
 20
0.031523
 30
0.0
 11
-0.160849
 21
-0.035463
 31
0.0
  0
LINE
  5
300
100
AcDbEntity
  8
9
370
     0
390
0
  6
Continuous
 62
     5
100
AcDbLine
 10
0.0
 20
0.0
 30
0.0
 11
-0.160849
 21
-0.035463
 31
0.0
  0
HATCH
  5
301
100
AcDbEntity
  8
9
370
     0
390
0
  6
Continuous
 62
     5
100
AcDbHatch
 10
0.0
 20
0.0
 30
0.0
210
0.0
220
0.0
230
1.0
  2
SOLID
 70
     1
 71
     0
 91
        1
 92
        1
 93
        3
 72
     1
 10
0.0
 20
0.0
 11
-0.1608486175537109
 21
0.0315227508544922
 72
     1
 10
-0.1608486175537109
 20
0.0315227508544922
 11
-0.1608486175537109
 21
-0.0354633331298828
 72
     1
 10
-0.1608486175537109
 20
-0.0354633331298828
 11
0.0
 21
0.0
 97
        0
 75
     0
 76
     1
 98
        1
 10
0.0
 20
0.0
  0
ENDBLK
  5
302
100
AcDbEntity
  8
0
390
0
100
AcDbBlockEnd
  0
BLOCK
  5
40D
100
AcDbEntity
  8
0
390
0
100
AcDbBlockBegin
  2
METRIC_TOL
 70
     0
 10
0.0
 20
0.0
 30
0.0
  3
METRIC_TOL
  1

  0
TEXT
  5
40E
100
AcDbEntity
  8
0
370
     0
390
0
  6
Continuous
 62
     7
100
AcDbText
 10
-0.831272
 20
-0.141553
 30
0.0
 40
0.062
  1
REMOVE ALL
 50
-90.0
 41
1.25
  7
Vcadd_SIMP
100
AcDbText
  0
TEXT
  5
40F
100
AcDbEntity
  8
0
370
     0
390
0
  6
Continuous
 62
     7
100
AcDbText
 10
-0.93572
 20
-0.305461
 30
0.0
 40
0.062
  1
BURRS
 50
-90.0
 41
1.25
  7
Vcadd_SIMP
100
AcDbText
  0
TEXT
  5
410
100
AcDbEntity
  8
0
370
     0
390
0
  6
Continuous
 62
     7
100
AcDbText
 10
-0.598068
 20
-0.501283
 30
0.0
 40
0.055
  1
DIM. TOLERANCE
 50
-90.0
 41
1.1725
  7
Vcadd_SIMP
 72
     1
 11
-0.078944
 21
-0.501283
 31
0.0
100
AcDbText
  0
TEXT
  5
411
100
AcDbEntity
  8
0
370
     0
390
0
  6
Continuous
 62
     7
100
AcDbText
 10
-0.558327
 20
-0.501283
 30
0.0
 40
0.055
  1
+\- 0,13 mm
 50
-90.0
 41
1.1725
  7
Vcadd_SIMP
 72
     1
 11
-0.150444
 21
-0.501283
 31
0.0
100
AcDbText
  0
TEXT
  5
412
100
AcDbEntity
  8
0
370
     0
390
0
  6
Continuous
 62
     7
100
AcDbText
 10
-0.444426
 20
-0.501283
 30
0.0
 40
0.055
  1
UNLESS
 50
-90.0
 41
1.1725
  7
Vcadd_SIMP
 72
     1
 11
-0.221944
 21
-0.501283
 31
0.0
100
AcDbText
  0
TEXT
  5
413
100
AcDbEntity
  8
0
370
     0
390
0
  6
Continuous
 62
     7
100
AcDbText
 10
-0.627166
 20
-0.501283
 30
0.0
 40
0.055
  1
SPECIFIED
 50
-90.0
 41
1.1725
  7
Vcadd_SIMP
 72
     1
 11
-0.293444
 21
-0.501283
 31
0.0
100
AcDbText
  0
LINE
  5
414
100
AcDbEntity
  8
0
370
     0
390
0
  6
Continuous
 62
     7
100
AcDbLine
 10
-0.437408
 20
-0.783706
 30
0.0
 11
-0.437408
 21
-0.836281
 31
0.0
  0
LINE
  5
415
100
AcDbEntity
  8
0
370
     0
390
0
  6
Continuous
 62
     7
100
AcDbLine
 10
-0.402232
 20
-0.783706
 30
0.0
 11
-0.402232
 21
-0.836281
 31
0.0
  0
LINE
  5
416
100
AcDbEntity
  8
0
370
     0
390
0
  6
Continuous
 62
     7
100
AcDbLine
 10
-0.386598
 20
-0.809994
 30
0.0
 11
-0.417865
 21
-0.809994
 31
0.0
  0
LINE
  5
417
100
AcDbEntity
  8
0
370
     0
390
0
  6
Continuous
 62
     7
100
AcDbLine
 10
-0.370965
 20
-0.930164
 30
0.0
 11
-0.437408
 21
-0.885099
 31
0.0
  0
TEXT
  5
418
100
AcDbEntity
  8
0
370
     0
390
0
  6
Continuous
 62
     7
100
AcDbText
 10
-0.437875
 20
-0.068704
 30
0.0
 40
0.062
  1
ANGLE TOL
 50
-90.0
 41
1.25
  7
Vcadd_SIMP
100
AcDbText
  0
TEXT
  5
419
100
AcDbEntity
  8
0
370
     0
390
0
  6
Continuous
 62
     7
100
AcDbText
 10
-0.402232
 20
-0.873835
 30
0.0
 40
0.031961
  1
1 
 50
-90.0
 41
1.25
  7
Vcadd_SIMP
100
AcDbText
  0
TEXT
  5
41A
100
AcDbEntity
  8
0
370
     0
390
0
  6
Continuous
 62
     7
100
AcDbText
 10
-0.442184
 20
-0.913786
 30
0.0
 40
0.031961
  1
2
 50
-90.0
 41
1.25
  7
Vcadd_SIMP
100
AcDbText
  0
LINE
  5
41B
100
AcDbEntity
  8
0
370
    15
390
0
  6
Continuous
 62
     7
100
AcDbLine
 10
-0.505208
 20
-0.810778
 30
0.0
 11
-0.499383
 21
-0.821351
 31
0.0
  0
LINE
  5
41C
100
AcDbEntity
  8
0
370
    15
390
0
  6
Continuous
 62
     7
100
AcDbLine
 10
-0.499383
 20
-0.821351
 30
0.0
 11
-0.540808
 21
-0.854313
 31
0.0
  0
LINE
  5
41D
100
AcDbEntity
  8
0
370
    15
390
0
  6
Continuous
 62
     7
100
AcDbLine
 10
-0.540808
 20
-0.854313
 30
0.0
 11
-0.479964
 21
-0.920238
 31
0.0
  0
TEXT
  5
41E
100
AcDbEntity
  8
0
370
     0
390
0
  6
Continuous
 62
     7
100
AcDbText
 10
-0.541989
 20
-0.101485
 30
0.0
 40
0.062
  1
FINISH
 50
-90.0
 41
1.25
  7
Vcadd_SIMP
100
AcDbText
  0
TEXT
  5
41F
100
AcDbEntity
  8
0
370
     0
390
0
  6
Continuous
 62
     7
100
AcDbText
 10
-0.896829
 20
-0.504694
 30
0.0
 40
0.062
  1
UNLESS
 50
-90.0
 41
1.25
  7
Vcadd_SIMP
 72
     1
 11
-0.629454
 21
-0.504694
 31
0.0
100
AcDbText
  0
TEXT
  5
420
100
AcDbEntity
  8
0
370
     0
390
0
  6
Continuous
 62
     7
100
AcDbText
 10
-1.111116
 20
-0.504694
 30
0.0
 40
0.062
  1
SPECIFIED
 50
-90.0
 41
1.25
  7
Vcadd_SIMP
 72
     1
 11
-0.710054
 21
-0.504694
 31
0.0
100
AcDbText
  0
TEXT
  5
421
100
AcDbEntity
  8
0
370
     0
390
0
  6
Continuous
 62
     7
100
AcDbText
 10
-0.541989
 20
-0.629662
 30
0.0
 40
0.062
  1
2,0
 50
-90.0
 41
1.25
  7
Vcadd_SIMP
100
AcDbText
  0
ENDBLK
  5
422
100
AcDbEntity
  8
0
390
0
100
AcDbBlockEnd
  0
ENDSEC
  0
SECTION
  2
ENTITIES
  0
VIEWPORT
  5
31
100
AcDbEntity
 67
     1
  8
0
390
0
  6
Continuous
 62
     0
100
AcDbViewport
 10
4.5
 20
3.259162
 30
0.0
 40
12.857143
 41
9.311892
 68
     1
 69
     1
 12
762.9316
 22
546.5183
 13
1169.457242
 23
377.488
 14
0.5
 24
0.5
 15
12.0
 25
12.0
 16
0.0
 26
0.0
 36
1.0
 17
0.0
 27
0.0
 37
0.0
 42
50.0
 43
-55.0
 44
-55.0
 45
1084.5
 50
0.0
 51
0.0
 72
   500
 90
        0
340
0
  1

281
     0
 71
     1
 74
     0
110
0.0
120
0.0
130
0.0
111
1.0
121
0.0
131
0.0
112
0.0
122
1.0
132
0.0
345
0
346
0
 79
     0
146
0.0
  0
LINE
  5
32
100
AcDbEntity
  8
0
370
    15
390
0
  6
Continuous
 62
     2
100
AcDbLine
 10
21.961984
 20
12.898079
 30
0.0
 11
21.961984
 21
23.523079
 31
0.0
  0
LINE
  5
33
100
AcDbEntity
  8
0
370
    15
390
0
  6
Continuous
 62
     2
100
AcDbLine
 10
21.961984
 20
23.523079
 30
0.0
 11
20.586984
 21
23.523079
 31
0.0
  0
LINE
  5
34
100
AcDbEntity
  8
0
370
    15
390
0
  6
Continuous
 62
     7
100
AcDbLine
 10
21.961984
 20
12.898079
 30
0.0
 11
21.961984
 21
12.898079
 31
0.0
  0
LINE
  5
35
100
AcDbEntity
  8
0
370
    15
390
0
  6
Continuous
 62
     7
100
AcDbLine
 10
21.961984
 20
15.648079
 30
0.0
 11
20.586984
 21
15.648079
 31
0.0
  0
LINE
  5
36
100
AcDbEntity
  8
0
370
    15
390
0
  6
Continuous
 62
     7
100
AcDbLine
 10
21.961984
 20
18.648079
 30
0.0
 11
20.586984
 21
18.648079
 31
0.0
  0
LINE
  5
37
100
AcDbEntity
  8
0
370
    15
390
0
  6
Continuous
 62
     7
100
AcDbLine
 10
21.961984
 20
19.648079
 30
0.0
 11
20.586984
 21
19.648079
 31
0.0
  0
LINE
  5
38
100
AcDbEntity
  8
0
370
    15
390
0
  6
Continuous
 62
     7
100
AcDbLine
 10
21.961984
 20
19.898079
 30
0.0
 11
20.586984
 21
19.898079
 31
0.0
  0
LINE
  5
39
100
AcDbEntity
  8
0
370
    15
390
0
  6
Continuous
 62
     7
100
AcDbLine
 10
21.961984
 20
20.148079
 30
0.0
 11
20.586984
 21
20.148079
 31
0.0
  0
LINE
  5
3A
100
AcDbEntity
  8
0
370
    15
390
0
  6
Continuous
 62
     7
100
AcDbLine
 10
21.961984
 20
20.398079
 30
0.0
 11
20.586984
 21
20.398079
 31
0.0
  0
LINE
  5
3B
100
AcDbEntity
  8
0
370
    15
390
0
  6
Continuous
 62
     7
100
AcDbLine
 10
21.961984
 20
20.898079
 30
0.0
 11
20.586984
 21
20.898079
 31
0.0
  0
LINE
  5
3C
100
AcDbEntity
  8
0
370
    15
390
0
  6
Continuous
 62
     7
100
AcDbLine
 10
21.961984
 20
23.273079
 30
0.0
 11
20.586984
 21
23.273079
 31
0.0
  0
LINE
  5
3D
100
AcDbEntity
  8
0
370
    15
390
0
  6
Continuous
 62
     7
100
AcDbLine
 10
20.742983
 20
23.523079
 30
0.0
 11
20.742983
 21
19.648079
 31
0.0
  0
LINE
  5
3E
100
AcDbEntity
  8
0
370
    15
390
0
  6
Continuous
 62
     7
100
AcDbLine
 10
21.586984
 20
18.648079
 30
0.0
 11
21.586984
 21
19.648079
 31
0.0
  0
LINE
  5
3F
100
AcDbEntity
  8
0
370
    15
390
0
  6
Continuous
 62
     7
100
AcDbLine
 10
20.867983
 20
18.648079
 30
0.0
 11
20.867983
 21
17.023079
 31
0.0
  0
LINE
  5
40
100
AcDbEntity
  8
0
370
    15
390
0
  6
Continuous
 62
     7
100
AcDbLine
 10
21.148985
 20
18.648079
 30
0.0
 11
21.148985
 21
17.023079
 31
0.0
  0
LINE
  5
41
100
AcDbEntity
  8
0
370
    15
390
0
  6
Continuous
 62
     7
100
AcDbLine
 10
21.148985
 20
17.023079
 30
0.0
 11
21.148985
 21
15.648079
 31
0.0
  0
LINE
  5
42
100
AcDbEntity
  8
0
370
    15
390
0
  6
Continuous
 62
     7
100
AcDbLine
 10
21.523985
 20
18.648079
 30
0.0
 11
21.523985
 21
15.648079
 31
0.0
  0
LINE
  5
43
100
AcDbEntity
  8
0
370
    15
390
0
  6
Continuous
 62
     7
100
AcDbLine
 10
21.148985
 20
17.023079
 30
0.0
 11
20.586984
 21
17.023079
 31
0.0
  0
LINE
  5
44
100
AcDbEntity
  8
0
370
    15
390
0
  6
Continuous
 62
     7
100
AcDbLine
 10
21.148985
 20
17.023079
 30
0.0
 11
21.523985
 21
17.023079
 31
0.0
  0
LINE
  5
45
100
AcDbEntity
  8
0
370
    15
390
0
  6
Continuous
 62
     7
100
AcDbLine
 10
21.523985
 20
18.273079
 30
0.0
 11
21.148985
 21
18.273079
 31
0.0
  0
LINE
  5
46
100
AcDbEntity
  8
0
370
    15
390
0
  6
Continuous
 62
     7
100
AcDbLine
 10
20.586984
 20
18.106079
 30
0.0
 11
20.867983
 21
18.106079
 31
0.0
  0
LINE
  5
47
100
AcDbEntity
  8
0
370
    15
390
0
  6
Continuous
 62
     7
100
AcDbLine
 10
20.586984
 20
17.564079
 30
0.0
 11
20.867983
 21
17.564079
 31
0.0
  0
LINE
  5
48
100
AcDbEntity
  8
0
370
    15
390
0
  6
Continuous
 62
     7
100
AcDbLine
 10
20.867983
 20
17.564079
 30
0.0
 11
21.148985
 21
17.564079
 31
0.0
  0
LINE
  5
49
100
AcDbEntity
  8
0
370
    15
390
0
  6
Continuous
 62
     7
100
AcDbLine
 10
20.867983
 20
18.106079
 30
0.0
 11
21.148985
 21
18.106079
 31
0.0
  0
LINE
  5
4A
100
AcDbEntity
  8
0
370
    15
390
0
  6
Continuous
 62
     7
100
AcDbLine
 10
21.523985
 20
15.648079
 30
0.0
 11
21.523985
 21
12.898079
 31
0.0
  0
LINE
  5
4B
100
AcDbEntity
  8
0
370
    15
390
0
  6
Continuous
 62
     7
100
AcDbLine
 10
21.961984
 20
15.086078
 30
0.0
 11
21.523985
 21
15.086078
 31
0.0
  0
LINE
  5
4C
100
AcDbEntity
  8
0
370
    15
390
0
  6
Continuous
 62
     7
100
AcDbLine
 10
30.217146
 20
15.648079
 30
0.0
 11
30.217146
 21
12.898079
 31
0.0
  0
LINE
  5
4D
100
AcDbEntity
  8
0
370
    15
390
0
  6
Continuous
 62
     7
100
AcDbLine
 10
30.217146
 20
15.086078
 30
0.0
 11
30.589334
 21
15.086078
 31
0.0
  0
LINE
  5
4E
100
AcDbEntity
  8
0
370
    15
390
0
  6
Continuous
 62
     7
100
AcDbLine
 10
30.217146
 20
15.648079
 30
0.0
 11
30.592146
 21
15.648079
 31
0.0
  0
LINE
  5
4F
100
AcDbEntity
  8
0
370
    15
390
0
  6
Continuous
 62
     7
100
AcDbLine
 10
20.884655
 20
16.514278
 30
0.0
 11
20.760925
 21
16.226776
 31
0.0
  0
ARC
  5
50
100
AcDbEntity
  8
0
370
    15
390
0
  6
Continuous
 62
     7
100
AcDbCircle
 10
21.061144
 20
16.097572
 30
0.0
 40
0.32684
100
AcDbArc
 50
156.690208
 51
236.832606
  0
ARC
  5
51
100
AcDbEntity
  8
0
370
    15
390
0
  6
Continuous
 62
     7
100
AcDbCircle
 10
20.575751
 20
16.61688
 30
0.0
 40
0.325496
100
AcDbArc
 50
341.621883
 51
418.314185
  0
LINE
  5
52
100
AcDbEntity
  8
0
370
    15
390
0
  6
Continuous
 62
     7
100
AcDbLine
 10
20.88191
 20
16.386776
 30
0.0
 11
20.787218
 21
16.436153
 31
0.0
  0
LINE
  5
53
100
AcDbEntity
  8
0
370
    15
390
0
  6
Continuous
 62
     7
100
AcDbLine
 10
20.8545
 20
16.327911
 30
0.0
 11
20.763389
 21
16.379274
 31
0.0
  0
LINE
  5
54
100
AcDbEntity
  8
0
370
    15
390
0
  6
Continuous
 62
     6
100
AcDbLine
 10
20.586984
 20
28.901783
 30
0.0
 11
20.586984
 21
12.898079
 31
0.0
  0
LINE
  5
55
100
AcDbEntity
  8
0
370
    15
390
0
  6
Continuous
 62
     6
100
AcDbLine
 10
20.586984
 20
12.898079
 30
0.0
 11
30.592146
 21
12.898079
 31
0.0
  0
LINE
  5
56
100
AcDbEntity
  8
0
370
    15
390
0
  6
Continuous
 62
     6
100
AcDbLine
 10
30.592146
 20
12.898079
 30
0.0
 11
30.592146
 21
28.901783
 31
0.0
  0
LINE
  5
57
100
AcDbEntity
  8
0
370
    15
390
0
  6
Continuous
 62
     6
100
AcDbLine
 10
30.592146
 20
28.901783
 30
0.0
 11
20.586984
 21
28.901783
 31
0.0
  0
LINE
  5
58
100
AcDbEntity
  8
2
370
    15
390
0
  6
Continuous
 62
     7
100
AcDbLine
 10
26.875746
 20
24.160392
 30
0.0
 11
26.783027
 21
24.21392
 31
0.0
  0
ARC
  5
59
100
AcDbEntity
  8
2
370
    15
390
0
  6
Continuous
 62
     7
100
AcDbCircle
 10
26.699289
 20
23.896331
 30
0.0
 40
0.31759
100
AcDbArc
 50
63.750669
 51
123.751821
  0
LINE
  5
5A
100
AcDbEntity
  8
2
370
    15
390
0
  6
Continuous
 62
     7
100
AcDbLine
 10
26.814028
 20
21.886028
 30
0.0
 11
26.814028
 21
22.184749
 31
0.0
  0
LINE
  5
5B
100
AcDbEntity
  8
2
370
    15
390
0
  6
Continuous
 62
     7
100
AcDbLine
 10
26.950527
 20
23.244922
 30
0.0
 11
26.950527
 21
23.43325
 31
0.0
  0
LINE
  5
5C
100
AcDbEntity
  8
2
370
    15
390
0
  6
Continuous
 62
     7
100
AcDbLine
 10
26.862526
 20
23.071422
 30
0.0
 11
26.862526
 21
23.244922
 31
0.0
  0
LINE
  5
5D
100
AcDbEntity
  8
2
370
    15
390
0
  6
Continuous
 62
     7
100
AcDbLine
 10
26.814028
 20
22.214031
 30
0.0
 11
26.814028
 21
21.886028
 31
0.0
  0
LINE
  5
5E
100
AcDbEntity
  8
2
370
    15
390
0
  6
Continuous
 62
     7
100
AcDbLine
 10
26.937528
 20
22.285331
 30
0.0
 11
26.814028
 21
22.214031
 31
0.0
  0
LINE
  5
5F
100
AcDbEntity
  8
2
370
    15
390
0
  6
Continuous
 62
     7
100
AcDbLine
 10
26.937528
 20
21.814727
 30
0.0
 11
26.814028
 21
21.886028
 31
0.0
  0
LINE
  5
60
100
AcDbEntity
  8
2
370
    15
390
0
  6
Continuous
 62
     7
100
AcDbLine
 10
26.937528
 20
21.745029
 30
0.0
 11
26.937528
 21
21.814727
 31
0.0
  0
LINE
  5
61
100
AcDbEntity
  8
2
370
    15
390
0
  6
Continuous
 62
     7
100
AcDbLine
 10
26.875528
 20
21.745029
 30
0.0
 11
26.875528
 21
21.698028
 31
0.0
  0
LINE
  5
62
100
AcDbEntity
  8
2
370
    15
390
0
  6
Continuous
 62
     7
100
AcDbLine
 10
26.863527
 20
21.496441
 30
0.0
 11
26.788027
 21
21.540031
 31
0.0
  0
LINE
  5
63
100
AcDbEntity
  8
2
370
    15
390
0
  6
Continuous
 62
     7
100
AcDbLine
 10
26.798529
 20
21.151031
 30
0.0
 11
26.798529
 21
21.038028
 31
0.0
  0
LINE
  5
64
100
AcDbEntity
  8
2
370
    15
390
0
  6
Continuous
 62
     7
100
AcDbLine
 10
26.786527
 20
21.026031
 30
0.0
 11
26.798529
 21
21.038028
 31
0.0
  0
LINE
  5
65
100
AcDbEntity
  8
2
370
    15
390
0
  6
Continuous
 62
     7
100
AcDbLine
 10
26.863527
 20
21.21603
 30
0.0
 11
26.863527
 21
21.496441
 31
0.0
  0
LINE
  5
66
100
AcDbEntity
  8
2
370
    15
390
0
  6
Continuous
 62
     7
100
AcDbLine
 10
26.798529
 20
21.151031
 30
0.0
 11
26.863527
 21
21.21603
 31
0.0
  0
LINE
  5
68
100
AcDbEntity
  8
2
370
    15
390
0
  6
CL____X1
 62
     7
100
AcDbLine
 10
26.806887
 20
21.52914
 30
0.0
 11
26.806887
 21
21.159389
 31
0.0
  0
LINE
  5
69
100
AcDbEntity
  8
2
370
    15
390
0
  6
Continuous
 62
     7
100
AcDbLine
 10
26.781528
 20
20.322029
 30
0.0
 11
26.781528
 21
20.22903
 31
0.0
  0
LINE
  5
6A
100
AcDbEntity
  8
2
370
    15
390
0
  6
Continuous
 62
     7
100
AcDbLine
 10
26.781528
 20
20.005031
 30
0.0
 11
26.781528
 21
19.95803
 31
0.0
  0
LINE
  5
6B
100
AcDbEntity
  8
2
370
    15
390
0
  6
Continuous
 62
     7
100
AcDbLine
 10
26.750528
 20
19.927029
 30
0.0
 11
26.781528
 21
19.95803
 31
0.0
  0
ELLIPSE
  5
6C
100
AcDbEntity
  8
2
370
    15
390
0
  6
Continuous
 62
     7
100
AcDbEllipse
 10
26.53244
 20
20.443029
 30
0.0
 11
0.0
 21
0.1094989776611328
 31
0.0
210
0.0
220
0.0
230
1.0
 40
0.726559
 41
0.0
 42
6.2831853071795862
  0
LINE
  5
6D
100
AcDbEntity
  8
2
370
    15
390
0
  6
Continuous
 62
     7
100
AcDbLine
 10
26.553715
 20
20.443031
 30
0.0
 11
26.511165
 21
20.443031
 31
0.0
  0
LINE
  5
6E
100
AcDbEntity
  8
2
370
    15
390
0
  6
Continuous
 62
     7
100
AcDbLine
 10
26.53244
 20
20.421756
 30
0.0
 11
26.53244
 21
20.464306
 31
0.0
  0
LINE
  5
6F
100
AcDbEntity
  8
2
370
    15
390
0
  6
Continuous
 62
     7
100
AcDbLine
 10
26.575521
 20
20.443031
 30
0.0
 11
26.631086
 21
20.443031
 31
0.0
  0
LINE
  5
70
100
AcDbEntity
  8
2
370
    15
390
0
  6
Continuous
 62
     7
100
AcDbLine
 10
26.53244
 20
20.319339
 30
0.0
 11
26.53244
 21
20.399948
 31
0.0
  0
LINE
  5
71
100
AcDbEntity
  8
2
370
    15
390
0
  6
Continuous
 62
     7
100
AcDbLine
 10
26.53244
 20
20.565578
 30
0.0
 11
26.53244
 21
20.48611
 31
0.0
  0
LINE
  5
72
100
AcDbEntity
  8
2
370
    15
390
0
  6
Continuous
 62
     7
100
AcDbLine
 10
26.210214
 20
20.443031
 30
0.0
 11
26.489359
 21
20.443031
 31
0.0
  0
LINE
  5
73
100
AcDbEntity
  8
2
370
    15
390
0
  6
Continuous
 62
     7
100
AcDbLine
 10
26.694027
 20
20.005031
 30
0.0
 11
26.694027
 21
20.22903
 31
0.0
  0
LINE
  5
74
100
AcDbEntity
  8
2
370
    15
390
0
  6
Continuous
 62
     7
100
AcDbLine
 10
26.780027
 20
20.219223
 30
0.0
 11
26.694027
 21
20.219223
 31
0.0
  0
LINE
  5
75
100
AcDbEntity
  8
2
370
    15
390
0
  6
Continuous
 62
     7
100
AcDbLine
 10
26.780027
 20
20.219223
 30
0.0
 11
26.780027
 21
20.176223
 31
0.0
  0
ARC
  5
76
100
AcDbEntity
  8
2
370
    15
390
0
  6
Continuous
 62
     7
100
AcDbCircle
 10
26.770031
 20
20.176221
 30
0.0
 40
0.009996
100
AcDbArc
 50
269.976148
 51
360.012923
  0
ARC
  5
77
100
AcDbEntity
  8
2
370
    15
390
0
  6
Continuous
 62
     7
100
AcDbCircle
 10
26.70402
 20
20.176218
 30
0.0
 40
0.009993
100
AcDbArc
 50
179.968427
 51
270.042502
  0
LINE
  5
78
100
AcDbEntity
  8
2
370
    15
390
0
  6
Continuous
 62
     7
100
AcDbLine
 10
26.694027
 20
20.219223
 30
0.0
 11
26.694027
 21
20.176223
 31
0.0
  0
ARC
  5
79
100
AcDbEntity
  8
2
370
    15
390
0
  6
Continuous
 62
     7
100
AcDbCircle
 10
26.737027
 20
20.045172
 30
0.0
 40
0.125471
100
AcDbArc
 50
74.751282
 51
105.248718
  0
LINE
  5
7A
100
AcDbEntity
  8
2
370
    15
390
0
  6
Continuous
 62
     7
100
AcDbLine
 10
26.694027
 20
20.016643
 30
0.0
 11
26.780027
 21
20.016643
 31
0.0
  0
LINE
  5
7B
100
AcDbEntity
  8
2
370
    15
390
0
  6
Continuous
 62
     7
100
AcDbLine
 10
26.694027
 20
20.016643
 30
0.0
 11
26.694027
 21
20.059643
 31
0.0
  0
ARC
  5
7C
100
AcDbEntity
  8
2
370
    15
390
0
  6
Continuous
 62
     7
100
AcDbCircle
 10
26.704029
 20
20.059642
 30
0.0
 40
0.010003
100
AcDbArc
 50
90.013463
 51
179.997464
  0
ARC
  5
7D
100
AcDbEntity
  8
2
370
    15
390
0
  6
Continuous
 62
     7
100
AcDbCircle
 10
26.770025
 20
20.059642
 30
0.0
 40
0.010003
100
AcDbArc
 50
0.002536
 51
89.986537
  0
LINE
  5
7E
100
AcDbEntity
  8
2
370
    15
390
0
  6
Continuous
 62
     7
100
AcDbLine
 10
26.780027
 20
20.016643
 30
0.0
 11
26.780027
 21
20.059643
 31
0.0
  0
ARC
  5
7F
100
AcDbEntity
  8
2
370
    15
390
0
  6
Continuous
 62
     7
100
AcDbCircle
 10
26.737027
 20
20.19059
 30
0.0
 40
0.125366
100
AcDbArc
 50
254.738269
 51
285.261731
  0
LINE
  5
80
100
AcDbEntity
  8
2
370
    15
390
0
  6
Continuous
 62
     7
100
AcDbLine
 10
26.862526
 20
23.234153
 30
0.0
 11
26.948526
 21
23.234153
 31
0.0
  0
LINE
  5
81
100
AcDbEntity
  8
2
370
    15
390
0
  6
Continuous
 62
     7
100
AcDbLine
 10
26.862526
 20
23.234153
 30
0.0
 11
26.862526
 21
23.19115
 31
0.0
  0
ARC
  5
82
100
AcDbEntity
  8
2
370
    15
390
0
  6
Continuous
 62
     7
100
AcDbCircle
 10
26.872528
 20
23.191155
 30
0.0
 40
0.010003
100
AcDbArc
 50
180.024396
 51
269.986533
  0
ARC
  5
83
100
AcDbEntity
  8
2
370
    15
390
0
  6
Continuous
 62
     7
100
AcDbCircle
 10
26.938527
 20
23.191151
 30
0.0
 40
0.009999
100
AcDbArc
 50
270.0
 51
359.994264
  0
LINE
  5
84
100
AcDbEntity
  8
2
370
    15
390
0
  6
Continuous
 62
     7
100
AcDbLine
 10
26.948526
 20
23.234153
 30
0.0
 11
26.948526
 21
23.19115
 31
0.0
  0
ARC
  5
85
100
AcDbEntity
  8
2
370
    15
390
0
  6
Continuous
 62
     7
100
AcDbCircle
 10
26.905526
 20
23.060099
 30
0.0
 40
0.125471
100
AcDbArc
 50
74.751282
 51
105.248718
  0
LINE
  5
86
100
AcDbEntity
  8
2
370
    15
390
0
  6
Continuous
 62
     7
100
AcDbLine
 10
26.788027
 20
21.540031
 30
0.0
 11
26.788027
 21
21.698028
 31
0.0
  0
LINE
  5
87
100
AcDbEntity
  8
2
370
    15
390
0
  6
Continuous
 62
     7
100
AcDbLine
 10
26.788027
 20
21.542347
 30
0.0
 11
26.874027
 21
21.542347
 31
0.0
  0
LINE
  5
88
100
AcDbEntity
  8
2
370
    15
390
0
  6
Continuous
 62
     7
100
AcDbLine
 10
26.788027
 20
21.542347
 30
0.0
 11
26.788027
 21
21.585346
 31
0.0
  0
ARC
  5
89
100
AcDbEntity
  8
2
370
    15
390
0
  6
Continuous
 62
     7
100
AcDbCircle
 10
26.798023
 20
21.585348
 30
0.0
 40
0.009996
100
AcDbArc
 50
89.976148
 51
180.012923
  0
ARC
  5
8A
100
AcDbEntity
  8
2
370
    15
390
0
  6
Continuous
 62
     7
100
AcDbCircle
 10
26.864034
 20
21.585351
 30
0.0
 40
0.009993
100
AcDbArc
 50
359.968427
 51
450.042502
  0
LINE
  5
8B
100
AcDbEntity
  8
2
370
    15
390
0
  6
Continuous
 62
     7
100
AcDbLine
 10
26.874027
 20
21.542347
 30
0.0
 11
26.874027
 21
21.585346
 31
0.0
  0
ARC
  5
8C
100
AcDbEntity
  8
2
370
    15
390
0
  6
Continuous
 62
     7
100
AcDbCircle
 10
26.831027
 20
21.716398
 30
0.0
 40
0.125471
100
AcDbArc
 50
254.751282
 51
285.248718
  0
LINE
  5
8D
100
AcDbEntity
  8
2
370
    15
390
0
  6
Continuous
 62
     7
100
AcDbLine
 10
26.158027
 20
24.21392
 30
0.0
 11
26.783027
 21
24.21392
 31
0.0
  0
ARC
  5
8E
100
AcDbEntity
  8
2
370
    15
390
0
  6
Continuous
 62
     7
100
AcDbCircle
 10
26.158026
 20
23.023771
 30
0.0
 40
1.190149
100
AcDbArc
 50
72.750835
 51
89.999945
  0
LINE
  5
8F
100
AcDbEntity
  8
2
370
    15
390
0
  6
Continuous
 62
     7
100
AcDbLine
 10
26.158027
 20
23.43325
 30
0.0
 11
26.950527
 21
23.43325
 31
0.0
  0
LINE
  5
90
100
AcDbEntity
  8
2
370
    15
390
0
  6
Continuous
 62
     7
100
AcDbLine
 10
26.158027
 20
23.244922
 30
0.0
 11
26.950527
 21
23.244922
 31
0.0
  0
LINE
  5
91
100
AcDbEntity
  8
2
370
    15
390
0
  6
Continuous
 62
     7
100
AcDbLine
 10
26.158027
 20
23.071422
 30
0.0
 11
26.950527
 21
23.071422
 31
0.0
  0
LINE
  5
92
100
AcDbEntity
  8
2
370
    15
390
0
  6
Continuous
 62
     7
100
AcDbLine
 10
26.158027
 20
21.886028
 30
0.0
 11
26.814028
 21
21.886028
 31
0.0
  0
LINE
  5
93
100
AcDbEntity
  8
2
370
    15
390
0
  6
Continuous
 62
     7
100
AcDbLine
 10
26.158027
 20
21.814727
 30
0.0
 11
26.937528
 21
21.814727
 31
0.0
  0
LINE
  5
94
100
AcDbEntity
  8
2
370
    15
390
0
  6
Continuous
 62
     7
100
AcDbLine
 10
26.158027
 20
21.745029
 30
0.0
 11
26.937528
 21
21.745029
 31
0.0
  0
LINE
  5
95
100
AcDbEntity
  8
2
370
    15
390
0
  6
Continuous
 62
     7
100
AcDbLine
 10
26.158027
 20
21.698028
 30
0.0
 11
26.875528
 21
21.698028
 31
0.0
  0
LINE
  5
96
100
AcDbEntity
  8
2
370
    15
390
0
  6
Continuous
 62
     7
100
AcDbLine
 10
26.158027
 20
21.540031
 30
0.0
 11
26.788027
 21
21.540031
 31
0.0
  0
LINE
  5
97
100
AcDbEntity
  8
2
370
    15
390
0
  6
Continuous
 62
     7
100
AcDbLine
 10
26.158027
 20
21.496441
 30
0.0
 11
26.863527
 21
21.496441
 31
0.0
  0
LINE
  5
98
100
AcDbEntity
  8
2
370
    15
390
0
  6
Continuous
 62
     7
100
AcDbLine
 10
26.158027
 20
21.21603
 30
0.0
 11
26.863527
 21
21.21603
 31
0.0
  0
LINE
  5
99
100
AcDbEntity
  8
2
370
    15
390
0
  6
Continuous
 62
     7
100
AcDbLine
 10
26.158027
 20
21.151031
 30
0.0
 11
26.798529
 21
21.151031
 31
0.0
  0
LINE
  5
9A
100
AcDbEntity
  8
2
370
    15
390
0
  6
Continuous
 62
     7
100
AcDbLine
 10
26.158027
 20
21.038028
 30
0.0
 11
26.798529
 21
21.038028
 31
0.0
  0
LINE
  5
9B
100
AcDbEntity
  8
2
370
    15
390
0
  6
Continuous
 62
     7
100
AcDbLine
 10
26.158027
 20
21.026031
 30
0.0
 11
26.786527
 21
21.026031
 31
0.0
  0
LINE
  5
9C
100
AcDbEntity
  8
2
370
    15
390
0
  6
Continuous
 62
     7
100
AcDbLine
 10
26.158027
 20
20.322029
 30
0.0
 11
26.781528
 21
20.322029
 31
0.0
  0
LINE
  5
9D
100
AcDbEntity
  8
2
370
    15
390
0
  6
Continuous
 62
     7
100
AcDbLine
 10
26.158027
 20
20.22903
 30
0.0
 11
26.781528
 21
20.22903
 31
0.0
  0
LINE
  5
9E
100
AcDbEntity
  8
2
370
    15
390
0
  6
Continuous
 62
     7
100
AcDbLine
 10
26.158027
 20
20.005031
 30
0.0
 11
26.781528
 21
20.005031
 31
0.0
  0
LINE
  5
9F
100
AcDbEntity
  8
2
370
    15
390
0
  6
Continuous
 62
     7
100
AcDbLine
 10
26.158027
 20
19.95803
 30
0.0
 11
26.781528
 21
19.95803
 31
0.0
  0
LINE
  5
A0
100
AcDbEntity
  8
2
370
    15
390
0
  6
Continuous
 62
     7
100
AcDbLine
 10
26.158027
 20
19.927029
 30
0.0
 11
26.750528
 21
19.927029
 31
0.0
  0
LINE
  5
A1
100
AcDbEntity
  8
2
370
    15
390
0
  6
Continuous
 62
     7
100
AcDbLine
 10
26.687527
 20
20.322029
 30
0.0
 11
26.687527
 21
21.026031
 31
0.0
  0
LINE
  5
A2
100
AcDbEntity
  8
2
370
    15
390
0
  6
Continuous
 62
     7
100
AcDbLine
 10
26.875746
 20
24.160392
 30
0.0
 11
26.783027
 21
24.21392
 31
0.0
  0
ARC
  5
A3
100
AcDbEntity
  8
2
370
    15
390
0
  6
Continuous
 62
     7
100
AcDbCircle
 10
26.699289
 20
23.896331
 30
0.0
 40
0.31759
100
AcDbArc
 50
63.750669
 51
123.751821
  0
LINE
  5
A4
100
AcDbEntity
  8
2
370
    15
390
0
  6
Continuous
 62
     7
100
AcDbLine
 10
26.814028
 20
21.886028
 30
0.0
 11
26.814028
 21
22.184749
 31
0.0
  0
LINE
  5
A5
100
AcDbEntity
  8
2
370
    15
390
0
  6
Continuous
 62
     7
100
AcDbLine
 10
26.950527
 20
23.244922
 30
0.0
 11
26.950527
 21
23.43325
 31
0.0
  0
LINE
  5
A6
100
AcDbEntity
  8
2
370
    15
390
0
  6
Continuous
 62
     7
100
AcDbLine
 10
26.862526
 20
23.071422
 30
0.0
 11
26.862526
 21
23.244922
 31
0.0
  0
LINE
  5
A7
100
AcDbEntity
  8
2
370
    15
390
0
  6
Continuous
 62
     7
100
AcDbLine
 10
26.814028
 20
22.214031
 30
0.0
 11
26.814028
 21
21.886028
 31
0.0
  0
LINE
  5
A8
100
AcDbEntity
  8
2
370
    15
390
0
  6
Continuous
 62
     7
100
AcDbLine
 10
26.937528
 20
22.285331
 30
0.0
 11
26.814028
 21
22.214031
 31
0.0
  0
LINE
  5
A9
100
AcDbEntity
  8
2
370
    15
390
0
  6
Continuous
 62
     7
100
AcDbLine
 10
26.937528
 20
21.814727
 30
0.0
 11
26.814028
 21
21.886028
 31
0.0
  0
LINE
  5
AA
100
AcDbEntity
  8
2
370
    15
390
0
  6
Continuous
 62
     7
100
AcDbLine
 10
26.937528
 20
21.745029
 30
0.0
 11
26.937528
 21
21.814727
 31
0.0
  0
LINE
  5
AB
100
AcDbEntity
  8
2
370
    15
390
0
  6
Continuous
 62
     7
100
AcDbLine
 10
26.875528
 20
21.745029
 30
0.0
 11
26.875528
 21
21.698028
 31
0.0
  0
LINE
  5
AC
100
AcDbEntity
  8
2
370
    15
390
0
  6
Continuous
 62
     7
100
AcDbLine
 10
26.863527
 20
21.496441
 30
0.0
 11
26.788027
 21
21.540031
 31
0.0
  0
LINE
  5
AD
100
AcDbEntity
  8
2
370
    15
390
0
  6
Continuous
 62
     7
100
AcDbLine
 10
26.798529
 20
21.151031
 30
0.0
 11
26.798529
 21
21.038028
 31
0.0
  0
LINE
  5
AE
100
AcDbEntity
  8
2
370
    15
390
0
  6
Continuous
 62
     7
100
AcDbLine
 10
26.786527
 20
21.026031
 30
0.0
 11
26.798529
 21
21.038028
 31
0.0
  0
LINE
  5
AF
100
AcDbEntity
  8
2
370
    15
390
0
  6
Continuous
 62
     7
100
AcDbLine
 10
26.863527
 20
21.21603
 30
0.0
 11
26.863527
 21
21.496441
 31
0.0
  0
LINE
  5
B0
100
AcDbEntity
  8
2
370
    15
390
0
  6
Continuous
 62
     7
100
AcDbLine
 10
26.798529
 20
21.151031
 30
0.0
 11
26.863527
 21
21.21603
 31
0.0
  0
LINE
  5
B1
100
AcDbEntity
  8
2
370
    15
390
0
  6
CL____X1
 62
     7
100
AcDbLine
 10
26.806887
 20
21.52914
 30
0.0
 11
26.806887
 21
21.159389
 31
0.0
  0
LINE
  5
B2
100
AcDbEntity
  8
2
370
    15
390
0
  6
Continuous
 62
     7
100
AcDbLine
 10
26.781528
 20
20.322029
 30
0.0
 11
26.781528
 21
20.22903
 31
0.0
  0
LINE
  5
B3
100
AcDbEntity
  8
2
370
    15
390
0
  6
Continuous
 62
     7
100
AcDbLine
 10
26.781528
 20
20.005031
 30
0.0
 11
26.781528
 21
19.95803
 31
0.0
  0
LINE
  5
B4
100
AcDbEntity
  8
2
370
    15
390
0
  6
Continuous
 62
     7
100
AcDbLine
 10
26.750528
 20
19.927029
 30
0.0
 11
26.781528
 21
19.95803
 31
0.0
  0
ELLIPSE
  5
B5
100
AcDbEntity
  8
2
370
    15
390
0
  6
Continuous
 62
     7
100
AcDbEllipse
 10
26.53244
 20
20.443029
 30
0.0
 11
0.0
 21
0.1094989776611328
 31
0.0
210
0.0
220
0.0
230
1.0
 40
0.726559
 41
0.0
 42
6.2831853071795862
  0
LINE
  5
B6
100
AcDbEntity
  8
2
370
    15
390
0
  6
Continuous
 62
     7
100
AcDbLine
 10
26.553715
 20
20.443031
 30
0.0
 11
26.511165
 21
20.443031
 31
0.0
  0
LINE
  5
B7
100
AcDbEntity
  8
2
370
    15
390
0
  6
Continuous
 62
     7
100
AcDbLine
 10
26.53244
 20
20.421756
 30
0.0
 11
26.53244
 21
20.464306
 31
0.0
  0
LINE
  5
B8
100
AcDbEntity
  8
2
370
    15
390
0
  6
Continuous
 62
     7
100
AcDbLine
 10
26.575521
 20
20.443031
 30
0.0
 11
26.631086
 21
20.443031
 31
0.0
  0
LINE
  5
B9
100
AcDbEntity
  8
2
370
    15
390
0
  6
Continuous
 62
     7
100
AcDbLine
 10
26.53244
 20
20.319339
 30
0.0
 11
26.53244
 21
20.399948
 31
0.0
  0
LINE
  5
BA
100
AcDbEntity
  8
2
370
    15
390
0
  6
Continuous
 62
     7
100
AcDbLine
 10
26.53244
 20
20.565578
 30
0.0
 11
26.53244
 21
20.48611
 31
0.0
  0
LINE
  5
BB
100
AcDbEntity
  8
2
370
    15
390
0
  6
Continuous
 62
     7
100
AcDbLine
 10
26.210214
 20
20.443031
 30
0.0
 11
26.489359
 21
20.443031
 31
0.0
  0
LINE
  5
BC
100
AcDbEntity
  8
2
370
    15
390
0
  6
Continuous
 62
     7
100
AcDbLine
 10
26.694027
 20
20.005031
 30
0.0
 11
26.694027
 21
20.22903
 31
0.0
  0
LINE
  5
BD
100
AcDbEntity
  8
2
370
    15
390
0
  6
Continuous
 62
     7
100
AcDbLine
 10
26.780027
 20
20.219223
 30
0.0
 11
26.694027
 21
20.219223
 31
0.0
  0
LINE
  5
BE
100
AcDbEntity
  8
2
370
    15
390
0
  6
Continuous
 62
     7
100
AcDbLine
 10
26.780027
 20
20.219223
 30
0.0
 11
26.780027
 21
20.176223
 31
0.0
  0
ARC
  5
BF
100
AcDbEntity
  8
2
370
    15
390
0
  6
Continuous
 62
     7
100
AcDbCircle
 10
26.770031
 20
20.176221
 30
0.0
 40
0.009996
100
AcDbArc
 50
269.976148
 51
360.012923
  0
ARC
  5
C0
100
AcDbEntity
  8
2
370
    15
390
0
  6
Continuous
 62
     7
100
AcDbCircle
 10
26.70402
 20
20.176218
 30
0.0
 40
0.009993
100
AcDbArc
 50
179.968427
 51
270.042502
  0
LINE
  5
C1
100
AcDbEntity
  8
2
370
    15
390
0
  6
Continuous
 62
     7
100
AcDbLine
 10
26.694027
 20
20.219223
 30
0.0
 11
26.694027
 21
20.176223
 31
0.0
  0
ARC
  5
C2
100
AcDbEntity
  8
2
370
    15
390
0
  6
Continuous
 62
     7
100
AcDbCircle
 10
26.737027
 20
20.045172
 30
0.0
 40
0.125471
100
AcDbArc
 50
74.751282
 51
105.248718
  0
LINE
  5
C3
100
AcDbEntity
  8
2
370
    15
390
0
  6
Continuous
 62
     7
100
AcDbLine
 10
26.694027
 20
20.016643
 30
0.0
 11
26.780027
 21
20.016643
 31
0.0
  0
LINE
  5
C4
100
AcDbEntity
  8
2
370
    15
390
0
  6
Continuous
 62
     7
100
AcDbLine
 10
26.694027
 20
20.016643
 30
0.0
 11
26.694027
 21
20.059643
 31
0.0
  0
ARC
  5
C5
100
AcDbEntity
  8
2
370
    15
390
0
  6
Continuous
 62
     7
100
AcDbCircle
 10
26.704029
 20
20.059642
 30
0.0
 40
0.010003
100
AcDbArc
 50
90.013463
 51
179.997464
  0
ARC
  5
C6
100
AcDbEntity
  8
2
370
    15
390
0
  6
Continuous
 62
     7
100
AcDbCircle
 10
26.770025
 20
20.059642
 30
0.0
 40
0.010003
100
AcDbArc
 50
0.002536
 51
89.986537
  0
LINE
  5
C7
100
AcDbEntity
  8
2
370
    15
390
0
  6
Continuous
 62
     7
100
AcDbLine
 10
26.780027
 20
20.016643
 30
0.0
 11
26.780027
 21
20.059643
 31
0.0
  0
ARC
  5
C8
100
AcDbEntity
  8
2
370
    15
390
0
  6
Continuous
 62
     7
100
AcDbCircle
 10
26.737027
 20
20.19059
 30
0.0
 40
0.125366
100
AcDbArc
 50
254.738269
 51
285.261731
  0
LINE
  5
C9
100
AcDbEntity
  8
2
370
    15
390
0
  6
Continuous
 62
     7
100
AcDbLine
 10
26.862526
 20
23.234153
 30
0.0
 11
26.948526
 21
23.234153
 31
0.0
  0
LINE
  5
CA
100
AcDbEntity
  8
2
370
    15
390
0
  6
Continuous
 62
     7
100
AcDbLine
 10
26.862526
 20
23.234153
 30
0.0
 11
26.862526
 21
23.19115
 31
0.0
  0
ARC
  5
CB
100
AcDbEntity
  8
2
370
    15
390
0
  6
Continuous
 62
     7
100
AcDbCircle
 10
26.872528
 20
23.191155
 30
0.0
 40
0.010003
100
AcDbArc
 50
180.024396
 51
269.986533
  0
ARC
  5
CC
100
AcDbEntity
  8
2
370
    15
390
0
  6
Continuous
 62
     7
100
AcDbCircle
 10
26.938527
 20
23.191151
 30
0.0
 40
0.009999
100
AcDbArc
 50
270.0
 51
359.994264
  0
LINE
  5
CD
100
AcDbEntity
  8
2
370
    15
390
0
  6
Continuous
 62
     7
100
AcDbLine
 10
26.948526
 20
23.234153
 30
0.0
 11
26.948526
 21
23.19115
 31
0.0
  0
ARC
  5
CE
100
AcDbEntity
  8
2
370
    15
390
0
  6
Continuous
 62
     7
100
AcDbCircle
 10
26.905526
 20
23.060099
 30
0.0
 40
0.125471
100
AcDbArc
 50
74.751282
 51
105.248718
  0
LINE
  5
CF
100
AcDbEntity
  8
2
370
    15
390
0
  6
Continuous
 62
     7
100
AcDbLine
 10
26.788027
 20
21.540031
 30
0.0
 11
26.788027
 21
21.698028
 31
0.0
  0
LINE
  5
D0
100
AcDbEntity
  8
2
370
    15
390
0
  6
Continuous
 62
     7
100
AcDbLine
 10
26.788027
 20
21.542347
 30
0.0
 11
26.874027
 21
21.542347
 31
0.0
  0
LINE
  5
D1
100
AcDbEntity
  8
2
370
    15
390
0
  6
Continuous
 62
     7
100
AcDbLine
 10
26.788027
 20
21.542347
 30
0.0
 11
26.788027
 21
21.585346
 31
0.0
  0
ARC
  5
D2
100
AcDbEntity
  8
2
370
    15
390
0
  6
Continuous
 62
     7
100
AcDbCircle
 10
26.798023
 20
21.585348
 30
0.0
 40
0.009996
100
AcDbArc
 50
89.976148
 51
180.012923
  0
ARC
  5
D3
100
AcDbEntity
  8
2
370
    15
390
0
  6
Continuous
 62
     7
100
AcDbCircle
 10
26.864034
 20
21.585351
 30
0.0
 40
0.009993
100
AcDbArc
 50
359.968427
 51
450.042502
  0
LINE
  5
D4
100
AcDbEntity
  8
2
370
    15
390
0
  6
Continuous
 62
     7
100
AcDbLine
 10
26.874027
 20
21.542347
 30
0.0
 11
26.874027
 21
21.585346
 31
0.0
  0
ARC
  5
D5
100
AcDbEntity
  8
2
370
    15
390
0
  6
Continuous
 62
     7
100
AcDbCircle
 10
26.831027
 20
21.716398
 30
0.0
 40
0.125471
100
AcDbArc
 50
254.751282
 51
285.248718
  0
LINE
  5
D6
100
AcDbEntity
  8
2
370
    15
390
0
  6
Continuous
 62
     7
100
AcDbLine
 10
26.158027
 20
21.886028
 30
0.0
 11
26.814028
 21
21.886028
 31
0.0
  0
LINE
  5
D7
100
AcDbEntity
  8
2
370
    15
390
0
  6
Continuous
 62
     7
100
AcDbLine
 10
26.158027
 20
21.814727
 30
0.0
 11
26.937528
 21
21.814727
 31
0.0
  0
LINE
  5
D8
100
AcDbEntity
  8
2
370
    15
390
0
  6
Continuous
 62
     7
100
AcDbLine
 10
26.158027
 20
21.745029
 30
0.0
 11
26.937528
 21
21.745029
 31
0.0
  0
LINE
  5
D9
100
AcDbEntity
  8
2
370
    15
390
0
  6
Continuous
 62
     7
100
AcDbLine
 10
26.158027
 20
21.698028
 30
0.0
 11
26.875528
 21
21.698028
 31
0.0
  0
LINE
  5
DA
100
AcDbEntity
  8
2
370
    15
390
0
  6
Continuous
 62
     7
100
AcDbLine
 10
26.158027
 20
21.540031
 30
0.0
 11
26.788027
 21
21.540031
 31
0.0
  0
LINE
  5
DB
100
AcDbEntity
  8
2
370
    15
390
0
  6
Continuous
 62
     7
100
AcDbLine
 10
26.158027
 20
21.496441
 30
0.0
 11
26.863527
 21
21.496441
 31
0.0
  0
LINE
  5
DC
100
AcDbEntity
  8
2
370
    15
390
0
  6
Continuous
 62
     7
100
AcDbLine
 10
26.158027
 20
21.21603
 30
0.0
 11
26.863527
 21
21.21603
 31
0.0
  0
LINE
  5
DD
100
AcDbEntity
  8
2
370
    15
390
0
  6
Continuous
 62
     7
100
AcDbLine
 10
26.158027
 20
21.151031
 30
0.0
 11
26.798529
 21
21.151031
 31
0.0
  0
LINE
  5
DE
100
AcDbEntity
  8
2
370
    15
390
0
  6
Continuous
 62
     7
100
AcDbLine
 10
26.158027
 20
21.038028
 30
0.0
 11
26.798529
 21
21.038028
 31
0.0
  0
LINE
  5
DF
100
AcDbEntity
  8
2
370
    15
390
0
  6
Continuous
 62
     7
100
AcDbLine
 10
26.158027
 20
21.026031
 30
0.0
 11
26.786527
 21
21.026031
 31
0.0
  0
LINE
  5
E0
100
AcDbEntity
  8
2
370
    15
390
0
  6
Continuous
 62
     7
100
AcDbLine
 10
26.158027
 20
20.322029
 30
0.0
 11
26.781528
 21
20.322029
 31
0.0
  0
LINE
  5
E1
100
AcDbEntity
  8
2
370
    15
390
0
  6
Continuous
 62
     7
100
AcDbLine
 10
26.158027
 20
20.22903
 30
0.0
 11
26.781528
 21
20.22903
 31
0.0
  0
LINE
  5
E2
100
AcDbEntity
  8
2
370
    15
390
0
  6
Continuous
 62
     7
100
AcDbLine
 10
26.158027
 20
20.005031
 30
0.0
 11
26.781528
 21
20.005031
 31
0.0
  0
LINE
  5
E3
100
AcDbEntity
  8
2
370
    15
390
0
  6
Continuous
 62
     7
100
AcDbLine
 10
26.158027
 20
19.95803
 30
0.0
 11
26.781528
 21
19.95803
 31
0.0
  0
LINE
  5
E4
100
AcDbEntity
  8
2
370
    15
390
0
  6
Continuous
 62
     7
100
AcDbLine
 10
26.158027
 20
19.927029
 30
0.0
 11
26.750528
 21
19.927029
 31
0.0
  0
LINE
  5
E5
100
AcDbEntity
  8
2
370
    15
390
0
  6
Continuous
 62
     7
100
AcDbLine
 10
26.687527
 20
20.322029
 30
0.0
 11
26.687527
 21
21.026031
 31
0.0
  0
LINE
  5
E6
100
AcDbEntity
  8
2
370
    15
390
0
  6
Continuous
 62
     7
100
AcDbLine
 10
26.875746
 20
23.476429
 30
0.0
 11
26.875746
 21
24.160392
 31
0.0
  0
LINE
  5
E7
100
AcDbEntity
  8
2
370
    15
390
0
  6
Continuous
 62
     7
100
AcDbLine
 10
26.950527
 20
23.009807
 30
0.0
 11
26.950527
 21
23.071422
 31
0.0
  0
LINE
  5
E8
100
AcDbEntity
  8
2
370
    15
390
0
  6
Continuous
 62
     7
100
AcDbLine
 10
26.933529
 20
22.547176
 30
0.0
 11
26.847528
 21
22.547176
 31
0.0
  0
LINE
  5
E9
100
AcDbEntity
  8
2
370
    15
390
0
  6
Continuous
 62
     7
100
AcDbLine
 10
26.933529
 20
22.538677
 30
0.0
 11
26.933529
 21
22.495678
 31
0.0
  0
ARC
  5
EA
100
AcDbEntity
  8
2
370
    15
390
0
  6
Continuous
 62
     7
100
AcDbCircle
 10
26.923533
 20
22.495675
 30
0.0
 40
0.009996
100
AcDbArc
 50
269.976148
 51
360.012923
  0
ARC
  5
EB
100
AcDbEntity
  8
2
370
    15
390
0
  6
Continuous
 62
     7
100
AcDbCircle
 10
26.857521
 20
22.495672
 30
0.0
 40
0.009993
100
AcDbArc
 50
179.968427
 51
270.042502
  0
LINE
  5
EC
100
AcDbEntity
  8
2
370
    15
390
0
  6
Continuous
 62
     7
100
AcDbLine
 10
26.847528
 20
22.538677
 30
0.0
 11
26.847528
 21
22.495678
 31
0.0
  0
ARC
  5
ED
100
AcDbEntity
  8
2
370
    15
390
0
  6
Continuous
 62
     7
100
AcDbCircle
 10
26.890529
 20
22.364626
 30
0.0
 40
0.125471
100
AcDbArc
 50
74.751282
 51
105.248718
  0
LINE
  5
EE
100
AcDbEntity
  8
2
370
    15
390
0
  6
Continuous
 62
     7
100
AcDbLine
 10
26.847528
 20
22.327602
 30
0.0
 11
26.933529
 21
22.327602
 31
0.0
  0
LINE
  5
EF
100
AcDbEntity
  8
2
370
    15
390
0
  6
Continuous
 62
     7
100
AcDbLine
 10
26.847528
 20
22.327602
 30
0.0
 11
26.847528
 21
22.379097
 31
0.0
  0
ARC
  5
F0
100
AcDbEntity
  8
2
370
    15
390
0
  6
Continuous
 62
     7
100
AcDbCircle
 10
26.857531
 20
22.379096
 30
0.0
 40
0.010003
100
AcDbArc
 50
90.013463
 51
179.997464
  0
ARC
  5
F1
100
AcDbEntity
  8
2
370
    15
390
0
  6
Continuous
 62
     7
100
AcDbCircle
 10
26.923526
 20
22.379096
 30
0.0
 40
0.010003
100
AcDbArc
 50
0.002536
 51
89.986537
  0
LINE
  5
F2
100
AcDbEntity
  8
2
370
    15
390
0
  6
Continuous
 62
     7
100
AcDbLine
 10
26.933529
 20
22.327602
 30
0.0
 11
26.933529
 21
22.379097
 31
0.0
  0
ARC
  5
F3
100
AcDbEntity
  8
2
370
    15
390
0
  6
Continuous
 62
     7
100
AcDbCircle
 10
26.890529
 20
22.510044
 30
0.0
 40
0.125366
100
AcDbArc
 50
254.738269
 51
285.261731
  0
LINE
  5
F4
100
AcDbEntity
  8
2
370
    15
390
0
  6
Continuous
 62
     7
100
AcDbLine
 10
26.933529
 20
22.547176
 30
0.0
 11
26.847528
 21
22.547176
 31
0.0
  0
ARC
  5
F5
100
AcDbEntity
  8
2
370
    15
390
0
  6
Continuous
 62
     7
100
AcDbCircle
 10
26.923533
 20
22.495675
 30
0.0
 40
0.009996
100
AcDbArc
 50
269.976148
 51
360.012923
  0
ARC
  5
F6
100
AcDbEntity
  8
2
370
    15
390
0
  6
Continuous
 62
     7
100
AcDbCircle
 10
26.857521
 20
22.495672
 30
0.0
 40
0.009993
100
AcDbArc
 50
179.968427
 51
270.042502
  0
LINE
  5
F7
100
AcDbEntity
  8
2
370
    15
390
0
  6
Continuous
 62
     7
100
AcDbLine
 10
26.847528
 20
22.538677
 30
0.0
 11
26.847528
 21
22.495678
 31
0.0
  0
ARC
  5
F8
100
AcDbEntity
  8
2
370
    15
390
0
  6
Continuous
 62
     7
100
AcDbCircle
 10
26.890529
 20
22.364626
 30
0.0
 40
0.125471
100
AcDbArc
 50
74.751282
 51
105.248718
  0
LINE
  5
F9
100
AcDbEntity
  8
2
370
    15
390
0
  6
Continuous
 62
     7
100
AcDbLine
 10
26.847528
 20
22.327602
 30
0.0
 11
26.933529
 21
22.327602
 31
0.0
  0
LINE
  5
FA
100
AcDbEntity
  8
2
370
    15
390
0
  6
Continuous
 62
     7
100
AcDbLine
 10
26.847528
 20
22.327602
 30
0.0
 11
26.847528
 21
22.379097
 31
0.0
  0
ARC
  5
FB
100
AcDbEntity
  8
2
370
    15
390
0
  6
Continuous
 62
     7
100
AcDbCircle
 10
26.857531
 20
22.379096
 30
0.0
 40
0.010003
100
AcDbArc
 50
90.013463
 51
179.997464
  0
ARC
  5
FC
100
AcDbEntity
  8
2
370
    15
390
0
  6
Continuous
 62
     7
100
AcDbCircle
 10
26.923526
 20
22.379096
 30
0.0
 40
0.010003
100
AcDbArc
 50
0.002536
 51
89.986537
  0
LINE
  5
FD
100
AcDbEntity
  8
2
370
    15
390
0
  6
Continuous
 62
     7
100
AcDbLine
 10
26.933529
 20
22.327602
 30
0.0
 11
26.933529
 21
22.379097
 31
0.0
  0
ARC
  5
FE
100
AcDbEntity
  8
2
370
    15
390
0
  6
Continuous
 62
     7
100
AcDbCircle
 10
26.890529
 20
22.510044
 30
0.0
 40
0.125366
100
AcDbArc
 50
254.738269
 51
285.261731
  0
LINE
  5
FF
100
AcDbEntity
  8
2
370
    15
390
0
  6
Continuous
 62
     7
100
AcDbLine
 10
26.933529
 20
22.547176
 30
0.0
 11
26.933529
 21
22.495678
 31
0.0
  0
LINE
  5
100
100
AcDbEntity
  8
2
370
    15
390
0
  6
Continuous
 62
     7
100
AcDbLine
 10
26.783027
 20
24.21392
 30
0.0
 11
26.156029
 21
24.21392
 31
0.0
  0
ARC
  5
101
100
AcDbEntity
  8
2
370
    15
390
0
  6
Continuous
 62
     7
100
AcDbCircle
 10
26.158011
 20
23.023741
 30
0.0
 40
1.190181
100
AcDbArc
 50
72.266887
 51
90.095453
  0
LINE
  5
102
100
AcDbEntity
  8
2
370
    15
390
0
  6
Continuous
 62
     7
100
AcDbLine
 10
26.950527
 20
23.43325
 30
0.0
 11
26.156029
 21
23.43325
 31
0.0
  0
LINE
  5
103
100
AcDbEntity
  8
2
370
    15
390
0
  6
Continuous
 62
     7
100
AcDbLine
 10
26.950527
 20
23.244922
 30
0.0
 11
26.156029
 21
23.244922
 31
0.0
  0
LINE
  5
104
100
AcDbEntity
  8
2
370
    15
390
0
  6
Continuous
 62
     7
100
AcDbLine
 10
26.950527
 20
23.071422
 30
0.0
 11
26.156029
 21
23.071422
 31
0.0
  0
ARC
  5
105
100
AcDbEntity
  8
2
370
    15
390
0
  6
Continuous
 62
     7
100
AcDbCircle
 10
26.158026
 20
20.443031
 30
0.0
 40
0.1095
100
AcDbArc
 50
268.954574
 51
451.045426
  0
ARC
  5
106
100
AcDbEntity
  8
2
370
    15
390
0
  6
Continuous
 62
     7
100
AcDbCircle
 10
26.158029
 20
20.44303
 30
0.0
 40
0.109499
100
AcDbArc
 50
268.95341
 51
450.000594
  0
LINE
  5
107
100
AcDbEntity
  8
2
370
    15
390
0
  6
Continuous
 62
     1
100
AcDbLine
 10
26.937528
 20
22.620025
 30
0.0
 11
26.953028
 21
22.635528
 31
0.0
  0
LINE
  5
108
100
AcDbEntity
  8
2
370
    15
390
0
  6
Continuous
 62
     7
100
AcDbLine
 10
26.950527
 20
23.009807
 30
0.0
 11
26.843529
 21
22.948028
 31
0.0
  0
LINE
  5
109
100
AcDbEntity
  8
2
370
    15
390
0
  6
Continuous
 62
     7
100
AcDbLine
 10
26.843529
 20
22.66703
 30
0.0
 11
26.843529
 21
22.948028
 31
0.0
  0
LINE
  5
10A
100
AcDbEntity
  8
2
370
    15
390
0
  6
Continuous
 62
     7
100
AcDbLine
 10
26.935528
 20
22.613914
 30
0.0
 11
26.843529
 21
22.66703
 31
0.0
  0
LINE
  5
10B
100
AcDbEntity
  8
2
370
    15
390
0
  6
Continuous
 62
     7
100
AcDbLine
 10
26.935528
 20
22.557529
 30
0.0
 11
26.935528
 21
22.613914
 31
0.0
  0
LINE
  5
10C
100
AcDbEntity
  8
2
370
    15
390
0
  6
Continuous
 62
     7
100
AcDbLine
 10
26.156029
 20
23.009807
 30
0.0
 11
26.950527
 21
23.009807
 31
0.0
  0
LINE
  5
10D
100
AcDbEntity
  8
2
370
    15
390
0
  6
Continuous
 62
     7
100
AcDbLine
 10
26.156029
 20
22.948028
 30
0.0
 11
26.843529
 21
22.948028
 31
0.0
  0
LINE
  5
10E
100
AcDbEntity
  8
2
370
    15
390
0
  6
Continuous
 62
     7
100
AcDbLine
 10
26.156029
 20
22.66703
 30
0.0
 11
26.843529
 21
22.66703
 31
0.0
  0
LINE
  5
10F
100
AcDbEntity
  8
2
370
    15
390
0
  6
Continuous
 62
     7
100
AcDbLine
 10
26.156029
 20
22.613914
 30
0.0
 11
26.935528
 21
22.613914
 31
0.0
  0
LINE
  5
110
100
AcDbEntity
  8
2
370
    15
390
0
  6
Continuous
 62
     7
100
AcDbLine
 10
26.156029
 20
22.557529
 30
0.0
 11
26.935528
 21
22.557529
 31
0.0
  0
LINE
  5
111
100
AcDbEntity
  8
2
370
    15
390
0
  6
Continuous
 62
     7
100
AcDbLine
 10
26.935528
 20
22.32003
 30
0.0
 11
26.935528
 21
22.285331
 31
0.0
  0
LINE
  5
112
100
AcDbEntity
  8
2
370
    15
390
0
  6
Continuous
 62
     7
100
AcDbLine
 10
26.156029
 20
22.32003
 30
0.0
 11
26.935528
 21
22.32003
 31
0.0
  0
LINE
  5
113
100
AcDbEntity
  8
2
370
    15
390
0
  6
Continuous
 62
     7
100
AcDbLine
 10
26.156029
 20
22.285331
 30
0.0
 11
26.937528
 21
22.285331
 31
0.0
  0
LINE
  5
114
100
AcDbEntity
  8
2
370
    15
390
0
  6
Continuous
 62
     7
100
AcDbLine
 10
26.156029
 20
22.214031
 30
0.0
 11
26.814028
 21
22.214031
 31
0.0
  0
LINE
  5
115
100
AcDbEntity
  8
2
370
    15
390
0
  6
Continuous
 62
     7
100
AcDbLine
 10
26.875746
 20
23.476429
 30
0.0
 11
26.950527
 21
23.43325
 31
0.0
  0
LINE
  5
116
100
AcDbEntity
  8
2
370
    15
390
0
  6
Continuous
 62
     7
100
AcDbLine
 10
26.156029
 20
23.476429
 30
0.0
 11
26.875746
 21
23.476429
 31
0.0
  0
LINE
  5
117
100
AcDbEntity
  8
2
370
    15
390
0
  6
Continuous
 62
     7
100
AcDbLine
 10
26.520143
 20
24.156879
 30
0.0
 11
26.520143
 21
23.476429
 31
0.0
  0
LINE
  5
118
100
AcDbEntity
  8
1
370
    15
390
0
  6
Continuous
 62
     1
100
AcDbLine
 10
26.937528
 20
21.745029
 30
0.0
 11
26.915529
 21
21.745029
 31
0.0
  0
ARC
  5
119
100
AcDbEntity
  8
1
370
    15
390
0
  6
Continuous
 62
     1
100
AcDbCircle
 10
26.915527
 20
21.705032
 30
0.0
 40
0.039997
100
AcDbArc
 50
89.99754
 51
180.005192
  0
LINE
  5
11A
100
AcDbEntity
  8
1
370
    15
390
0
  6
Continuous
 62
     1
100
AcDbLine
 10
26.87553
 20
21.557029
 30
0.0
 11
26.87553
 21
21.705028
 31
0.0
  0
LINE
  5
11B
100
AcDbEntity
  8
1
370
    15
390
0
  6
Continuous
 62
     1
100
AcDbLine
 10
26.828529
 20
21.510029
 30
0.0
 11
26.828529
 21
20.307029
 31
0.0
  0
LINE
  5
11C
100
AcDbEntity
  8
1
370
    15
390
0
  6
Continuous
 62
     1
100
AcDbLine
 10
26.828527
 20
21.510029
 30
0.0
 11
26.87553
 21
21.557029
 31
0.0
  0
LINE
  5
11D
100
AcDbEntity
  8
1
370
    15
390
0
  6
CL____X1
 62
     1
100
AcDbLine
 10
27.031029
 20
24.081165
 30
0.0
 11
27.031029
 21
23.42192
 31
0.0
  0
LINE
  5
11E
100
AcDbEntity
  8
1
370
    15
390
0
  6
Continuous
 62
     1
100
AcDbLine
 10
26.828529
 20
20.307029
 30
0.0
 11
26.790607
 21
20.269108
 31
0.0
  0
ARC
  5
11F
100
AcDbEntity
  8
1
370
    15
390
0
  6
Continuous
 62
     1
100
AcDbCircle
 10
26.81252
 20
20.247191
 30
0.0
 40
0.030992
100
AcDbArc
 50
134.995802
 51
180.005409
  0
LINE
  5
120
100
AcDbEntity
  8
1
370
    15
390
0
  6
CL____X1
 62
     1
100
AcDbLine
 10
26.864628
 20
21.546131
 30
0.0
 11
26.864628
 21
21.057029
 31
0.0
  0
LINE
  5
121
100
AcDbEntity
  8
1
370
    15
390
0
  6
Continuous
 62
     1
100
AcDbLine
 10
26.781528
 20
19.92303
 30
0.0
 11
26.781528
 21
20.247188
 31
0.0
  0
LINE
  5
122
100
AcDbEntity
  8
1
370
    15
390
0
  6
Continuous
 62
     7
100
AcDbLine
 10
26.156029
 20
22.557518
 30
0.0
 11
26.156029
 21
22.423858
 31
0.0
  0
LINE
  5
123
100
AcDbEntity
  8
1
370
    15
390
0
  6
Continuous
 62
     7
100
AcDbLine
 10
26.156029
 20
20.886318
 30
0.0
 11
26.156029
 21
20.72327
 31
0.0
  0
LINE
  5
124
100
AcDbEntity
  8
1
370
    15
390
0
  6
Continuous
 62
     7
100
AcDbLine
 10
26.156029
 20
22.325767
 30
0.0
 11
26.156029
 21
20.967842
 31
0.0
  0
LINE
  5
125
100
AcDbEntity
  8
1
370
    15
390
0
  6
Continuous
 62
     7
100
AcDbLine
 10
26.156029
 20
19.222354
 30
0.0
 11
26.156029
 21
20.647495
 31
0.0
  0
LINE
  5
126
100
AcDbEntity
  8
1
370
    15
390
0
  6
Continuous
 62
     1
100
AcDbLine
 10
26.656029
 20
19.92303
 30
0.0
 11
26.781528
 21
19.92303
 31
0.0
  0
LINE
  5
127
100
AcDbEntity
  8
1
370
    15
390
0
  6
Continuous
 62
     1
100
AcDbLine
 10
27.131567
 20
21.745029
 30
0.0
 11
27.131567
 21
21.714668
 31
0.0
  0
LINE
  5
128
100
AcDbEntity
  8
1
370
    15
390
0
  6
Continuous
 62
     1
100
AcDbLine
 10
27.131567
 20
21.714668
 30
0.0
 11
27.116701
 21
21.682464
 31
0.0
  0
LINE
  5
129
100
AcDbEntity
  8
1
370
    15
390
0
  6
Continuous
 62
     1
100
AcDbLine
 10
27.116701
 20
21.682464
 30
0.0
 11
27.106788
 21
21.623012
 31
0.0
  0
LINE
  5
12A
100
AcDbEntity
  8
1
370
    15
390
0
  6
Continuous
 62
     1
100
AcDbLine
 10
27.106788
 20
21.623012
 30
0.0
 11
27.111744
 21
21.580902
 31
0.0
  0
LINE
  5
12B
100
AcDbEntity
  8
1
370
    15
390
0
  6
Continuous
 62
     1
100
AcDbLine
 10
27.111744
 20
21.580902
 30
0.0
 11
27.116701
 21
21.526405
 31
0.0
  0
LINE
  5
12C
100
AcDbEntity
  8
1
370
    15
390
0
  6
Continuous
 62
     1
100
AcDbLine
 10
27.116701
 20
21.526405
 30
0.0
 11
27.119179
 21
21.476864
 31
0.0
  0
LINE
  5
12D
100
AcDbEntity
  8
1
370
    15
390
0
  6
Continuous
 62
     1
100
AcDbLine
 10
27.119179
 20
21.476864
 30
0.0
 11
27.114221
 21
21.44466
 31
0.0
  0
LINE
  5
12E
100
AcDbEntity
  8
1
370
    15
390
0
  6
Continuous
 62
     1
100
AcDbLine
 10
27.114221
 20
21.44466
 30
0.0
 11
27.106788
 21
21.402549
 31
0.0
  0
LINE
  5
12F
100
AcDbEntity
  8
1
370
    15
390
0
  6
Continuous
 62
     1
100
AcDbLine
 10
27.106788
 20
21.402549
 30
0.0
 11
27.094398
 21
21.350528
 31
0.0
  0
LINE
  5
130
100
AcDbEntity
  8
1
370
    15
390
0
  6
Continuous
 62
     1
100
AcDbLine
 10
27.094398
 20
21.350528
 30
0.0
 11
27.091921
 21
21.273739
 31
0.0
  0
LINE
  5
131
100
AcDbEntity
  8
1
370
    15
390
0
  6
Continuous
 62
     1
100
AcDbLine
 10
27.091921
 20
21.273739
 30
0.0
 11
27.094398
 21
21.244014
 31
0.0
  0
LINE
  5
132
100
AcDbEntity
  8
1
370
    15
390
0
  6
Continuous
 62
     1
100
AcDbLine
 10
27.094398
 20
21.244014
 30
0.0
 11
27.101833
 21
21.201904
 31
0.0
  0
LINE
  5
133
100
AcDbEntity
  8
1
370
    15
390
0
  6
Continuous
 62
     1
100
AcDbLine
 10
27.101833
 20
21.201904
 30
0.0
 11
27.109266
 21
21.152359
 31
0.0
  0
LINE
  5
134
100
AcDbEntity
  8
1
370
    15
390
0
  6
Continuous
 62
     1
100
AcDbLine
 10
27.089443
 20
20.917034
 30
0.0
 11
27.086965
 21
20.882354
 31
0.0
  0
LINE
  5
135
100
AcDbEntity
  8
1
370
    15
390
0
  6
Continuous
 62
     1
100
AcDbLine
 10
27.086965
 20
20.882354
 30
0.0
 11
27.089443
 21
20.84272
 31
0.0
  0
LINE
  5
136
100
AcDbEntity
  8
1
370
    15
390
0
  6
Continuous
 62
     1
100
AcDbLine
 10
27.089443
 20
20.84272
 30
0.0
 11
27.094398
 21
20.803085
 31
0.0
  0
LINE
  5
137
100
AcDbEntity
  8
1
370
    15
390
0
  6
Continuous
 62
     1
100
AcDbLine
 10
27.094398
 20
20.803085
 30
0.0
 11
27.094398
 21
20.728771
 31
0.0
  0
LINE
  5
138
100
AcDbEntity
  8
1
370
    15
390
0
  6
Continuous
 62
     1
100
AcDbLine
 10
27.094398
 20
20.728771
 30
0.0
 11
27.086965
 21
20.696567
 31
0.0
  0
LINE
  5
139
100
AcDbEntity
  8
1
370
    15
390
0
  6
Continuous
 62
     1
100
AcDbLine
 10
27.086965
 20
20.696567
 30
0.0
 11
27.06962
 21
20.656936
 31
0.0
  0
LINE
  5
13A
100
AcDbEntity
  8
1
370
    15
390
0
  6
Continuous
 62
     1
100
AcDbLine
 10
27.06962
 20
20.656936
 30
0.0
 11
27.074575
 21
20.617302
 31
0.0
  0
LINE
  5
13B
100
AcDbEntity
  8
1
370
    15
390
0
  6
Continuous
 62
     1
100
AcDbLine
 10
27.074575
 20
20.617302
 30
0.0
 11
27.084488
 21
20.577667
 31
0.0
  0
LINE
  5
13C
100
AcDbEntity
  8
1
370
    15
390
0
  6
Continuous
 62
     1
100
AcDbLine
 10
27.084488
 20
20.577667
 30
0.0
 11
27.096876
 21
20.540512
 31
0.0
  0
LINE
  5
13D
100
AcDbEntity
  8
1
370
    15
390
0
  6
Continuous
 62
     1
100
AcDbLine
 10
27.096876
 20
20.540512
 30
0.0
 11
27.096876
 21
20.503353
 31
0.0
  0
LINE
  5
13E
100
AcDbEntity
  8
1
370
    15
390
0
  6
Continuous
 62
     1
100
AcDbLine
 10
27.096876
 20
20.503353
 30
0.0
 11
27.086965
 21
20.466198
 31
0.0
  0
LINE
  5
13F
100
AcDbEntity
  8
1
370
    15
390
0
  6
Continuous
 62
     1
100
AcDbLine
 10
27.086965
 20
20.466198
 30
0.0
 11
27.074575
 21
20.424083
 31
0.0
  0
LINE
  5
140
100
AcDbEntity
  8
1
370
    15
390
0
  6
Continuous
 62
     1
100
AcDbLine
 10
27.074575
 20
20.424083
 30
0.0
 11
27.05723
 21
20.389404
 31
0.0
  0
LINE
  5
141
100
AcDbEntity
  8
1
370
    15
390
0
  6
Continuous
 62
     1
100
AcDbLine
 10
27.05723
 20
20.389404
 30
0.0
 11
27.05723
 21
20.349773
 31
0.0
  0
LINE
  5
142
100
AcDbEntity
  8
1
370
    15
390
0
  6
Continuous
 62
     1
100
AcDbLine
 10
27.05723
 20
20.349773
 30
0.0
 11
27.052275
 21
20.290321
 31
0.0
  0
LINE
  5
143
100
AcDbEntity
  8
1
370
    15
390
0
  6
Continuous
 62
     1
100
AcDbLine
 10
27.052275
 20
20.290321
 30
0.0
 11
27.052275
 21
20.253162
 31
0.0
  0
LINE
  5
144
100
AcDbEntity
  8
1
370
    15
390
0
  6
Continuous
 62
     1
100
AcDbLine
 10
27.052275
 20
20.253162
 30
0.0
 11
27.05723
 21
20.203621
 31
0.0
  0
LINE
  5
145
100
AcDbEntity
  8
1
370
    15
390
0
  6
Continuous
 62
     1
100
AcDbLine
 10
27.05723
 20
20.203621
 30
0.0
 11
27.06714
 21
20.166465
 31
0.0
  0
LINE
  5
146
100
AcDbEntity
  8
1
370
    15
390
0
  6
Continuous
 62
     1
100
AcDbLine
 10
27.06714
 20
20.166465
 30
0.0
 11
27.06714
 21
20.089672
 31
0.0
  0
LINE
  5
147
100
AcDbEntity
  8
1
370
    15
390
0
  6
Continuous
 62
     1
100
AcDbLine
 10
27.06714
 20
20.089672
 30
0.0
 11
27.05723
 21
20.064903
 31
0.0
  0
LINE
  5
148
100
AcDbEntity
  8
1
370
    15
390
0
  6
Continuous
 62
     1
100
AcDbLine
 10
27.05723
 20
20.064903
 30
0.0
 11
27.042362
 21
20.020313
 31
0.0
  0
LINE
  5
149
100
AcDbEntity
  8
1
370
    15
390
0
  6
Continuous
 62
     1
100
AcDbLine
 10
27.042362
 20
20.020313
 30
0.0
 11
27.042362
 21
19.953431
 31
0.0
  0
LINE
  5
14A
100
AcDbEntity
  8
1
370
    15
390
0
  6
Continuous
 62
     1
100
AcDbLine
 10
27.042362
 20
19.953431
 30
0.0
 11
27.047317
 21
19.913798
 31
0.0
  0
LINE
  5
14B
100
AcDbEntity
  8
1
370
    15
390
0
  6
Continuous
 62
     1
100
AcDbLine
 10
27.047317
 20
19.913798
 30
0.0
 11
27.062185
 21
19.856824
 31
0.0
  0
LINE
  5
14C
100
AcDbEntity
  8
1
370
    15
390
0
  6
Continuous
 62
     1
100
AcDbLine
 10
27.062185
 20
19.856824
 30
0.0
 11
27.06714
 21
19.82462
 31
0.0
  0
LINE
  5
14D
100
AcDbEntity
  8
1
370
    15
390
0
  6
Continuous
 62
     1
100
AcDbLine
 10
27.06714
 20
19.82462
 30
0.0
 11
27.06714
 21
19.752783
 31
0.0
  0
LINE
  5
14E
100
AcDbEntity
  8
1
370
    15
390
0
  6
Continuous
 62
     1
100
AcDbLine
 10
27.06714
 20
19.752783
 30
0.0
 11
27.049795
 21
19.700764
 31
0.0
  0
LINE
  5
14F
100
AcDbEntity
  8
1
370
    15
390
0
  6
Continuous
 62
     1
100
AcDbLine
 10
27.049795
 20
19.700764
 30
0.0
 11
27.04484
 21
19.666085
 31
0.0
  0
LINE
  5
150
100
AcDbEntity
  8
1
370
    15
390
0
  6
Continuous
 62
     1
100
AcDbLine
 10
27.053709
 20
20.307529
 30
0.0
 11
26.828529
 21
20.307529
 31
0.0
  0
LINE
  5
151
100
AcDbEntity
  8
1
370
    15
390
0
  6
Continuous
 62
     1
100
AcDbLine
 10
27.10474
 20
21.182529
 30
0.0
 11
26.828529
 21
21.182529
 31
0.0
  0
LINE
  5
152
100
AcDbEntity
  8
1
370
    15
390
0
  6
Continuous
 62
     1
100
AcDbLine
 10
27.123239
 20
21.696628
 30
0.0
 11
26.828529
 21
21.401916
 31
0.0
  0
LINE
  5
153
100
AcDbEntity
  8
1
370
    15
390
0
  6
Continuous
 62
     1
100
AcDbLine
 10
27.110424
 20
21.595424
 30
0.0
 11
26.828529
 21
21.31353
 31
0.0
  0
LINE
  5
154
100
AcDbEntity
  8
1
370
    15
390
0
  6
Continuous
 62
     1
100
AcDbLine
 10
27.117325
 20
21.513935
 30
0.0
 11
26.828529
 21
21.225139
 31
0.0
  0
LINE
  5
155
100
AcDbEntity
  8
1
370
    15
390
0
  6
Continuous
 62
     1
100
AcDbLine
 10
27.110685
 20
21.418907
 30
0.0
 11
26.874306
 21
21.182529
 31
0.0
  0
LINE
  5
156
100
AcDbEntity
  8
1
370
    15
390
0
  6
Continuous
 62
     1
100
AcDbLine
 10
27.093189
 20
21.313022
 30
0.0
 11
26.962694
 21
21.182529
 31
0.0
  0
LINE
  5
157
100
AcDbEntity
  8
1
370
    15
390
0
  6
Continuous
 62
     1
100
AcDbLine
 10
27.097124
 20
21.228573
 30
0.0
 11
27.051082
 21
21.182529
 31
0.0
  0
LINE
  5
158
100
AcDbEntity
  8
1
370
    15
390
0
  6
Continuous
 62
     1
100
AcDbLine
 10
26.656029
 20
19.92303
 30
0.0
 11
26.656029
 21
19.344058
 31
0.0
  0
LINE
  5
159
100
AcDbEntity
  8
1
370
    15
390
0
  6
Continuous
 62
     1
100
AcDbLine
 10
27.04484
 20
19.666085
 30
0.0
 11
27.039884
 21
19.596724
 31
0.0
  0
LINE
  5
15A
100
AcDbEntity
  8
1
370
    15
390
0
  6
Continuous
 62
     1
100
AcDbLine
 10
27.039884
 20
19.596724
 30
0.0
 11
27.029972
 21
19.557091
 31
0.0
  0
LINE
  5
15B
100
AcDbEntity
  8
1
370
    15
390
0
  6
Continuous
 62
     1
100
AcDbLine
 10
27.029972
 20
19.557091
 30
0.0
 11
27.010149
 21
19.537274
 31
0.0
  0
LINE
  5
15C
100
AcDbEntity
  8
1
370
    15
390
0
  6
Continuous
 62
     1
100
AcDbLine
 10
27.010149
 20
19.537274
 30
0.0
 11
26.990326
 21
19.507548
 31
0.0
  0
LINE
  5
15D
100
AcDbEntity
  8
1
370
    15
390
0
  6
Continuous
 62
     1
100
AcDbLine
 10
26.990326
 20
19.507548
 30
0.0
 11
26.98537
 21
19.477822
 31
0.0
  0
LINE
  5
15E
100
AcDbEntity
  8
1
370
    15
390
0
  6
Continuous
 62
     1
100
AcDbLine
 10
26.98537
 20
19.477822
 30
0.0
 11
26.970503
 21
19.453051
 31
0.0
  0
LINE
  5
15F
100
AcDbEntity
  8
1
370
    15
390
0
  6
Continuous
 62
     1
100
AcDbLine
 10
26.970503
 20
19.453051
 30
0.0
 11
26.945722
 21
19.428281
 31
0.0
  0
LINE
  5
160
100
AcDbEntity
  8
1
370
    15
390
0
  6
Continuous
 62
     1
100
AcDbLine
 10
26.945722
 20
19.428281
 30
0.0
 11
26.901121
 21
19.418372
 31
0.0
  0
LINE
  5
161
100
AcDbEntity
  8
1
370
    15
390
0
  6
Continuous
 62
     1
100
AcDbLine
 10
26.901121
 20
19.418372
 30
0.0
 11
26.861473
 21
19.413417
 31
0.0
  0
LINE
  5
162
100
AcDbEntity
  8
1
370
    15
390
0
  6
Continuous
 62
     1
100
AcDbLine
 10
26.861473
 20
19.413417
 30
0.0
 11
26.821827
 21
19.393601
 31
0.0
  0
LINE
  5
163
100
AcDbEntity
  8
1
370
    15
390
0
  6
Continuous
 62
     1
100
AcDbLine
 10
26.821827
 20
19.393601
 30
0.0
 11
26.797047
 21
19.373784
 31
0.0
  0
LINE
  5
164
100
AcDbEntity
  8
1
370
    15
390
0
  6
Continuous
 62
     1
100
AcDbLine
 10
26.797047
 20
19.373784
 30
0.0
 11
26.737577
 21
19.363875
 31
0.0
  0
LINE
  5
165
100
AcDbEntity
  8
1
370
    15
390
0
  6
Continuous
 62
     1
100
AcDbLine
 10
26.737577
 20
19.363875
 30
0.0
 11
26.712797
 21
19.35892
 31
0.0
  0
LINE
  5
166
100
AcDbEntity
  8
1
370
    15
390
0
  6
Continuous
 62
     1
100
AcDbLine
 10
26.712797
 20
19.35892
 30
0.0
 11
26.683061
 21
19.35892
 31
0.0
  0
LINE
  5
167
100
AcDbEntity
  8
1
370
    15
390
0
  6
Continuous
 62
     1
100
AcDbLine
 10
26.683061
 20
19.35892
 30
0.0
 11
26.656029
 21
19.344058
 31
0.0
  0
LINE
  5
168
100
AcDbEntity
  8
1
370
    15
390
0
  6
Continuous
 62
     1
100
AcDbLine
 10
26.781528
 20
20.157821
 30
0.0
 11
26.931234
 21
20.307529
 31
0.0
  0
LINE
  5
169
100
AcDbEntity
  8
1
370
    15
390
0
  6
Continuous
 62
     1
100
AcDbLine
 10
26.781528
 20
20.069435
 30
0.0
 11
27.019623
 21
20.307529
 31
0.0
  0
LINE
  5
16A
100
AcDbEntity
  8
1
370
    15
390
0
  6
Continuous
 62
     1
100
AcDbLine
 10
26.656029
 20
19.767159
 30
0.0
 11
27.067142
 21
20.178272
 31
0.0
  0
LINE
  5
16B
100
AcDbEntity
  8
1
370
    15
390
0
  6
Continuous
 62
     1
100
AcDbLine
 10
26.656029
 20
19.678771
 30
0.0
 11
27.06714
 21
20.089882
 31
0.0
  0
LINE
  5
16C
100
AcDbEntity
  8
1
370
    15
390
0
  6
Continuous
 62
     1
100
AcDbLine
 10
26.985308
 20
19.477719
 30
0.0
 11
26.933054
 21
19.425465
 31
0.0
  0
LINE
  5
16D
100
AcDbEntity
  8
1
370
    15
390
0
  6
Continuous
 62
     1
100
AcDbLine
 10
27.041727
 20
19.622529
 30
0.0
 11
26.792169
 21
19.372971
 31
0.0
  0
LINE
  5
16E
100
AcDbEntity
  8
1
370
    15
390
0
  6
Continuous
 62
     1
100
AcDbLine
 10
27.05891
 20
19.728099
 30
0.0
 11
26.689731
 21
19.35892
 31
0.0
  0
LINE
  5
16F
100
AcDbEntity
  8
1
370
    15
390
0
  6
Continuous
 62
     1
100
AcDbLine
 10
27.067129
 20
19.824706
 30
0.0
 11
26.656029
 21
19.413605
 31
0.0
  0
LINE
  5
170
100
AcDbEntity
  8
1
370
    15
390
0
  6
Continuous
 62
     1
100
AcDbLine
 10
27.051563
 20
19.897528
 30
0.0
 11
26.656029
 21
19.501994
 31
0.0
  0
LINE
  5
171
100
AcDbEntity
  8
1
370
    15
390
0
  6
Continuous
 62
     1
100
AcDbLine
 10
27.042362
 20
19.976715
 30
0.0
 11
26.656029
 21
19.590382
 31
0.0
  0
LINE
  5
172
100
AcDbEntity
  8
1
370
    15
390
0
  6
Continuous
 62
     1
100
AcDbLine
 10
26.781528
 20
19.981048
 30
0.0
 11
27.052399
 21
20.251919
 31
0.0
  0
LINE
  5
173
100
AcDbEntity
  8
1
370
    15
390
0
  6
Continuous
 62
     1
100
AcDbLine
 10
26.723511
 20
19.92303
 30
0.0
 11
26.656029
 21
19.855548
 31
0.0
  0
LINE
  5
174
100
AcDbEntity
  8
1
370
    15
390
0
  6
Continuous
 62
     1
100
AcDbLine
 10
27.131567
 20
21.745029
 30
0.0
 11
27.136156
 21
21.766082
 31
0.0
  0
LINE
  5
175
100
AcDbEntity
  8
1
370
    15
390
0
  6
Continuous
 62
     1
100
AcDbLine
 10
27.136156
 20
21.766082
 30
0.0
 11
27.144831
 21
21.818123
 31
0.0
  0
LINE
  5
176
100
AcDbEntity
  8
1
370
    15
390
0
  6
Continuous
 62
     1
100
AcDbLine
 10
27.144831
 20
21.818123
 30
0.0
 11
27.147001
 21
21.852813
 31
0.0
  0
LINE
  5
177
100
AcDbEntity
  8
1
370
    15
390
0
  6
Continuous
 62
     1
100
AcDbLine
 10
27.147001
 20
21.852813
 30
0.0
 11
27.144831
 21
21.876667
 31
0.0
  0
LINE
  5
178
100
AcDbEntity
  8
1
370
    15
390
0
  6
Continuous
 62
     1
100
AcDbLine
 10
27.144831
 20
21.876667
 30
0.0
 11
27.138325
 21
21.911358
 31
0.0
  0
LINE
  5
179
100
AcDbEntity
  8
1
370
    15
390
0
  6
Continuous
 62
     1
100
AcDbLine
 10
27.138325
 20
21.911358
 30
0.0
 11
27.129648
 21
21.954723
 31
0.0
  0
LINE
  5
17A
100
AcDbEntity
  8
1
370
    15
390
0
  6
Continuous
 62
     1
100
AcDbLine
 10
27.129648
 20
21.954723
 30
0.0
 11
27.125311
 21
21.995918
 31
0.0
  0
LINE
  5
17B
100
AcDbEntity
  8
1
370
    15
390
0
  6
Continuous
 62
     1
100
AcDbLine
 10
27.138323
 20
21.776031
 30
0.0
 11
26.937528
 21
21.776031
 31
0.0
  0
LINE
  5
17C
100
AcDbEntity
  8
1
370
    15
390
0
  6
Continuous
 62
     1
100
AcDbLine
 10
27.025863
 20
21.776031
 30
0.0
 11
26.87553
 21
21.625694
 31
0.0
  0
LINE
  5
17D
100
AcDbEntity
  8
1
370
    15
390
0
  6
Continuous
 62
     1
100
AcDbLine
 10
27.114252
 20
21.776031
 30
0.0
 11
26.828529
 21
21.490307
 31
0.0
  0
LINE
  5
17E
100
AcDbEntity
  8
1
370
    15
390
0
  6
Continuous
 62
     1
100
AcDbLine
 10
27.006269
 20
22.026031
 30
0.0
 11
27.051536
 21
22.026031
 31
0.0
  0
LINE
  5
17F
100
AcDbEntity
  8
1
370
    15
390
0
  6
Continuous
 62
     1
100
AcDbLine
 10
26.974932
 20
22.026031
 30
0.0
 11
26.884399
 21
22.026031
 31
0.0
  0
LINE
  5
180
100
AcDbEntity
  8
1
370
    15
390
0
  6
Continuous
 62
     1
100
AcDbLine
 10
26.912254
 20
20.745029
 30
0.0
 11
26.961004
 21
20.745029
 31
0.0
  0
LINE
  5
181
100
AcDbEntity
  8
1
370
    15
390
0
  6
Continuous
 62
     1
100
AcDbLine
 10
26.873953
 20
20.745029
 30
0.0
 11
26.776455
 21
20.745029
 31
0.0
  0
LINE
  5
182
100
AcDbEntity
  8
1
370
    15
390
0
  6
CL____X1
 62
     1
100
AcDbLine
 10
26.968529
 20
23.35942
 30
0.0
 11
27.031029
 21
23.42192
 31
0.0
  0
ELLIPSE
  5
183
100
AcDbEntity
  8
1
370
    15
390
0
  6
Continuous
 62
     1
100
AcDbEllipse
 10
26.907
 20
23.128277
 30
0.0
 11
-0.000727653503418
 21
0.0574569702148438
 31
0.0
210
0.0
220
0.0
230
1.0
 40
0.763926
 41
0.0
 42
6.2831853071795862
  0
ELLIPSE
  5
184
100
AcDbEntity
  8
1
370
    15
390
0
  6
Continuous
 62
     1
100
AcDbEllipse
 10
26.831158
 20
21.644394
 30
0.0
 11
-0.0005273818969727
 21
-0.0534172058105469
 31
0.0
210
0.0
220
0.0
230
1.0
 40
0.813129
 41
0.0
 42
6.2831853071795862
  0
ELLIPSE
  5
185
100
AcDbEntity
  8
1
370
    15
390
0
  6
Continuous
 62
     1
100
AcDbEllipse
 10
26.738758
 20
20.118007
 30
0.0
 11
0.0011653900146484
 21
0.0524406433105469
 31
0.0
210
0.0
220
0.0
230
1.0
 40
0.826834
 41
0.0
 42
6.2831853071795862
  0
LINE
  5
186
100
AcDbEntity
  8
1
370
    15
390
0
  6
Continuous
 62
     1
100
AcDbLine
 10
26.968529
 20
23.35942
 30
0.0
 11
26.962107
 21
23.353
 31
0.0
  0
ARC
  5
187
100
AcDbEntity
  8
1
370
    15
390
0
  6
Continuous
 62
     1
100
AcDbCircle
 10
26.984041
 20
23.331075
 30
0.0
 40
0.031013
100
AcDbArc
 50
135.012177
 51
179.989034
  0
LINE
  5
188
100
AcDbEntity
  8
1
370
    15
390
0
  6
Continuous
 62
     7
100
AcDbLine
 10
26.156029
 20
22.657398
 30
0.0
 11
26.156029
 21
24.252598
 31
0.0
  0
LINE
  5
189
100
AcDbEntity
  8
1
370
    15
390
0
  6
Continuous
 62
     1
100
AcDbLine
 10
26.953028
 20
22.635528
 30
0.0
 11
26.953028
 21
23.331081
 31
0.0
  0
LINE
  5
18A
100
AcDbEntity
  8
1
370
    15
390
0
  6
Continuous
 62
     1
100
AcDbLine
 10
26.937528
 20
22.620025
 30
0.0
 11
26.937528
 21
21.745029
 31
0.0
  0
LINE
  5
18B
100
AcDbEntity
  8
1
370
    15
390
0
  6
Continuous
 62
     7
100
AcDbLine
 10
26.935528
 20
21.814727
 30
0.0
 11
26.935528
 21
21.745029
 31
0.0
  0
LINE
  5
18C
100
AcDbEntity
  8
1
370
    15
390
0
  6
Continuous
 62
     7
100
AcDbLine
 10
26.847528
 20
22.557529
 30
0.0
 11
26.847528
 21
22.32003
 31
0.0
  0
ELLIPSE
  5
18D
100
AcDbEntity
  8
1
370
    15
390
0
  6
Continuous
 62
     1
100
AcDbEllipse
 10
26.892259
 20
22.437462
 30
0.0
 11
0.0011653900146484
 21
0.0524406433105469
 31
0.0
210
0.0
220
0.0
230
1.0
 40
0.826836
 41
0.0
 42
6.2831853071795862
  0
LINE
  5
18E
100
AcDbEntity
  8
1
370
    15
390
0
  6
Continuous
 62
     1
100
AcDbLine
 10
27.178261
 20
22.851082
 30
0.0
 11
27.156248
 21
22.800781
 31
0.0
  0
LINE
  5
18F
100
AcDbEntity
  8
1
370
    15
390
0
  6
Continuous
 62
     1
100
AcDbLine
 10
27.156248
 20
22.800781
 30
0.0
 11
27.146814
 21
22.744198
 31
0.0
  0
LINE
  5
190
100
AcDbEntity
  8
1
370
    15
390
0
  6
Continuous
 62
     1
100
AcDbLine
 10
27.146814
 20
22.744198
 30
0.0
 11
27.143669
 21
22.675037
 31
0.0
  0
LINE
  5
191
100
AcDbEntity
  8
1
370
    15
390
0
  6
Continuous
 62
     1
100
AcDbLine
 10
27.143669
 20
22.675037
 30
0.0
 11
27.146814
 21
22.60902
 31
0.0
  0
LINE
  5
192
100
AcDbEntity
  8
1
370
    15
390
0
  6
Continuous
 62
     1
100
AcDbLine
 10
27.146814
 20
22.60902
 30
0.0
 11
27.140524
 21
22.539859
 31
0.0
  0
LINE
  5
193
100
AcDbEntity
  8
1
370
    15
390
0
  6
Continuous
 62
     1
100
AcDbLine
 10
27.140524
 20
22.539859
 30
0.0
 11
27.127945
 21
22.476986
 31
0.0
  0
LINE
  5
194
100
AcDbEntity
  8
1
370
    15
390
0
  6
Continuous
 62
     1
100
AcDbLine
 10
27.127945
 20
22.476986
 30
0.0
 11
27.121656
 21
22.420398
 31
0.0
  0
LINE
  5
195
100
AcDbEntity
  8
1
370
    15
390
0
  6
Continuous
 62
     1
100
AcDbLine
 10
27.121656
 20
22.420398
 30
0.0
 11
27.121656
 21
22.338665
 31
0.0
  0
LINE
  5
196
100
AcDbEntity
  8
1
370
    15
390
0
  6
Continuous
 62
     1
100
AcDbLine
 10
27.121656
 20
22.338665
 30
0.0
 11
27.127945
 21
22.294655
 31
0.0
  0
LINE
  5
197
100
AcDbEntity
  8
1
370
    15
390
0
  6
Continuous
 62
     1
100
AcDbLine
 10
27.127945
 20
22.294655
 30
0.0
 11
27.146814
 21
22.225494
 31
0.0
  0
LINE
  5
198
100
AcDbEntity
  8
1
370
    15
390
0
  6
Continuous
 62
     1
100
AcDbLine
 10
27.121656
 20
22.024299
 30
0.0
 11
27.125311
 21
21.995918
 31
0.0
  0
LINE
  5
199
100
AcDbEntity
  8
1
370
    15
390
0
  6
Continuous
 62
     1
100
AcDbLine
 10
27.133026
 20
22.276027
 30
0.0
 11
26.937528
 21
22.276027
 31
0.0
  0
LINE
  5
19A
100
AcDbEntity
  8
1
370
    15
390
0
  6
Continuous
 62
     1
100
AcDbLine
 10
27.175115
 20
24.04253
 30
0.0
 11
27.146814
 21
24.045673
 31
0.0
  0
LINE
  5
19B
100
AcDbEntity
  8
1
370
    15
390
0
  6
Continuous
 62
     1
100
AcDbLine
 10
27.146814
 20
24.045673
 30
0.0
 11
27.115366
 21
24.064537
 31
0.0
  0
LINE
  5
19C
100
AcDbEntity
  8
1
370
    15
390
0
  6
Continuous
 62
     1
100
AcDbLine
 10
27.115366
 20
24.064537
 30
0.0
 11
27.083919
 21
24.080253
 31
0.0
  0
LINE
  5
19D
100
AcDbEntity
  8
1
370
    15
390
0
  6
Continuous
 62
     1
100
AcDbLine
 10
27.083919
 20
24.080253
 30
0.0
 11
27.046184
 21
24.083397
 31
0.0
  0
LINE
  5
19E
100
AcDbEntity
  8
1
370
    15
390
0
  6
Continuous
 62
     1
100
AcDbLine
 10
27.046184
 20
24.083397
 30
0.0
 11
27.031029
 21
24.081165
 31
0.0
  0
LINE
  5
19F
100
AcDbEntity
  8
1
370
    15
390
0
  6
Continuous
 62
     1
100
AcDbLine
 10
27.143312
 20
22.682529
 30
0.0
 11
26.953028
 21
22.682529
 31
0.0
  0
LINE
  5
1A0
100
AcDbEntity
  8
1
370
    15
390
0
  6
Continuous
 62
     1
100
AcDbLine
 10
26.953028
 20
23.186752
 30
0.0
 11
27.136305
 21
23.370029
 31
0.0
  0
LINE
  5
1A1
100
AcDbEntity
  8
1
370
    15
390
0
  6
Continuous
 62
     1
100
AcDbLine
 10
26.953028
 20
23.275142
 30
0.0
 11
27.047916
 21
23.370029
 31
0.0
  0
LINE
  5
1A2
100
AcDbEntity
  8
1
370
    15
390
0
  6
Continuous
 62
     1
100
AcDbLine
 10
26.937528
 20
22.580631
 30
0.0
 11
27.039425
 21
22.682529
 31
0.0
  0
LINE
  5
1A3
100
AcDbEntity
  8
1
370
    15
390
0
  6
Continuous
 62
     1
100
AcDbLine
 10
26.937528
 20
22.492244
 30
0.0
 11
27.127813
 21
22.682529
 31
0.0
  0
LINE
  5
1A4
100
AcDbEntity
  8
1
370
    15
390
0
  6
Continuous
 62
     1
100
AcDbLine
 10
26.937528
 20
22.403854
 30
0.0
 11
27.147226
 21
22.613552
 31
0.0
  0
LINE
  5
1A5
100
AcDbEntity
  8
1
370
    15
390
0
  6
Continuous
 62
     1
100
AcDbLine
 10
26.937528
 20
22.315468
 30
0.0
 11
27.135174
 21
22.513115
 31
0.0
  0
LINE
  5
1A6
100
AcDbEntity
  8
1
370
    15
390
0
  6
Continuous
 62
     1
100
AcDbLine
 10
27.074867
 20
22.276027
 30
0.0
 11
27.123638
 21
22.324802
 31
0.0
  0
LINE
  5
1A7
100
AcDbEntity
  8
1
370
    15
390
0
  6
Continuous
 62
     1
100
AcDbLine
 10
26.986479
 20
22.276027
 30
0.0
 11
27.121656
 21
22.411209
 31
0.0
  0
LINE
  5
1A8
100
AcDbEntity
  8
1
370
    15
390
0
  6
Continuous
 62
     7
100
AcDbLine
 10
26.522837
 20
24.160392
 30
0.0
 11
26.520143
 21
24.156879
 31
0.0
  0
LINE
  5
1A9
100
AcDbEntity
  8
1
370
    15
390
0
  6
Continuous
 62
     1
100
AcDbLine
 10
27.035446
 20
22.870029
 30
0.0
 11
27.075043
 21
22.870029
 31
0.0
  0
LINE
  5
1AA
100
AcDbEntity
  8
1
370
    15
390
0
  6
Continuous
 62
     1
100
AcDbLine
 10
27.011343
 20
22.870029
 30
0.0
 11
26.907818
 21
22.870029
 31
0.0
  0
LINE
  5
1AB
100
AcDbEntity
  8
1
370
    15
390
0
  6
Continuous
 62
     1
100
AcDbLine
 10
26.165985
 20
20.443031
 30
0.0
 11
26.156029
 21
20.443031
 31
0.0
  0
ARC
  5
1AC
100
AcDbEntity
  8
1
370
    15
390
0
  6
Continuous
 62
     7
100
AcDbCircle
 10
25.345527
 20
22.607186
 30
0.0
 40
0.031001
100
AcDbArc
 50
0.0049
 51
45.0024
  0
LINE
  5
1AD
100
AcDbEntity
  8
1
370
    15
390
0
  6
Continuous
 62
     7
100
AcDbLine
 10
25.376528
 20
21.745029
 30
0.0
 11
25.376528
 21
22.607189
 31
0.0
  0
LINE
  5
1AE
100
AcDbEntity
  8
1
370
    15
390
0
  6
Continuous
 62
     7
100
AcDbLine
 10
25.485527
 20
21.510029
 30
0.0
 11
25.485527
 21
20.307029
 31
0.0
  0
LINE
  5
1AF
100
AcDbEntity
  8
1
370
    15
390
0
  6
Continuous
 62
     7
100
AcDbLine
 10
25.485529
 20
21.510029
 30
0.0
 11
25.438526
 21
21.557029
 31
0.0
  0
LINE
  5
1B0
100
AcDbEntity
  8
1
370
    15
390
0
  6
Continuous
 62
     7
100
AcDbLine
 10
25.485527
 20
20.307029
 30
0.0
 11
25.523449
 21
20.269108
 31
0.0
  0
ARC
  5
1B1
100
AcDbEntity
  8
1
370
    15
390
0
  6
Continuous
 62
     7
100
AcDbCircle
 10
25.501536
 20
20.247191
 30
0.0
 40
0.030992
100
AcDbArc
 50
359.994591
 51
405.004198
  0
LINE
  5
1B2
100
AcDbEntity
  8
1
370
    15
390
0
  6
CL____X1
 62
     7
100
AcDbLine
 10
25.449428
 20
21.546131
 30
0.0
 11
25.449428
 21
21.057029
 31
0.0
  0
LINE
  5
1B3
100
AcDbEntity
  8
1
370
    15
390
0
  6
Continuous
 62
     7
100
AcDbLine
 10
25.532528
 20
19.92303
 30
0.0
 11
25.532528
 21
20.247188
 31
0.0
  0
LINE
  5
1B4
100
AcDbEntity
  8
1
370
    15
390
0
  6
Continuous
 62
     7
100
AcDbLine
 10
25.658027
 20
19.92303
 30
0.0
 11
25.532528
 21
19.92303
 31
0.0
  0
LINE
  5
1B5
100
AcDbEntity
  8
1
370
    15
390
0
  6
CL____X1
 62
     1
100
AcDbLine
 10
25.404528
 20
22.675548
 30
0.0
 11
25.404528
 21
21.79203
 31
0.0
  0
LINE
  5
1B6
100
AcDbEntity
  8
1
370
    15
390
0
  6
CL____X1
 62
     1
100
AcDbLine
 10
25.466026
 20
21.756523
 30
0.0
 11
25.404528
 21
21.79203
 31
0.0
  0
LINE
  5
1B7
100
AcDbEntity
  8
1
370
    15
390
0
  6
CL____X1
 62
     1
100
AcDbLine
 10
25.466026
 20
21.756523
 30
0.0
 11
25.466026
 21
21.589031
 31
0.0
  0
LINE
  5
1B8
100
AcDbEntity
  8
1
370
    15
390
0
  6
CL____X1
 62
     1
100
AcDbLine
 10
25.514026
 20
21.561317
 30
0.0
 11
25.466026
 21
21.589031
 31
0.0
  0
LINE
  5
1B9
100
AcDbEntity
  8
1
370
    15
390
0
  6
CL____X1
 62
     1
100
AcDbLine
 10
25.514026
 20
21.561317
 30
0.0
 11
25.514026
 21
20.339031
 31
0.0
  0
LINE
  5
1BA
100
AcDbEntity
  8
1
370
    15
390
0
  6
CL____X1
 62
     1
100
AcDbLine
 10
25.561027
 20
20.311893
 30
0.0
 11
25.514026
 21
20.339031
 31
0.0
  0
LINE
  5
1BB
100
AcDbEntity
  8
1
370
    15
390
0
  6
CL____X1
 62
     1
100
AcDbLine
 10
25.561027
 20
20.311893
 30
0.0
 11
25.561027
 21
20.026031
 31
0.0
  0
LINE
  5
1BC
100
AcDbEntity
  8
1
370
    15
390
0
  6
CL____X1
 62
     1
100
AcDbLine
 10
25.658027
 20
19.970028
 30
0.0
 11
25.561027
 21
20.026031
 31
0.0
  0
LINE
  5
1BD
100
AcDbEntity
  8
1
370
    15
390
0
  6
CL____X1
 62
     1
100
AcDbLine
 10
25.658027
 20
19.970028
 30
0.0
 11
25.658027
 21
19.511031
 31
0.0
  0
LINE
  5
1BE
100
AcDbEntity
  8
1
370
    15
390
0
  6
CL____X1
 62
     1
100
AcDbLine
 10
25.658027
 20
19.511031
 30
0.0
 11
26.158027
 21
19.511031
 31
0.0
  0
LINE
  5
1BF
100
AcDbEntity
  8
1
370
    15
390
0
  6
CL____X1
 62
     1
100
AcDbLine
 10
26.158027
 20
19.222356
 30
0.0
 11
25.658027
 21
19.511031
 31
0.0
  0
LINE
  5
1C0
100
AcDbEntity
  8
1
370
    15
390
0
  6
Continuous
 62
     7
100
AcDbLine
 10
25.361027
 20
22.635528
 30
0.0
 11
25.367447
 21
22.629108
 31
0.0
  0
LINE
  5
1C1
100
AcDbEntity
  8
1
370
    15
390
0
  6
Continuous
 62
     7
100
AcDbLine
 10
25.283027
 20
23.41703
 30
0.0
 11
25.283027
 21
23.966961
 31
0.0
  0
ARC
  5
1C2
100
AcDbEntity
  8
1
370
    15
390
0
  6
Continuous
 62
     7
100
AcDbCircle
 10
25.330017
 20
23.326186
 30
0.0
 40
0.03101
100
AcDbArc
 50
0.001105
 51
44.990634
  0
LINE
  5
1C3
100
AcDbEntity
  8
1
370
    15
390
0
  6
CL____X1
 62
     1
100
AcDbLine
 10
25.389026
 20
23.355995
 30
0.0
 11
25.311027
 21
23.401031
 31
0.0
  0
LINE
  5
1C4
100
AcDbEntity
  8
1
370
    15
390
0
  6
CL____X1
 62
     1
100
AcDbLine
 10
25.311027
 20
23.401031
 30
0.0
 11
25.311027
 21
23.966961
 31
0.0
  0
LINE
  5
1C5
100
AcDbEntity
  8
1
370
    15
390
0
  6
CL____X1
 62
     1
100
AcDbLine
 10
25.389026
 20
22.684498
 30
0.0
 11
25.389026
 21
23.355995
 31
0.0
  0
LINE
  5
1C6
100
AcDbEntity
  8
1
370
    15
390
0
  6
CL____X1
 62
     1
100
AcDbLine
 10
25.389026
 20
22.684498
 30
0.0
 11
25.404528
 21
22.675548
 31
0.0
  0
LINE
  5
1C7
100
AcDbEntity
  8
1
370
    15
390
0
  6
Continuous
 62
     7
100
AcDbLine
 10
25.351948
 20
23.34811
 30
0.0
 11
25.283027
 21
23.41703
 31
0.0
  0
LINE
  5
1C8
100
AcDbEntity
  8
1
370
    15
390
0
  6
Continuous
 62
     7
100
AcDbLine
 10
25.438526
 20
21.719917
 30
0.0
 11
25.438526
 21
21.557029
 31
0.0
  0
LINE
  5
1C9
100
AcDbEntity
  8
1
370
    15
390
0
  6
Continuous
 62
     7
100
AcDbLine
 10
25.424026
 20
21.745029
 30
0.0
 11
25.376528
 21
21.745029
 31
0.0
  0
LINE
  5
1CA
100
AcDbEntity
  8
1
370
    15
390
0
  6
Continuous
 62
     7
100
AcDbLine
 10
25.438526
 20
21.719917
 30
0.0
 11
25.424026
 21
21.745029
 31
0.0
  0
CIRCLE
  5
1CC
100
AcDbEntity
  8
1
370
    15
390
0
  6
DIVIDE
 62
     1
100
AcDbCircle
 10
25.412975
 20
21.731624
 30
0.0
 40
0.058907
  0
LINE
  5
1CD
100
AcDbEntity
  8
1
370
    15
390
0
  6
Continuous
 62
     1
100
AcDbLine
 10
27.199056
 20
23.20084
 30
0.0
 11
27.194717
 21
23.235534
 31
0.0
  0
LINE
  5
1CE
100
AcDbEntity
  8
1
370
    15
390
0
  6
Continuous
 62
     1
100
AcDbLine
 10
27.194717
 20
23.235534
 30
0.0
 11
27.194717
 21
23.287571
 31
0.0
  0
LINE
  5
1CF
100
AcDbEntity
  8
1
370
    15
390
0
  6
Continuous
 62
     1
100
AcDbLine
 10
27.194717
 20
23.287571
 30
0.0
 11
27.207731
 21
23.356956
 31
0.0
  0
LINE
  5
1D0
100
AcDbEntity
  8
1
370
    15
390
0
  6
Continuous
 62
     1
100
AcDbLine
 10
27.207731
 20
23.356956
 30
0.0
 11
27.212068
 21
23.38948
 31
0.0
  0
LINE
  5
1D1
100
AcDbEntity
  8
1
370
    15
390
0
  6
Continuous
 62
     1
100
AcDbLine
 10
27.212068
 20
23.38948
 30
0.0
 11
27.214239
 21
23.432846
 31
0.0
  0
LINE
  5
1D2
100
AcDbEntity
  8
1
370
    15
390
0
  6
Continuous
 62
     1
100
AcDbLine
 10
27.214239
 20
23.432846
 30
0.0
 11
27.214239
 21
23.489219
 31
0.0
  0
LINE
  5
1D3
100
AcDbEntity
  8
1
370
    15
390
0
  6
Continuous
 62
     1
100
AcDbLine
 10
27.214239
 20
23.489219
 30
0.0
 11
27.205562
 21
23.521743
 31
0.0
  0
LINE
  5
1D4
100
AcDbEntity
  8
1
370
    15
390
0
  6
Continuous
 62
     1
100
AcDbLine
 10
27.205562
 20
23.521743
 30
0.0
 11
27.196886
 21
23.569446
 31
0.0
  0
LINE
  5
1D5
100
AcDbEntity
  8
1
370
    15
390
0
  6
Continuous
 62
     1
100
AcDbLine
 10
27.196886
 20
23.569446
 30
0.0
 11
27.192549
 21
23.619316
 31
0.0
  0
LINE
  5
1D6
100
AcDbEntity
  8
1
370
    15
390
0
  6
Continuous
 62
     1
100
AcDbLine
 10
27.192549
 20
23.619316
 30
0.0
 11
27.192549
 21
23.660511
 31
0.0
  0
LINE
  5
1D7
100
AcDbEntity
  8
1
370
    15
390
0
  6
Continuous
 62
     1
100
AcDbLine
 10
27.192549
 20
23.660511
 30
0.0
 11
27.196886
 21
23.701709
 31
0.0
  0
LINE
  5
1D8
100
AcDbEntity
  8
1
370
    15
390
0
  6
Continuous
 62
     1
100
AcDbLine
 10
27.196886
 20
23.701709
 30
0.0
 11
27.201225
 21
23.73423
 31
0.0
  0
LINE
  5
1D9
100
AcDbEntity
  8
1
370
    15
390
0
  6
Continuous
 62
     1
100
AcDbLine
 10
27.201225
 20
23.73423
 30
0.0
 11
27.216408
 21
23.78627
 31
0.0
  0
LINE
  5
1DA
100
AcDbEntity
  8
1
370
    15
390
0
  6
Continuous
 62
     1
100
AcDbLine
 10
27.216408
 20
23.78627
 30
0.0
 11
27.229421
 21
23.829635
 31
0.0
  0
LINE
  5
1DB
100
AcDbEntity
  8
1
370
    15
390
0
  6
Continuous
 62
     1
100
AcDbLine
 10
27.229421
 20
23.829635
 30
0.0
 11
27.233759
 21
23.873001
 31
0.0
  0
LINE
  5
1DC
100
AcDbEntity
  8
1
370
    15
390
0
  6
Continuous
 62
     1
100
AcDbLine
 10
27.233759
 20
23.873001
 30
0.0
 11
27.242435
 21
23.916366
 31
0.0
  0
LINE
  5
1DD
100
AcDbEntity
  8
1
370
    15
390
0
  6
Continuous
 62
     1
100
AcDbLine
 10
27.242435
 20
23.916366
 30
0.0
 11
27.246773
 21
23.966236
 31
0.0
  0
LINE
  5
1DE
100
AcDbEntity
  8
1
370
    15
390
0
  6
Continuous
 62
     1
100
AcDbLine
 10
27.246773
 20
23.966236
 30
0.0
 11
27.240267
 21
24.037788
 31
0.0
  0
LINE
  5
1DF
100
AcDbEntity
  8
1
370
    15
390
0
  6
Continuous
 62
     1
100
AcDbLine
 10
27.199056
 20
23.20084
 30
0.0
 11
27.197128
 21
23.14973
 31
0.0
  0
LINE
  5
1E0
100
AcDbEntity
  8
1
370
    15
390
0
  6
Continuous
 62
     1
100
AcDbLine
 10
27.197128
 20
23.14973
 30
0.0
 11
27.184549
 21
23.083713
 31
0.0
  0
LINE
  5
1E1
100
AcDbEntity
  8
1
370
    15
390
0
  6
Continuous
 62
     1
100
AcDbLine
 10
27.240267
 20
24.037788
 30
0.0
 11
27.212852
 21
24.05196
 31
0.0
  0
LINE
  5
1E2
100
AcDbEntity
  8
1
370
    15
390
0
  6
Continuous
 62
     1
100
AcDbLine
 10
27.212852
 20
24.05196
 30
0.0
 11
27.175115
 21
24.04253
 31
0.0
  0
LINE
  5
1E3
100
AcDbEntity
  8
1
370
    15
390
0
  6
Continuous
 62
     1
100
AcDbLine
 10
27.182913
 20
23.057529
 30
0.0
 11
26.953028
 21
23.057529
 31
0.0
  0
LINE
  5
1E4
100
AcDbEntity
  8
1
370
    15
390
0
  6
Continuous
 62
     1
100
AcDbLine
 10
27.177358
 20
23.057529
 30
0.0
 11
27.183283
 21
23.063453
 31
0.0
  0
LINE
  5
1E5
100
AcDbEntity
  8
1
370
    15
390
0
  6
Continuous
 62
     1
100
AcDbLine
 10
27.088972
 20
23.057529
 30
0.0
 11
27.197754
 21
23.166313
 31
0.0
  0
LINE
  5
1E6
100
AcDbEntity
  8
1
370
    15
390
0
  6
Continuous
 62
     1
100
AcDbLine
 10
27.000582
 20
23.057529
 30
0.0
 11
27.194717
 21
23.251663
 31
0.0
  0
LINE
  5
1E7
100
AcDbEntity
  8
1
370
    15
390
0
  6
Continuous
 62
     1
100
AcDbLine
 10
26.953028
 20
23.098365
 30
0.0
 11
27.206833
 21
23.352169
 31
0.0
  0
LINE
  5
1E8
100
AcDbEntity
  8
4
370
    15
390
0
  6
Continuous
 62
     1
100
AcDbLine
 10
25.482529
 20
19.92303
 30
0.0
 11
22.73613
 21
19.92303
 31
0.0
  0
LINE
  5
1E9
100
AcDbEntity
  8
4
370
    15
390
0
  6
Continuous
 62
     1
100
AcDbLine
 10
25.388527
 20
21.557029
 30
0.0
 11
25.141544
 21
21.557029
 31
0.0
  0
LINE
  5
1EA
100
AcDbEntity
  8
3
370
    15
390
0
  6
Continuous
 62
     1
100
AcDbLine
 10
25.438526
 20
21.620792
 30
0.0
 11
25.037773
 21
21.620792
 31
0.0
  0
LINE
  5
1EB
100
AcDbEntity
  8
3
370
    15
390
0
  6
Continuous
 62
     1
100
AcDbLine
 10
25.532528
 20
20.120552
 30
0.0
 11
24.857622
 21
20.120552
 31
0.0
  0
LINE
  5
1EC
100
AcDbEntity
  8
3
370
    15
390
0
  6
Continuous
 62
     1
100
AcDbLine
 10
24.564293
 20
20.120552
 30
0.0
 11
23.957926
 21
20.120552
 31
0.0
  0
LINE
  5
1ED
100
AcDbEntity
  8
1
370
    15
390
0
  6
Continuous
 62
     7
100
AcDbLine
 10
25.361027
 20
23.326187
 30
0.0
 11
25.361027
 21
22.635528
 31
0.0
  0
LINE
  5
1EE
100
AcDbEntity
  8
3
370
    15
390
0
  6
Continuous
 62
     1
100
AcDbLine
 10
27.557333
 20
20.745029
 30
0.0
 11
26.999306
 21
20.745029
 31
0.0
  0
LINE
  5
1EF
100
AcDbEntity
  8
3
370
    15
390
0
  6
Continuous
 62
     1
100
AcDbLine
 10
27.557333
 20
22.026031
 30
0.0
 11
27.082876
 21
22.026031
 31
0.0
  0
LINE
  5
1F0
100
AcDbEntity
  8
3
370
    15
390
0
  6
Continuous
 62
     1
100
AcDbLine
 10
27.557333
 20
22.870029
 30
0.0
 11
27.100868
 21
22.870029
 31
0.0
  0
LINE
  5
1F1
100
AcDbEntity
  8
3
370
    15
390
0
  6
Continuous
 62
     1
100
AcDbLine
 10
27.031029
 20
23.751545
 30
0.0
 11
27.525215
 21
23.751545
 31
0.0
  0
LINE
  5
1F2
100
AcDbEntity
  8
3
370
    15
390
0
  6
Continuous
 62
     1
100
AcDbLine
 10
25.608028
 20
19.511031
 30
0.0
 11
22.73613
 21
19.511031
 31
0.0
  0
LINE
  5
1F3
100
AcDbEntity
  8
3
370
    15
390
0
  6
Continuous
 62
     1
100
AcDbLine
 10
25.646358
 20
21.505729
 30
0.0
 11
25.646358
 21
21.745029
 31
0.0
  0
LINE
  5
1F4
100
AcDbEntity
  8
3
370
    15
390
0
  6
Continuous
 62
     1
100
AcDbLine
 10
25.474026
 20
21.745029
 30
0.0
 11
25.983637
 21
21.745029
 31
0.0
  0
LINE
  5
1F5
100
AcDbEntity
  8
3
370
    15
390
0
  6
Continuous
 62
     1
100
AcDbLine
 10
25.454527
 20
21.79203
 30
0.0
 11
25.814997
 21
21.79203
 31
0.0
  0
ARC
  5
1F6
100
AcDbEntity
  8
3
370
    15
390
0
  6
Continuous
 62
     1
100
AcDbCircle
 10
25.215246
 20
23.557767
 30
0.0
 40
0.354758
100
AcDbArc
 50
42.551113
 51
78.985075
  0
LINE
  5
1F7
100
AcDbEntity
  8
3
370
    15
390
0
  6
Continuous
 62
     1
100
AcDbLine
 10
25.532528
 20
19.92303
 30
0.0
 11
25.360329
 21
19.716908
 31
0.0
  0
LINE
  5
1F8
100
AcDbEntity
  8
1
370
    15
390
0
  6
Continuous
 62
     7
100
AcDbLine
 10
24.88553
 20
23.814529
 30
0.0
 11
25.256126
 21
23.443931
 31
0.0
  0
LINE
  5
1F9
100
AcDbEntity
  8
1
370
    15
390
0
  6
Continuous
 62
     1
100
AcDbLine
 10
25.438526
 20
21.719917
 30
0.0
 11
25.619709
 21
21.719917
 31
0.0
  0
LINE
  5
1FA
100
AcDbEntity
  8
1
370
    15
390
0
  6
Continuous
 62
     1
100
AcDbLine
 10
25.532528
 20
20.247188
 30
0.0
 11
25.619709
 21
20.247188
 31
0.0
  0
LINE
  5
1FB
100
AcDbEntity
  8
1
370
    15
390
0
  6
Continuous
 62
     1
100
AcDbLine
 10
25.485527
 20
20.307029
 30
0.0
 11
25.619709
 21
20.307029
 31
0.0
  0
LINE
  5
1FC
100
AcDbEntity
  8
1
370
    15
390
0
  6
Continuous
 62
     1
100
AcDbLine
 10
25.449428
 20
21.057029
 30
0.0
 11
25.619709
 21
21.057029
 31
0.0
  0
LINE
  5
1FD
100
AcDbEntity
  8
1
370
    15
390
0
  6
Continuous
 62
     1
100
AcDbLine
 10
25.485527
 20
21.510029
 30
0.0
 11
25.619709
 21
21.510029
 31
0.0
  0
LINE
  5
1FE
100
AcDbEntity
  8
1
370
    15
390
0
  6
Continuous
 62
     1
100
AcDbLine
 10
25.438526
 20
21.557029
 30
0.0
 11
25.619709
 21
21.557029
 31
0.0
  0
LINE
  5
1FF
100
AcDbEntity
  8
1
370
    15
390
0
  6
Continuous
 62
     1
100
AcDbLine
 10
25.361027
 20
22.635528
 30
0.0
 11
25.494602
 21
22.635528
 31
0.0
  0
LINE
  5
200
100
AcDbEntity
  8
1
370
    15
390
0
  6
Continuous
 62
     1
100
AcDbLine
 10
25.376528
 20
22.607189
 30
0.0
 11
25.494602
 21
22.607189
 31
0.0
  0
LINE
  5
201
100
AcDbEntity
  8
1
370
    15
390
0
  6
Continuous
 62
     1
100
AcDbLine
 10
25.283027
 20
23.41703
 30
0.0
 11
25.494602
 21
23.41703
 31
0.0
  0
LINE
  5
202
100
AcDbEntity
  8
1
370
    15
390
0
  6
Continuous
 62
     1
100
AcDbLine
 10
25.361027
 20
23.326187
 30
0.0
 11
25.494602
 21
23.326187
 31
0.0
  0
TEXT
  5
204
100
AcDbEntity
  8
0
370
    15
390
0
  6
Continuous
 62
     7
100
AcDbText
 10
20.63324
 20
23.4869
 30
0.0
 40
0.065844
  1
LET
 50
270.0
  7
Vcadd_SIMP
100
AcDbText
  0
TEXT
  5
205
100
AcDbEntity
  8
0
370
    15
390
0
  6
Continuous
 62
     7
100
AcDbText
 10
20.633261
 20
22.379619
 30
0.0
 40
0.065844
  1
REVISION 
 50
270.0
  7
Vcadd_SIMP
100
AcDbText
  0
TEXT
  5
206
100
AcDbEntity
  8
0
370
    15
390
0
  6
Continuous
 62
     7
100
AcDbText
 10
20.631231
 20
20.77845
 30
0.0
 40
0.065844
  1
DATE 
 50
270.0
  7
Vcadd_SIMP
100
AcDbText
  0
TEXT
  5
207
100
AcDbEntity
  8
0
370
    15
390
0
  6
Continuous
 62
     7
100
AcDbText
 10
20.631399
 20
20.364429
 30
0.0
 40
0.065844
  1
DRN 
 50
270.0
  7
Vcadd_SIMP
100
AcDbText
  0
TEXT
  5
208
100
AcDbEntity
  8
0
370
    15
390
0
  6
Continuous
 62
     7
100
AcDbText
 10
20.631067
 20
20.116958
 30
0.0
 40
0.065844
  1
CHK 
 50
270.0
  7
Vcadd_SIMP
100
AcDbText
  0
TEXT
  5
209
100
AcDbEntity
  8
0
370
    15
390
0
  6
Continuous
 62
     7
100
AcDbText
 10
20.631399
 20
19.867931
 30
0.0
 40
0.065844
  1
REL
 50
270.0
  7
Vcadd_SIMP
100
AcDbText
  0
TEXT
  5
20A
100
AcDbEntity
  8
0
370
    15
390
0
  6
Continuous
 62
     7
100
AcDbText
 10
21.855343
 20
19.330953
 30
0.0
 40
0.062
  1
UNLESS
 50
270.0
  7
Vcadd_SIMP
100
AcDbText
  0
TEXT
  5
20B
100
AcDbEntity
  8
0
370
    15
390
0
  6
Continuous
 62
     7
100
AcDbText
 10
21.751587
 20
19.421379
 30
0.0
 40
0.062
  1
OTHERWISE
 50
270.0
  7
Vcadd_SIMP
100
AcDbText
  0
TEXT
  5
20C
100
AcDbEntity
  8
0
370
    15
390
0
  6
Continuous
 62
     7
100
AcDbText
 10
21.639524
 20
19.419227
 30
0.0
 40
0.062
  1
SPECIFIED
 50
270.0
  7
Vcadd_SIMP
100
AcDbText
  0
TEXT
  5
20D
100
AcDbEntity
  8
0
370
    15
390
0
  6
Continuous
 62
     7
100
AcDbText
 10
21.842504
 20
18.609733
 30
0.0
 40
0.062
  1
TITLE
 50
270.0
  7
Vcadd_SIMP
100
AcDbText
  0
TEXT
  5
20E
100
AcDbEntity
  8
0
370
    15
390
0
  6
Continuous
 62
     7
100
AcDbText
 10
21.842535
 20
15.608543
 30
0.0
 40
0.062
  1
REVISION
 50
270.0
  7
Vcadd_SIMP
100
AcDbText
  0
TEXT
  5
20F
100
AcDbEntity
  8
0
370
    15
390
0
  6
Continuous
 62
     7
100
AcDbText
 10
21.422396
 20
18.61825
 30
0.0
 40
0.062
  1
SCALE
 50
270.0
  7
Vcadd_SIMP
100
AcDbText
  0
TEXT
  5
210
100
AcDbEntity
  8
0
370
    15
390
0
  6
Continuous
 62
     7
100
AcDbText
 10
21.422396
 20
18.61825
 30
0.0
 40
0.062
  1
      REF.                
 50
270.0
  7
Vcadd_SIMP
100
AcDbText
  0
TEXT
  5
211
100
AcDbEntity
  8
0
370
    15
390
0
  6
Continuous
 62
     7
100
AcDbText
 10
21.422396
 20
16.98447
 30
0.0
 40
0.062
  1
MATERIAL
 50
270.0
  7
Vcadd_SIMP
100
AcDbText
  0
TEXT
  5
212
100
AcDbEntity
  8
0
370
    15
390
0
  6
Continuous
 62
     7
100
AcDbText
 10
21.05504
 20
18.613184
 30
0.0
 40
0.062
  1
DRAWN    
 50
270.0
  7
Vcadd_SIMP
100
AcDbText
  0
TEXT
  5
213
100
AcDbEntity
  8
0
370
    15
390
0
  6
Continuous
 62
     7
100
AcDbText
 10
21.05504
 20
18.077495
 30
0.0
 40
0.062
  1
CHECK 
 50
270.0
  7
Vcadd_SIMP
100
AcDbText
  0
TEXT
  5
214
100
AcDbEntity
  8
0
370
    15
390
0
  6
Continuous
 62
     7
100
AcDbText
 10
21.05504
 20
17.536741
 30
0.0
 40
0.062
  1
RELEASE
 50
270.0
  7
Vcadd_SIMP
100
AcDbText
  0
TEXT
  5
215
100
AcDbEntity
  8
0
370
    15
390
0
  6
Continuous
 62
     7
100
AcDbText
 10
20.765821
 20
18.607151
 30
0.0
 40
0.062
  1
DATE     
 50
270.0
  7
Vcadd_SIMP
100
AcDbText
  0
TEXT
  5
216
100
AcDbEntity
  8
0
370
    15
390
0
  6
Continuous
 62
     7
100
AcDbText
 10
20.765821
 20
18.071464
 30
0.0
 40
0.062
  1
DATE  
 50
270.0
  7
Vcadd_SIMP
100
AcDbText
  0
TEXT
  5
217
100
AcDbEntity
  8
0
370
    15
390
0
  6
Continuous
 62
     7
100
AcDbText
 10
20.765821
 20
17.530708
 30
0.0
 40
0.062
  1
DATE
 50
270.0
  7
Vcadd_SIMP
100
AcDbText
  0
TEXT
  5
218
100
AcDbEntity
  8
0
370
    15
390
0
  6
Continuous
 62
     7
100
AcDbText
 10
21.05504
 20
16.987734
 30
0.0
 40
0.062
  1
HEAT TREAT & FINISH
 50
270.0
  7
Vcadd_SIMP
100
AcDbText
  0
TEXT
  5
219
100
AcDbEntity
  8
0
370
    15
390
0
  6
Continuous
 62
     7
100
AcDbText
 10
21.842535
 20
15.422542
 30
0.0
 40
0.062
  1
      PART NO.
 50
270.0
  7
Vcadd_SIMP
100
AcDbText
  0
TEXT
  5
21A
100
AcDbEntity
  8
0
370
    15
390
0
  6
Continuous
 62
     7
100
AcDbText
 10
30.471582
 20
15.620998
 30
0.0
 40
0.062
  1
REVISION PART NO.
 50
270.0
  7
Vcadd_SIMP
100
AcDbText
  0
TEXT
  5
21B
100
AcDbEntity
  8
0
370
    15
390
0
  6
Continuous
 62
     7
100
AcDbText
 10
20.912817
 20
18.319454
 30
0.0
 40
0.094
  1
S
 50
270.0
  7
Vcadd_SIMP
100
AcDbText
  0
TEXT
  5
21C
100
AcDbEntity
  8
0
370
    15
390
0
  6
Continuous
 62
     7
100
AcDbText
 10
20.635172
 20
18.559831
 30
0.0
 40
0.062
  1
2-2-87 
 50
270.0
  7
Vcadd_SIMP
100
AcDbText
  0
TEXT
  5
21D
100
AcDbEntity
  8
0
370
    15
390
0
  6
Continuous
 62
     7
100
AcDbText
 10
20.912817
 20
18.507454
 30
0.0
 40
0.094
  1
DA
 50
270.0
  7
Vcadd_SIMP
100
AcDbText
  0
LINE
  5
21E
100
AcDbEntity
  8
4
370
    15
390
0
  6
Continuous
 62
     7
100
AcDbLine
 10
25.637296
 20
16.179541
 30
0.0
 11
26.004761
 21
16.179541
 31
0.0
  0
LINE
  5
21F
100
AcDbEntity
  8
4
370
    15
390
0
  6
Continuous
 62
     7
100
AcDbLine
 10
26.004761
 20
16.179541
 30
0.0
 11
26.004761
 21
16.511129
 31
0.0
  0
LINE
  5
220
100
AcDbEntity
  8
4
370
    15
390
0
  6
Continuous
 62
     7
100
AcDbLine
 10
26.004761
 20
16.511129
 30
0.0
 11
25.637296
 21
16.511129
 31
0.0
  0
LINE
  5
221
100
AcDbEntity
  8
4
370
    15
390
0
  6
Continuous
 62
     7
100
AcDbLine
 10
25.637296
 20
16.511129
 30
0.0
 11
25.637296
 21
16.179541
 31
0.0
  0
CIRCLE
  5
222
100
AcDbEntity
  8
4
370
    15
390
0
  6
Continuous
 62
     7
100
AcDbCircle
 10
25.821028
 20
16.345335
 30
0.0
 40
0.129336
  0
CIRCLE
  5
223
100
AcDbEntity
  8
4
370
    15
390
0
  6
Continuous
 62
     7
100
AcDbCircle
 10
25.821028
 20
16.345335
 30
0.0
 40
0.057001
  0
HATCH
  5
224
100
AcDbEntity
  8
4
370
     0
390
0
  6
Continuous
 62
     7
100
AcDbHatch
 10
0.0
 20
0.0
 30
0.0
210
0.0
220
0.0
230
1.0
  2
SOLID
 70
     1
 71
     0
 91
        1
 92
        1
 93
        1
 72
     2
 10
25.821028417121095
 20
16.345335034035273
 40
0.0570005946738661
 50
0.0
 51
359.999994
 73
     1
 97
        0
 75
     0
 76
     1
 98
        1
 10
0.0
 20
0.0
  0
LINE
  5
225
100
AcDbEntity
  8
4
370
    15
390
0
  6
Continuous
 62
     7
100
AcDbLine
 10
26.004761
 20
16.511129
 30
0.0
 11
26.988348
 21
16.511129
 31
0.0
  0
LINE
  5
226
100
AcDbEntity
  8
4
370
    15
390
0
  6
Continuous
 62
     7
100
AcDbLine
 10
26.004761
 20
16.179541
 30
0.0
 11
26.988348
 21
16.179541
 31
0.0
  0
LINE
  5
227
100
AcDbEntity
  8
4
370
    15
390
0
  6
Continuous
 62
     7
100
AcDbLine
 10
26.988348
 20
16.511129
 30
0.0
 11
26.988348
 21
16.179541
 31
0.0
  0
LINE
  5
228
100
AcDbEntity
  8
4
370
    15
390
0
  6
Continuous
 62
     7
100
AcDbLine
 10
26.988348
 20
16.179541
 30
0.0
 11
27.355813
 21
16.179541
 31
0.0
  0
LINE
  5
229
100
AcDbEntity
  8
4
370
    15
390
0
  6
Continuous
 62
     7
100
AcDbLine
 10
27.355813
 20
16.179541
 30
0.0
 11
27.355813
 21
16.511129
 31
0.0
  0
LINE
  5
22A
100
AcDbEntity
  8
4
370
    15
390
0
  6
Continuous
 62
     7
100
AcDbLine
 10
27.355813
 20
16.511129
 30
0.0
 11
26.988348
 21
16.511129
 31
0.0
  0
TEXT
  5
22B
100
AcDbEntity
  8
4
370
    15
390
0
  6
Continuous
 62
     7
100
AcDbText
 10
27.034958
 20
16.217746
 30
0.0
 40
0.24
  1
A
  7
Vcadd_SIMP
 72
     1
 11
27.172958
 21
16.217746
 31
0.0
100
AcDbText
  0
LINE
  5
22C
100
AcDbEntity
  8
1
370
    15
390
0
  6
Continuous
 62
     1
100
AcDbLine
 10
27.146814
 20
22.225494
 30
0.0
 11
27.147346
 21
22.217522
 31
0.0
  0
LINE
  5
22D
100
AcDbEntity
  8
1
370
    15
390
0
  6
Continuous
 62
     1
100
AcDbLine
 10
27.124651
 20
22.039266
 30
0.0
 11
27.121656
 21
22.024299
 31
0.0
  0
LINE
  5
22E
100
AcDbEntity
  8
1
370
    15
390
0
  6
Continuous
 62
     1
100
AcDbLine
 10
27.180038
 20
22.863521
 30
0.0
 11
27.178261
 21
22.851082
 31
0.0
  0
LINE
  5
22F
100
AcDbEntity
  8
1
370
    15
390
0
  6
Continuous
 62
     1
100
AcDbLine
 10
27.184549
 20
23.083713
 30
0.0
 11
27.182638
 21
23.053123
 31
0.0
  0
LINE
  5
230
100
AcDbEntity
  8
1
370
    15
390
0
  6
Continuous
 62
     1
100
AcDbLine
 10
27.109266
 20
21.152359
 30
0.0
 11
27.109536
 21
21.149659
 31
0.0
  0
LINE
  5
231
100
AcDbEntity
  8
1
370
    15
390
0
  6
Continuous
 62
     1
100
AcDbLine
 10
27.091757
 20
20.928019
 30
0.0
 11
27.089443
 21
20.917034
 31
0.0
  0
TEXT
  5
232
100
AcDbEntity
  8
4
370
    15
390
0
  6
Continuous
 62
     7
100
AcDbText
 10
28.294216
 20
23.680244
 30
0.0
 40
0.16275
  1
O
  7
Vcadd_SIMP
100
AcDbText
  0
LINE
  5
233
100
AcDbEntity
  8
4
370
    15
390
0
  6
Continuous
 62
     7
100
AcDbLine
 10
28.318522
 20
23.665081
 30
0.0
 11
28.39855
 21
23.833416
 31
0.0
  0
LINE
  5
234
100
AcDbEntity
  8
3
370
    15
390
0
  6
Continuous
 62
     1
100
AcDbLine
 10
27.644663
 20
20.745029
 30
0.0
 11
29.751383
 21
20.745029
 31
0.0
  0
TEXT
  5
235
100
AcDbEntity
  8
0
370
    15
390
0
  6
Continuous
 62
     7
100
AcDbText
 10
21.223402
 20
18.596836
 30
0.0
 40
0.094
  1
1:1
 50
270.0
  7
Vcadd_SIMP
100
AcDbText
  0
TEXT
  5
236
100
AcDbEntity
  8
4
370
    15
390
0
  6
Continuous
 62
     7
100
AcDbText
 10
28.17234
 20
23.866392
 30
0.0
 40
0.142
  1
*
  7
Vcadd_SIMP
100
AcDbText
  0
LINE
  5
237
100
AcDbEntity
  8
3
370
    15
390
0
  6
Continuous
 62
     1
100
AcDbLine
 10
26.825598
 20
19.92303
 30
0.0
 11
28.482599
 21
19.92303
 31
0.0
  0
LINE
  5
238
100
AcDbEntity
  8
4
370
    15
390
0
  6
Continuous
 62
     1
100
AcDbLine
 10
28.332578
 20
19.37555
 30
0.0
 11
28.085864
 21
19.37555
 31
0.0
  0
LINE
  5
239
100
AcDbEntity
  8
3
370
    15
390
0
  6
Continuous
 62
     1
100
AcDbLine
 10
26.673151
 20
19.525031
 30
0.0
 11
28.177888
 21
19.525031
 31
0.0
  0
LINE
  5
23A
100
AcDbEntity
  8
4
370
    15
390
0
  6
Continuous
 62
     1
100
AcDbLine
 10
28.085864
 20
19.37555
 30
0.0
 11
28.177888
 21
19.525031
 31
0.0
  0
LINE
  5
23B
100
AcDbEntity
  8
3
370
    15
390
0
  6
Continuous
 62
     1
100
AcDbLine
 10
25.658027
 20
18.769302
 30
0.0
 11
26.656029
 21
18.769302
 31
0.0
  0
LINE
  5
23C
100
AcDbEntity
  8
4
370
    15
390
0
  6
Continuous
 62
     7
100
AcDbLine
 10
26.472669
 20
18.8102
 30
0.0
 11
26.552698
 21
18.978535
 31
0.0
  0
TEXT
  5
23D
100
AcDbEntity
  8
4
370
    15
390
0
  6
Continuous
 62
     7
100
AcDbText
 10
26.446957
 20
18.825365
 30
0.0
 40
0.16275
  1
O
  7
Vcadd_SIMP
100
AcDbText
  0
LINE
  5
23E
100
AcDbEntity
  8
3
370
    15
390
0
  6
Continuous
 62
     1
100
AcDbLine
 10
26.656029
 20
19.275598
 30
0.0
 11
26.656029
 21
18.635407
 31
0.0
  0
LINE
  5
23F
100
AcDbEntity
  8
3
370
    15
390
0
  6
Continuous
 62
     1
100
AcDbLine
 10
25.658027
 20
19.461031
 30
0.0
 11
25.658027
 21
18.635407
 31
0.0
  0
LINE
  5
240
100
AcDbEntity
  8
3
370
    15
390
0
  6
Continuous
 62
     1
100
AcDbLine
 10
27.644663
 20
22.870029
 30
0.0
 11
29.067606
 21
22.870029
 31
0.0
  0
LINE
  5
241
100
AcDbEntity
  8
3
370
    15
390
0
  6
Continuous
 62
     1
100
AcDbLine
 10
28.986346
 20
22.685288
 30
0.0
 11
29.751383
 21
22.685288
 31
0.0
  0
LINE
  5
242
100
AcDbEntity
  8
4
370
    15
390
0
  6
Continuous
 62
     1
100
AcDbLine
 10
29.067606
 20
22.870029
 30
0.0
 11
28.986346
 21
22.685288
 31
0.0
  0
TEXT
  5
243
100
AcDbEntity
  8
4
370
    15
390
0
  6
Continuous
 62
     7
100
AcDbText
 10
22.767815
 20
21.789043
 30
0.0
 40
0.142
  1
L.S.
  7
Vcadd_SIMP
100
AcDbText
  0
TEXT
  5
244
100
AcDbEntity
  8
4
370
    15
390
0
  6
Continuous
 62
     7
100
AcDbText
 10
24.952155
 20
23.971943
 30
0.0
 40
0.142
  1
45^  
  7
Vcadd_SIMP
100
AcDbText
  0
TEXT
  5
245
100
AcDbEntity
  8
4
370
    15
390
0
  6
Continuous
 62
     7
100
AcDbText
 10
24.952155
 20
23.758943
 30
0.0
 40
0.142
  1
**
  7
Vcadd_SIMP
100
AcDbText
  0
LINE
  5
246
100
AcDbEntity
  8
3
370
    15
390
0
  6
Continuous
 62
     1
100
AcDbLine
 10
25.376528
 20
22.02602
 30
0.0
 11
24.844063
 21
22.02602
 31
0.0
  0
LINE
  5
247
100
AcDbEntity
  8
0
370
    15
390
0
  6
Continuous
 62
     1
100
AcDbLine
 10
25.009905
 20
22.183891
 30
0.0
 11
24.919172
 21
22.02602
 31
0.0
  0
LINE
  5
248
100
AcDbEntity
  8
0
370
    15
390
0
  6
Continuous
 62
     1
100
AcDbLine
 10
24.94747
 20
22.183891
 30
0.0
 11
25.009905
 21
22.183891
 31
0.0
  0
LINE
  5
249
100
AcDbEntity
  8
0
370
    15
390
0
  6
Continuous
 62
     1
100
AcDbLine
 10
24.919182
 20
22.026031
 30
0.0
 11
24.881452
 21
22.091385
 31
0.0
  0
LINE
  5
24A
100
AcDbEntity
  8
4
370
    15
390
0
  6
Continuous
 62
     7
100
AcDbLine
 10
24.697315
 20
21.943733
 30
0.0
 11
24.777343
 21
22.112068
 31
0.0
  0
TEXT
  5
24B
100
AcDbEntity
  8
4
370
    15
390
0
  6
Continuous
 62
     7
100
AcDbText
 10
24.668359
 20
21.9589
 30
0.0
 40
0.16275
  1
O
  7
Vcadd_SIMP
100
AcDbText
  0
LINE
  5
24C
100
AcDbEntity
  8
3
370
    15
390
0
  6
Continuous
 62
     1
100
AcDbLine
 10
24.601575
 20
22.02602
 30
0.0
 11
23.957926
 21
22.02602
 31
0.0
  0
LINE
  5
24D
100
AcDbEntity
  8
4
370
    15
390
0
  6
Continuous
 62
     1
100
AcDbLine
 10
25.399429
 20
21.057029
 30
0.0
 11
22.732808
 21
21.057029
 31
0.0
  0
LINE
  5
24E
100
AcDbEntity
  8
4
370
    15
390
0
  6
Continuous
 62
     7
100
AcDbLine
 10
24.698116
 20
20.038267
 30
0.0
 11
24.778144
 21
20.206602
 31
0.0
  0
TEXT
  5
24F
100
AcDbEntity
  8
4
370
    15
390
0
  6
Continuous
 62
     7
100
AcDbText
 10
24.671852
 20
20.053432
 30
0.0
 40
0.16275
  1
O
  7
Vcadd_SIMP
100
AcDbText
  0
LINE
  5
250
100
AcDbEntity
  8
0
370
    15
390
0
  6
Continuous
 62
     1
100
AcDbLine
 10
25.009905
 20
20.278423
 30
0.0
 11
24.919172
 21
20.120552
 31
0.0
  0
LINE
  5
251
100
AcDbEntity
  8
0
370
    15
390
0
  6
Continuous
 62
     1
100
AcDbLine
 10
24.94747
 20
20.278423
 30
0.0
 11
25.009905
 21
20.278423
 31
0.0
  0
LINE
  5
252
100
AcDbEntity
  8
0
370
    15
390
0
  6
Continuous
 62
     1
100
AcDbLine
 10
24.919182
 20
20.120563
 30
0.0
 11
24.881452
 21
20.185917
 31
0.0
  0
LINE
  5
253
100
AcDbEntity
  8
4
370
    15
390
0
  6
Continuous
 62
     1
100
AcDbLine
 10
25.055442
 20
20.307029
 30
0.0
 11
25.435528
 21
20.307029
 31
0.0
  0
ARC
  5
254
100
AcDbEntity
  8
3
370
    15
390
0
  6
Continuous
 62
     1
100
AcDbCircle
 10
25.215211
 20
23.557764
 30
0.0
 40
0.354746
100
AcDbArc
 50
143.357306
 51
180.608398
  0
LINE
  5
255
100
AcDbEntity
  8
3
370
    15
390
0
  6
Continuous
 62
     1
100
AcDbLine
 10
25.361027
 20
22.848319
 30
0.0
 11
24.844063
 21
22.848319
 31
0.0
  0
LINE
  5
256
100
AcDbEntity
  8
0
370
    15
390
0
  6
Continuous
 62
     1
100
AcDbLine
 10
25.009905
 20
23.00619
 30
0.0
 11
24.919172
 21
22.848319
 31
0.0
  0
LINE
  5
257
100
AcDbEntity
  8
0
370
    15
390
0
  6
Continuous
 62
     1
100
AcDbLine
 10
24.94747
 20
23.00619
 30
0.0
 11
25.009905
 21
23.00619
 31
0.0
  0
LINE
  5
258
100
AcDbEntity
  8
0
370
    15
390
0
  6
Continuous
 62
     1
100
AcDbLine
 10
24.919182
 20
22.848331
 30
0.0
 11
24.881452
 21
22.913684
 31
0.0
  0
LINE
  5
259
100
AcDbEntity
  8
4
370
    15
390
0
  6
Continuous
 62
     7
100
AcDbLine
 10
24.697315
 20
22.766036
 30
0.0
 11
24.777343
 21
22.934371
 31
0.0
  0
TEXT
  5
25A
100
AcDbEntity
  8
4
370
    15
390
0
  6
Continuous
 62
     7
100
AcDbText
 10
24.668359
 20
22.7812
 30
0.0
 40
0.16275
  1
O
  7
Vcadd_SIMP
100
AcDbText
  0
LINE
  5
25B
100
AcDbEntity
  8
3
370
    15
390
0
  6
Continuous
 62
     1
100
AcDbLine
 10
24.601575
 20
22.848319
 30
0.0
 11
23.957926
 21
22.848319
 31
0.0
  0
LINE
  5
25C
100
AcDbEntity
  8
3
370
    15
390
0
  6
Continuous
 62
     1
100
AcDbLine
 10
25.103433
 20
22.427742
 30
0.0
 11
24.925275
 21
22.427742
 31
0.0
  0
LINE
  5
25D
100
AcDbEntity
  8
3
370
    15
390
0
  6
Continuous
 62
     1
100
AcDbLine
 10
25.370399
 20
22.625297
 30
0.0
 11
25.103433
 21
22.427742
 31
0.0
  0
LINE
  5
25E
100
AcDbEntity
  8
3
370
    15
390
0
  6
Continuous
 62
     1
100
AcDbLine
 10
25.142861
 20
23.168869
 30
0.0
 11
24.916194
 21
23.168869
 31
0.0
  0
LINE
  5
25F
100
AcDbEntity
  8
3
370
    15
390
0
  6
Continuous
 62
     1
100
AcDbLine
 10
25.361319
 20
23.330528
 30
0.0
 11
25.142861
 21
23.168869
 31
0.0
  0
LINE
  5
260
100
AcDbEntity
  8
4
370
    15
390
0
  6
Continuous
 62
     1
100
AcDbLine
 10
22.768768
 20
23.092455
 30
0.0
 11
23.886073
 21
23.092455
 31
0.0
  0
LINE
  5
261
100
AcDbEntity
  8
1
370
    15
390
0
  6
Continuous
 62
     7
100
AcDbLine
 10
22.411004
 20
22.339188
 30
0.0
 11
22.546209
 21
22.339188
 31
0.0
  0
LINE
  5
262
100
AcDbEntity
  8
1
370
    15
390
0
  6
Continuous
 62
     7
100
AcDbLine
 10
22.660604
 20
22.141041
 30
0.0
 11
22.546209
 21
22.339188
 31
0.0
  0
CIRCLE
  5
263
100
AcDbEntity
  8
1
370
    15
390
0
  6
Continuous
 62
     1
100
AcDbCircle
 10
22.540246
 20
22.278424
 30
0.0
 40
0.276708
  0
LINE
  5
264
100
AcDbEntity
  8
1
370
    15
390
0
  6
Continuous
 62
     7
100
AcDbLine
 10
22.411004
 20
22.339188
 30
0.0
 11
22.411004
 21
22.52517
 31
0.0
  0
LINE
  5
265
100
AcDbEntity
  8
1
370
    15
390
0
  6
Continuous
 62
     7
100
AcDbLine
 10
22.660604
 20
22.029259
 30
0.0
 11
22.660604
 21
22.141041
 31
0.0
  0
LINE
  5
266
100
AcDbEntity
  8
1
370
    15
390
0
  6
Continuous
 62
     1
100
AcDbLine
 10
22.546209
 20
22.374176
 30
0.0
 11
22.546209
 21
22.897507
 31
0.0
  0
LINE
  5
267
100
AcDbEntity
  8
1
370
    15
390
0
  6
Continuous
 62
     1
100
AcDbLine
 10
22.265134
 20
22.826023
 30
0.0
 11
22.529058
 21
22.368893
 31
0.0
  0
INSERT
  5
275
100
AcDbEntity
  8
3
370
    60
390
0
  6
Continuous
 62
     1
100
AcDbBlockReference
  2
MAU
 10
22.546209
 20
22.812184
 30
0.0
 42
-1.0
 50
270.0
  0
LINE
  5
276
100
AcDbEntity
  8
3
370
    15
390
0
  6
Continuous
 62
     1
100
AcDbLine
 10
22.79889
 20
22.812184
 30
0.0
 11
22.546209
 21
22.812184
 31
0.0
  0
INSERT
  5
284
100
AcDbEntity
  8
3
370
    70
390
0
  6
Continuous
 62
     1
100
AcDbBlockReference
  2
MAL
 10
22.310209
 20
22.747952
 30
0.0
 42
-1.0
 50
205.0
  0
LINE
  5
285
100
AcDbEntity
  8
3
370
    15
390
0
  6
Continuous
 62
     1
100
AcDbLine
 10
22.096639
 20
22.637463
 30
0.0
 11
22.310209
 21
22.747952
 31
0.0
  0
INSERT
  5
286
100
AcDbEntity
  8
3
370
    60
390
0
  6
Continuous
 62
     1
100
AcDbBlockReference
  2
MAU
 10
22.546209
 20
22.453812
 30
0.0
 42
-1.0
 50
270.0
  0
LINE
  5
287
100
AcDbEntity
  8
3
370
    15
390
0
  6
Continuous
 62
     1
100
AcDbLine
 10
22.960534
 20
22.453812
 30
0.0
 11
22.546209
 21
22.453812
 31
0.0
  0
LINE
  5
288
100
AcDbEntity
  8
4
370
    15
390
0
  6
Continuous
 62
     7
100
AcDbLine
 10
23.648259
 20
22.374104
 30
0.0
 11
23.728288
 21
22.542439
 31
0.0
  0
TEXT
  5
289
100
AcDbEntity
  8
4
370
    15
390
0
  6
Continuous
 62
     7
100
AcDbText
 10
23.608625
 20
22.389271
 30
0.0
 40
0.16275
  1
O
  7
Vcadd_SIMP
100
AcDbText
  0
TEXT
  5
28A
100
AcDbEntity
  8
4
370
    15
390
0
  6
Continuous
 62
     7
100
AcDbText
 10
22.844037
 20
22.74345
 30
0.0
 40
0.142
  1
30^ **
  7
Vcadd_SIMP
100
AcDbText
  0
LINE
  5
28B
100
AcDbEntity
  8
3
370
    15
390
0
  6
Continuous
 62
     1
100
AcDbLine
 10
23.552432
 20
22.453812
 30
0.0
 11
22.960534
 21
22.453812
 31
0.0
  0
LINE
  5
28D
100
AcDbEntity
  8
4
370
    15
390
0
  6
TYPE___8
 62
     1
100
AcDbLine
 10
22.759294
 20
22.502409
 30
0.0
 11
22.604621
 21
22.54388
 31
0.0
  0
LINE
  5
28E
100
AcDbEntity
  8
4
370
    15
390
0
  6
TYPE___8
 62
     1
100
AcDbLine
 10
25.435128
 20
21.784965
 30
0.0
 11
24.87956
 21
21.933924
 31
0.0
  0
LINE
  5
28F
100
AcDbEntity
  8
4
370
    15
390
0
  6
TYPE___8
 62
     1
100
AcDbLine
 10
23.892476
 20
22.198581
 30
0.0
 11
23.67841
 21
22.255976
 31
0.0
  0
LINE
  5
290
100
AcDbEntity
  8
4
370
    15
390
0
  6
TYPE___8
 62
     1
100
AcDbLine
 10
25.401392
 20
21.672815
 30
0.0
 11
25.115174
 21
21.705434
 31
0.0
  0
LINE
  5
291
100
AcDbEntity
  8
4
370
    15
390
0
  6
TYPE___8
 62
     1
100
AcDbLine
 10
24.267752
 20
21.802013
 30
0.0
 11
23.314339
 21
21.910671
 31
0.0
  0
LINE
  5
292
100
AcDbEntity
  8
4
370
    15
390
0
  6
TYPE___8
 62
     1
100
AcDbLine
 10
22.932736
 20
21.954161
 30
0.0
 11
22.481225
 21
22.005619
 31
0.0
  0
ARC
  5
293
100
AcDbEntity
  8
4
370
    15
390
0
  6
Continuous
 62
     1
100
AcDbCircle
 10
25.503349
 20
21.492208
 30
0.0
 40
0.731923
100
AcDbArc
 50
315.0
 51
334.186528
  0
ARC
  5
294
100
AcDbEntity
  8
4
370
    15
390
0
  6
Continuous
 62
     1
100
AcDbCircle
 10
25.503349
 20
21.492208
 30
0.0
 40
0.731923
100
AcDbArc
 50
248.456372
 51
270.0
  0
TEXT
  5
295
100
AcDbEntity
  8
4
370
    15
390
0
  6
Continuous
 62
     7
100
AcDbText
 10
25.595999
 20
20.775633
 30
0.0
 40
0.142
  1
45^  
  7
Vcadd_SIMP
100
AcDbText
  0
LINE
  5
296
100
AcDbEntity
  8
3
370
    15
390
0
  6
Continuous
 62
     1
100
AcDbLine
 10
24.564293
 20
20.599284
 30
0.0
 11
23.957926
 21
20.599284
 31
0.0
  0
LINE
  5
297
100
AcDbEntity
  8
3
370
    15
390
0
  6
Continuous
 62
     1
100
AcDbLine
 10
24.857622
 20
20.599284
 30
0.0
 11
25.485527
 21
20.599284
 31
0.0
  0
LINE
  5
298
100
AcDbEntity
  8
4
370
    15
390
0
  6
Continuous
 62
     7
100
AcDbLine
 10
24.698116
 20
20.517001
 30
0.0
 11
24.778144
 21
20.685336
 31
0.0
  0
TEXT
  5
299
100
AcDbEntity
  8
4
370
    15
390
0
  6
Continuous
 62
     7
100
AcDbText
 10
24.671852
 20
20.532164
 30
0.0
 40
0.16275
  1
O
  7
Vcadd_SIMP
100
AcDbText
  0
LINE
  5
29A
100
AcDbEntity
  8
4
370
    15
390
0
  6
Continuous
 62
     1
100
AcDbLine
 10
25.556935
 20
21.438623
 30
0.0
 11
26.096376
 21
20.899182
 31
0.0
  0
ARC
  5
29B
100
AcDbEntity
  8
4
370
    15
390
0
  6
Continuous
 62
     1
100
AcDbCircle
 10
25.391989
 20
22.601228
 30
0.0
 40
0.731923
100
AcDbArc
 50
315.0
 51
334.186528
  0
ARC
  5
29C
100
AcDbEntity
  8
4
370
    15
390
0
  6
Continuous
 62
     1
100
AcDbCircle
 10
25.391989
 20
22.601228
 30
0.0
 40
0.731923
100
AcDbArc
 50
248.456372
 51
270.0
  0
LINE
  5
29D
100
AcDbEntity
  8
4
370
    15
390
0
  6
Continuous
 62
     1
100
AcDbLine
 10
25.473055
 20
22.520162
 30
0.0
 11
25.985015
 21
22.008202
 31
0.0
  0
TEXT
  5
29E
100
AcDbEntity
  8
4
370
    15
390
0
  6
Continuous
 62
     7
100
AcDbText
 10
25.449406
 20
21.967338
 30
0.0
 40
0.142
  1
45^  
  7
Vcadd_SIMP
100
AcDbText
  0
LINE
  5
29F
100
AcDbEntity
  8
3
370
    15
390
0
  6
Continuous
 62
     1
100
AcDbLine
 10
25.646358
 20
21.79203
 30
0.0
 11
25.646358
 21
21.943751
 31
0.0
  0
LINE
  5
2A0
100
AcDbEntity
  8
3
370
    15
390
0
  6
Continuous
 62
     1
100
AcDbLine
 10
24.941251
 20
21.340853
 30
0.0
 11
25.141544
 21
21.557029
 31
0.0
  0
LINE
  5
2A1
100
AcDbEntity
  8
3
370
    15
390
0
  6
Continuous
 62
     1
100
AcDbLine
 10
24.941251
 20
21.340853
 30
0.0
 11
22.732808
 21
21.340853
 31
0.0
  0
LINE
  5
2A2
100
AcDbEntity
  8
0
370
    15
390
0
  6
Continuous
 62
     1
100
AcDbLine
 10
25.009905
 20
21.696732
 30
0.0
 11
24.919172
 21
21.538861
 31
0.0
  0
LINE
  5
2A3
100
AcDbEntity
  8
0
370
    15
390
0
  6
Continuous
 62
     1
100
AcDbLine
 10
24.94747
 20
21.696732
 30
0.0
 11
25.009905
 21
21.696732
 31
0.0
  0
LINE
  5
2A4
100
AcDbEntity
  8
0
370
    15
390
0
  6
Continuous
 62
     1
100
AcDbLine
 10
24.919182
 20
21.538872
 30
0.0
 11
24.881452
 21
21.604226
 31
0.0
  0
LINE
  5
2A5
100
AcDbEntity
  8
4
370
    15
390
0
  6
Continuous
 62
     7
100
AcDbLine
 10
24.697315
 20
21.461194
 30
0.0
 11
24.777343
 21
21.629528
 31
0.0
  0
TEXT
  5
2A6
100
AcDbEntity
  8
4
370
    15
390
0
  6
Continuous
 62
     7
100
AcDbText
 10
24.668359
 20
21.476357
 30
0.0
 40
0.16275
  1
O
  7
Vcadd_SIMP
100
AcDbText
  0
LINE
  5
2A7
100
AcDbEntity
  8
3
370
    15
390
0
  6
Continuous
 62
     1
100
AcDbLine
 10
24.961863
 20
21.538861
 30
0.0
 11
25.037773
 21
21.620792
 31
0.0
  0
LINE
  5
2A8
100
AcDbEntity
  8
3
370
    15
390
0
  6
Continuous
 62
     1
100
AcDbLine
 10
24.844063
 20
21.538861
 30
0.0
 11
24.961863
 21
21.538861
 31
0.0
  0
LINE
  5
2A9
100
AcDbEntity
  8
1
370
    15
390
0
  6
Continuous
 62
     7
100
AcDbLine
 10
23.878368
 20
18.787588
 30
0.0
 11
23.942943
 21
18.723044
 31
0.0
  0
ARC
  5
2AA
100
AcDbEntity
  8
1
370
    15
390
0
  6
Continuous
 62
     7
100
AcDbCircle
 10
23.886176
 20
18.666384
 30
0.0
 40
0.080205
100
AcDbArc
 50
0.057109
 51
44.945426
  0
CIRCLE
  5
2AC
100
AcDbEntity
  8
3
370
    15
390
0
  6
PHANTOM
 62
     1
100
AcDbCircle
 10
23.910457
 20
18.738418
 30
0.0
 40
0.315099
  0
LINE
  5
2AD
100
AcDbEntity
  8
1
370
    15
390
0
  6
Continuous
 62
     7
100
AcDbLine
 10
23.878368
 20
18.787588
 30
0.0
 11
23.878368
 21
19.051879
 31
0.0
  0
LINE
  5
2AE
100
AcDbEntity
  8
1
370
    15
390
0
  6
Continuous
 62
     7
100
AcDbLine
 10
23.966381
 20
18.666464
 30
0.0
 11
23.966381
 21
18.428322
 31
0.0
  0
LINE
  5
2AF
100
AcDbEntity
  8
3
370
    15
390
0
  6
Continuous
 62
     1
100
AcDbLine
 10
23.960277
 20
18.697073
 30
0.0
 11
23.622951
 21
18.515891
 31
0.0
  0
LINE
  5
2B0
100
AcDbEntity
  8
3
370
    15
390
0
  6
Continuous
 62
     1
100
AcDbLine
 10
23.622951
 20
18.515891
 30
0.0
 11
23.53038
 21
18.515891
 31
0.0
  0
LINE
  5
2B1
100
AcDbEntity
  8
3
370
    15
390
0
  6
Continuous
 62
     1
100
AcDbLine
 10
23.842613
 20
18.823327
 30
0.0
 11
23.510795
 21
19.154987
 31
0.0
  0
LINE
  5
2B2
100
AcDbEntity
  8
3
370
    15
390
0
  6
Continuous
 62
     1
100
AcDbLine
 10
23.878368
 20
19.110569
 30
0.0
 11
23.878368
 21
19.309017
 31
0.0
  0
ARC
  5
2B3
100
AcDbEntity
  8
3
370
    15
390
0
  6
Continuous
 62
     1
100
AcDbCircle
 10
23.878368
 20
18.787588
 30
0.0
 40
0.460409
100
AcDbArc
 50
65.863881
 51
90.0
  0
ARC
  5
2B4
100
AcDbEntity
  8
3
370
    15
390
0
  6
Continuous
 62
     1
100
AcDbCircle
 10
23.878368
 20
18.787588
 30
0.0
 40
0.460409
100
AcDbArc
 50
135.013542
 51
163.25445
  0
TEXT
  5
2B5
100
AcDbEntity
  8
4
370
    15
390
0
  6
Continuous
 62
     7
100
AcDbText
 10
24.159055
 20
19.191166
 30
0.0
 40
0.142
  1
45^  
  7
Vcadd_SIMP
100
AcDbText
  0
TEXT
  5
2B6
100
AcDbEntity
  8
4
370
    15
390
0
  6
Continuous
 62
     7
100
AcDbText
 10
24.159055
 20
19.013666
 30
0.0
 40
0.142
  1
**
  7
Vcadd_SIMP
100
AcDbText
  0
CIRCLE
  5
2B7
100
AcDbEntity
  8
4
370
    15
390
0
  6
TYPE___8
 62
     1
100
AcDbCircle
 10
25.507019
 20
20.274349
 30
0.0
 40
0.106464
  0
LINE
  5
2B8
100
AcDbEntity
  8
4
370
    15
390
0
  6
TYPE___8
 62
     1
100
AcDbLine
 10
23.929085
 20
19.155811
 30
0.0
 11
23.734704
 21
19.000151
 31
0.0
  0
LINE
  5
2B9
100
AcDbEntity
  8
4
370
    15
390
0
  6
TYPE___8
 62
     1
100
AcDbLine
 10
24.314793
 20
19.464684
 30
0.0
 11
24.124929
 21
19.312641
 31
0.0
  0
LINE
  5
2BA
100
AcDbEntity
  8
4
370
    15
390
0
  6
TYPE___8
 62
     1
100
AcDbLine
 10
24.824419
 20
19.87279
 30
0.0
 11
24.446516
 21
19.570167
 31
0.0
  0
LINE
  5
2BB
100
AcDbEntity
  8
4
370
    15
390
0
  6
TYPE___8
 62
     1
100
AcDbLine
 10
25.429941
 20
20.357689
 30
0.0
 11
25.182765
 21
20.159752
 31
0.0
  0
LINE
  5
2BC
100
AcDbEntity
  8
4
370
    15
390
0
  6
TYPE___8
 62
     1
100
AcDbLine
 10
25.088096
 20
20.083941
 30
0.0
 11
24.94927
 21
19.97277
 31
0.0
  0
LINE
  5
2BD
100
AcDbEntity
  8
4
370
    15
390
0
  6
TYPE___8
 62
     1
100
AcDbLine
 10
24.925871
 20
19.444943
 30
0.0
 11
24.114313
 21
18.502515
 31
0.0
  0
LINE
  5
2BE
100
AcDbEntity
  8
4
370
    15
390
0
  6
TYPE___8
 62
     1
100
AcDbLine
 10
25.584097
 20
20.209314
 30
0.0
 11
25.388544
 21
19.982227
 31
0.0
  0
LINE
  5
2BF
100
AcDbEntity
  8
4
370
    15
390
0
  6
TYPE___8
 62
     1
100
AcDbLine
 10
25.296286
 20
19.875091
 30
0.0
 11
25.017699
 21
19.551579
 31
0.0
  0
LINE
  5
2C0
100
AcDbEntity
  8
3
370
    15
390
0
  6
Continuous
 62
     1
100
AcDbLine
 10
24.601575
 20
21.538861
 30
0.0
 11
23.855561
 21
21.538861
 31
0.0
  0
LINE
  5
2C1
100
AcDbEntity
  8
4
370
    15
390
0
  6
Continuous
 62
     1
100
AcDbLine
 10
23.839112
 20
21.642624
 30
0.0
 11
23.638322
 21
21.642624
 31
0.0
  0
LINE
  5
2C2
100
AcDbEntity
  8
4
370
    15
390
0
  6
Continuous
 62
     1
100
AcDbLine
 10
23.839112
 20
21.642624
 30
0.0
 11
23.638322
 21
21.642624
 31
0.0
  0
LINE
  5
2C3
100
AcDbEntity
  8
4
370
    15
390
0
  6
Continuous
 62
     1
100
AcDbLine
 10
23.839112
 20
21.435097
 30
0.0
 11
23.638322
 21
21.435097
 31
0.0
  0
LINE
  5
2C4
100
AcDbEntity
  8
4
370
    15
390
0
  6
Continuous
 62
     1
100
AcDbLine
 10
23.638322
 20
21.435097
 30
0.0
 11
23.615151
 21
21.435097
 31
0.0
  0
LINE
  5
2C5
100
AcDbEntity
  8
4
370
    15
390
0
  6
Continuous
 62
     1
100
AcDbLine
 10
23.615151
 20
21.435097
 30
0.0
 11
23.615151
 21
21.642624
 31
0.0
  0
LINE
  5
2C6
100
AcDbEntity
  8
4
370
    15
390
0
  6
Continuous
 62
     1
100
AcDbLine
 10
23.615151
 20
21.642624
 30
0.0
 11
23.673211
 21
21.642624
 31
0.0
  0
LINE
  5
2C7
100
AcDbEntity
  8
4
370
    15
390
0
  6
Continuous
 62
     1
100
AcDbLine
 10
23.839112
 20
21.435097
 30
0.0
 11
23.855561
 21
21.435097
 31
0.0
  0
LINE
  5
2C8
100
AcDbEntity
  8
4
370
    15
390
0
  6
Continuous
 62
     1
100
AcDbLine
 10
23.855561
 20
21.435097
 30
0.0
 11
23.855561
 21
21.642624
 31
0.0
  0
LINE
  5
2C9
100
AcDbEntity
  8
4
370
    15
390
0
  6
Continuous
 62
     1
100
AcDbLine
 10
23.855561
 20
21.642624
 30
0.0
 11
23.782243
 21
21.642624
 31
0.0
  0
TEXT
  5
2CA
100
AcDbEntity
  8
4
370
    15
390
0
  6
Continuous
 62
     7
100
AcDbText
 10
23.668336
 20
21.47255
 30
0.0
 40
0.142
  1
A
  7
Vcadd_SIMP
100
AcDbText
  0
TEXT
  5
2CB
100
AcDbEntity
  8
0
370
    15
390
0
  6
Continuous
 62
     7
100
AcDbText
 10
21.261063
 20
18.13298
 30
0.0
 40
0.12
  1
SERIES 3
 50
270.0
  7
Vcadd_SIMP
100
AcDbText
  0
TEXT
  5
2CC
100
AcDbEntity
  8
4
370
    15
390
0
  6
Continuous
 62
     7
100
AcDbText
 10
25.917907
 20
16.2264
 30
0.0
 40
0.24
  1
0,05
  7
Vcadd_SIMP
 72
     1
 11
26.469907
 21
16.2264
 31
0.0
100
AcDbText
  0
TEXT
  5
2CD
100
AcDbEntity
  8
4
370
    15
390
0
  6
Continuous
 62
     7
100
AcDbText
 10
25.68779
 20
18.827034
 30
0.0
 40
0.142
  1
25,40
  7
Vcadd_SIMP
100
AcDbText
  0
TEXT
  5
2CE
100
AcDbEntity
  8
4
370
    15
390
0
  6
Continuous
 62
     7
100
AcDbText
 10
29.78562
 20
20.683945
 30
0.0
 40
0.142
  1
25,40
  7
Vcadd_SIMP
100
AcDbText
  0
TEXT
  5
2CF
100
AcDbEntity
  8
4
370
    15
390
0
  6
Continuous
 62
     7
100
AcDbText
 10
29.928217
 20
21.69247
 30
0.0
 40
0.142
  1
0,00
  7
Vcadd_SIMP
100
AcDbText
  0
TEXT
  5
2D0
100
AcDbEntity
  8
4
370
    15
390
0
  6
Continuous
 62
     7
100
AcDbText
 10
29.928589
 20
21.966905
 30
0.0
 40
0.142
  1
7,14
  7
Vcadd_SIMP
100
AcDbText
  0
LINE
  5
2D1
100
AcDbEntity
  8
3
370
    15
390
0
  6
Continuous
 62
     1
100
AcDbLine
 10
27.644663
 20
22.026031
 30
0.0
 11
29.901441
 21
22.026031
 31
0.0
  0
TEXT
  5
2D2
100
AcDbEntity
  8
4
370
    15
390
0
  6
Continuous
 62
     7
100
AcDbText
 10
29.652362
 20
23.85255
 30
0.0
 40
0.142
  1
42,47*
  7
Vcadd_SIMP
100
AcDbText
  0
TEXT
  5
2D3
100
AcDbEntity
  8
4
370
    15
390
0
  6
Continuous
 62
     7
100
AcDbText
 10
29.652362
 20
23.63955
 30
0.0
 40
0.142
  1
  REF
  7
Vcadd_SIMP
100
AcDbText
  0
TEXT
  5
2D4
100
AcDbEntity
  8
4
370
    15
390
0
  6
Continuous
 62
     7
100
AcDbText
 10
29.772071
 20
22.617046
 30
0.0
 40
0.142
  1
28,57
  7
Vcadd_SIMP
100
AcDbText
  0
TEXT
  5
2D5
100
AcDbEntity
  8
4
370
    15
390
0
  6
Continuous
 62
     7
100
AcDbText
 10
27.543521
 20
23.695321
 30
0.0
 40
0.142
  1
44,45
  7
Vcadd_SIMP
100
AcDbText
  0
TEXT
  5
2D6
100
AcDbEntity
  8
4
370
    15
390
0
  6
Continuous
 62
     7
100
AcDbText
 10
22.86803
 20
22.475304
 30
0.0
 40
0.142
  1
37,29
  7
Vcadd_SIMP
100
AcDbText
  0
TEXT
  5
2D7
100
AcDbEntity
  8
4
370
    15
390
0
  6
Continuous
 62
     7
100
AcDbText
 10
22.86803
 20
22.297806
 30
0.0
 40
0.142
  1
37,34
  7
Vcadd_SIMP
100
AcDbText
  0
TEXT
  5
2D8
100
AcDbEntity
  8
4
370
    15
390
0
  6
Continuous
 62
     7
100
AcDbText
 10
22.178037
 20
21.689415
 30
0.0
 40
0.142
  1
0,00
  7
Vcadd_SIMP
100
AcDbText
  0
TEXT
  5
2D9
100
AcDbEntity
  8
4
370
    15
390
0
  6
Continuous
 62
     7
100
AcDbText
 10
23.931163
 20
21.875099
 30
0.0
 40
0.142
  1
39,73
  7
Vcadd_SIMP
100
AcDbText
  0
TEXT
  5
2DA
100
AcDbEntity
  8
4
370
    15
390
0
  6
Continuous
 62
     7
100
AcDbText
 10
23.934516
 20
21.559864
 30
0.0
 40
0.142
  1
36,53
  7
Vcadd_SIMP
100
AcDbText
  0
TEXT
  5
2DB
100
AcDbEntity
  8
4
370
    15
390
0
  6
Continuous
 62
     7
100
AcDbText
 10
23.934516
 20
21.382367
 30
0.0
 40
0.142
  1
36,58
  7
Vcadd_SIMP
100
AcDbText
  0
TEXT
  5
2DC
100
AcDbEntity
  8
4
370
    15
390
0
  6
Continuous
 62
     7
100
AcDbText
 10
24.192238
 20
23.1279
 30
0.0
 40
0.121
  1
0,80 R
  7
Vcadd_SIMP
100
AcDbText
  0
TEXT
  5
2DD
100
AcDbEntity
  8
4
370
    15
390
0
  6
Continuous
 62
     7
100
AcDbText
 10
22.176409
 20
21.272283
 30
0.0
 40
0.142
  1
4,78
  7
Vcadd_SIMP
100
AcDbText
  0
TEXT
  5
2DE
100
AcDbEntity
  8
4
370
    15
390
0
  6
Continuous
 62
     7
100
AcDbText
 10
22.035869
 20
21.003986
 30
0.0
 40
0.142
  1
17,48
  7
Vcadd_SIMP
100
AcDbText
  0
TEXT
  5
2DF
100
AcDbEntity
  8
4
370
    15
390
0
  6
Continuous
 62
     7
100
AcDbText
 10
24.705913
 20
22.970639
 30
0.0
 40
0.074
  1
1,6
  7
Vcadd_SIMP
100
AcDbText
  0
TEXT
  5
2E0
100
AcDbEntity
  8
4
370
    15
390
0
  6
Continuous
 62
     7
100
AcDbText
 10
24.705913
 20
22.14834
 30
0.0
 40
0.074
  1
1,6
  7
Vcadd_SIMP
100
AcDbText
  0
TEXT
  5
2E1
100
AcDbEntity
  8
4
370
    15
390
0
  6
Continuous
 62
     7
100
AcDbText
 10
24.705913
 20
21.661181
 30
0.0
 40
0.074
  1
1,6
  7
Vcadd_SIMP
100
AcDbText
  0
TEXT
  5
2E2
100
AcDbEntity
  8
4
370
    15
390
0
  6
Continuous
 62
     7
100
AcDbText
 10
24.201318
 20
22.386773
 30
0.0
 40
0.121
  1
0,80 R
  7
Vcadd_SIMP
100
AcDbText
  0
TEXT
  5
2E3
100
AcDbEntity
  8
4
370
    15
390
0
  6
Continuous
 62
     7
100
AcDbText
 10
23.927997
 20
23.171029
 30
0.0
 40
0.142
  1
**
  7
Vcadd_SIMP
100
AcDbText
  0
TEXT
  5
2E4
100
AcDbEntity
  8
4
370
    15
390
0
  6
Continuous
 62
     7
100
AcDbText
 10
23.938436
 20
22.431545
 30
0.0
 40
0.142
  1
**
  7
Vcadd_SIMP
100
AcDbText
  0
TEXT
  5
2E5
100
AcDbEntity
  8
4
370
    15
390
0
  6
Continuous
 62
     7
100
AcDbText
 10
23.939203
 20
20.620292
 30
0.0
 40
0.142
  1
34,11
  7
Vcadd_SIMP
100
AcDbText
  0
TEXT
  5
2E6
100
AcDbEntity
  8
4
370
    15
390
0
  6
Continuous
 62
     7
100
AcDbText
 10
23.939203
 20
20.44279
 30
0.0
 40
0.142
  1
34,21
  7
Vcadd_SIMP
100
AcDbText
  0
TEXT
  5
2E7
100
AcDbEntity
  8
4
370
    15
390
0
  6
Continuous
 62
     7
100
AcDbText
 10
23.934516
 20
22.869327
 30
0.0
 40
0.142
  1
40,44
  7
Vcadd_SIMP
100
AcDbText
  0
TEXT
  5
2E8
100
AcDbEntity
  8
4
370
    15
390
0
  6
Continuous
 62
     7
100
AcDbText
 10
23.934516
 20
22.691825
 30
0.0
 40
0.142
  1
40,49
  7
Vcadd_SIMP
100
AcDbText
  0
TEXT
  5
2E9
100
AcDbEntity
  8
4
370
    15
390
0
  6
Continuous
 62
     7
100
AcDbText
 10
22.029195
 20
20.245968
 30
0.0
 40
0.142
  1
36,53
  7
Vcadd_SIMP
100
AcDbText
  0
TEXT
  5
2EA
100
AcDbEntity
  8
4
370
    15
390
0
  6
Continuous
 62
     7
100
AcDbText
 10
23.939203
 20
20.141557
 30
0.0
 40
0.142
  1
31,75
  7
Vcadd_SIMP
100
AcDbText
  0
TEXT
  5
2EB
100
AcDbEntity
  8
4
370
    15
390
0
  6
Continuous
 62
     7
100
AcDbText
 10
23.939203
 20
19.964058
 30
0.0
 40
0.142
  1
31,80
  7
Vcadd_SIMP
100
AcDbText
  0
TEXT
  5
2EC
100
AcDbEntity
  8
4
370
    15
390
0
  6
Continuous
 62
     7
100
AcDbText
 10
22.039254
 20
19.458963
 30
0.0
 40
0.142
  1
56,74
  7
Vcadd_SIMP
100
AcDbText
  0
TEXT
  5
2ED
100
AcDbEntity
  8
4
370
    15
390
0
  6
Continuous
 62
     7
100
AcDbText
 10
24.705913
 20
20.242872
 30
0.0
 40
0.074
  1
1,6
  7
Vcadd_SIMP
100
AcDbText
  0
LINE
  5
2EE
100
AcDbEntity
  8
4
370
    15
390
0
  6
Continuous
 62
     1
100
AcDbLine
 10
24.681165
 20
20.307029
 30
0.0
 11
22.73613
 21
20.307029
 31
0.0
  0
TEXT
  5
2EF
100
AcDbEntity
  8
4
370
    15
390
0
  6
Continuous
 62
     7
100
AcDbText
 10
22.695457
 20
18.442012
 30
0.0
 40
0.142
  1
0,80 R
  7
Vcadd_SIMP
100
AcDbText
  0
TEXT
  5
2F0
100
AcDbEntity
  8
4
370
    15
390
0
  6
Continuous
 62
     7
100
AcDbText
 10
22.695457
 20
18.264512
 30
0.0
 40
0.142
  1
 **
  7
Vcadd_SIMP
100
AcDbText
  0
LINE
  5
2F1
100
AcDbEntity
  8
4
370
    15
390
0
  6
Continuous
 62
     1
100
AcDbLine
 10
22.739414
 20
22.339188
 30
0.0
 11
22.981663
 21
22.110454
 31
0.0
  0
LINE
  5
2F2
100
AcDbEntity
  8
4
370
    15
390
0
  6
Continuous
 62
     1
100
AcDbLine
 10
22.981663
 20
22.110454
 30
0.0
 11
23.085887
 21
22.110454
 31
0.0
  0
TEXT
  5
2F3
100
AcDbEntity
  8
4
370
    15
390
0
  6
Continuous
 62
     7
100
AcDbText
 10
23.149146
 20
22.057348
 30
0.0
 40
0.142
  1
L.S.
  7
Vcadd_SIMP
100
AcDbText
  0
LINE
  5
2F4
100
AcDbEntity
  8
4
370
    15
390
0
  6
Continuous
 62
     1
100
AcDbLine
 10
22.62674
 20
22.339188
 30
0.0
 11
22.739414
 21
22.339188
 31
0.0
  0
LINE
  5
2F5
100
AcDbEntity
  8
3
370
    15
390
0
  6
Continuous
 62
     1
100
AcDbLine
 10
26.180867
 20
25.558811
 30
0.0
 11
25.814997
 21
25.558811
 31
0.0
  0
LINE
  5
2F6
100
AcDbEntity
  8
3
370
    15
390
0
  6
Continuous
 62
     1
100
AcDbLine
 10
26.180867
 20
25.100682
 30
0.0
 11
25.983637
 21
25.100682
 31
0.0
  0
LINE
  5
2F7
100
AcDbEntity
  8
4
370
    15
390
0
  6
Continuous
 62
     1
100
AcDbLine
 10
25.646358
 20
26.016812
 30
0.0
 11
26.119992
 21
26.016812
 31
0.0
  0
LINE
  5
2F8
100
AcDbEntity
  8
3
370
    15
390
0
  6
Continuous
 62
     1
100
AcDbLine
 10
25.646358
 20
22.136615
 30
0.0
 11
25.646358
 21
26.016812
 31
0.0
  0
LINE
  5
2F9
100
AcDbEntity
  8
3
370
    15
390
0
  6
Continuous
 62
     1
100
AcDbLine
 10
25.814997
 20
25.558811
 30
0.0
 11
25.814997
 21
21.79203
 31
0.0
  0
LINE
  5
2FA
100
AcDbEntity
  8
3
370
    15
390
0
  6
Continuous
 62
     1
100
AcDbLine
 10
25.983637
 20
25.100682
 30
0.0
 11
25.983637
 21
21.745029
 31
0.0
  0
INSERT
  5
303
100
AcDbEntity
  8
3
370
    90
390
0
  6
Continuous
 62
     7
100
AcDbBlockReference
  2
ARROW
 10
25.532528
 20
19.92303
 30
0.0
 50
50.123817
  0
INSERT
  5
304
100
AcDbEntity
  8
3
370
    90
390
0
  6
Continuous
 62
     7
100
AcDbBlockReference
  2
ARROW
 10
25.438526
 20
21.620792
 30
0.0
  0
INSERT
  5
305
100
AcDbEntity
  8
3
370
    90
390
0
  6
Continuous
 62
     7
100
AcDbBlockReference
  2
ARROW
 10
25.532528
 20
20.120552
 30
0.0
  0
INSERT
  5
306
100
AcDbEntity
  8
3
370
    90
390
0
  6
Continuous
 62
     7
100
AcDbBlockReference
  2
ARROW
 10
25.370399
 20
22.625297
 30
0.0
 50
36.501003
  0
INSERT
  5
307
100
AcDbEntity
  8
3
370
    90
390
0
  6
Continuous
 62
     7
100
AcDbBlockReference
  2
ARROW
 10
25.376528
 20
22.02602
 30
0.0
  0
INSERT
  5
308
100
AcDbEntity
  8
3
370
    90
390
0
  6
Continuous
 62
     7
100
AcDbBlockReference
  2
ARROW
 10
27.031029
 20
23.751545
 30
0.0
 50
180.0
  0
INSERT
  5
309
100
AcDbEntity
  8
3
370
    90
390
0
  6
Continuous
 62
     7
100
AcDbBlockReference
  2
ARROW
 10
25.646358
 20
21.745029
 30
0.0
 50
90.0
  0
INSERT
  5
30A
100
AcDbEntity
  8
3
370
    90
390
0
  6
Continuous
 62
     7
100
AcDbBlockReference
  2
ARROW
 10
25.646358
 20
21.79203
 30
0.0
 42
-1.0
 50
270.0
  0
INSERT
  5
30B
100
AcDbEntity
  8
3
370
    90
390
0
  6
Continuous
 62
     7
100
AcDbBlockReference
  2
ARROW
 10
25.283027
 20
23.90599
 30
0.0
 50
158.305054
  0
INSERT
  5
30C
100
AcDbEntity
  8
3
370
    90
390
0
  6
Continuous
 62
     7
100
AcDbBlockReference
  2
ARROW
 10
24.930572
 20
23.769485
 30
0.0
 50
62.901104
  0
INSERT
  5
30D
100
AcDbEntity
  8
3
370
    90
390
0
  6
Continuous
 62
     7
100
AcDbBlockReference
  2
ARROW
 10
25.658027
 20
18.769302
 30
0.0
 50
180.0
  0
INSERT
  5
30E
100
AcDbEntity
  8
3
370
    90
390
0
  6
Continuous
 62
     7
100
AcDbBlockReference
  2
ARROW
 10
26.653604
 20
18.769744
 30
0.0
  0
INSERT
  5
30F
100
AcDbEntity
  8
3
370
    90
390
0
  6
Continuous
 62
     7
100
AcDbBlockReference
  2
ARROW
 10
25.361027
 20
22.848319
 30
0.0
  0
INSERT
  5
310
100
AcDbEntity
  8
3
370
    90
390
0
  6
Continuous
 62
     7
100
AcDbBlockReference
  2
ARROW
 10
25.361319
 20
23.330528
 30
0.0
 50
36.501003
  0
INSERT
  5
311
100
AcDbEntity
  8
4
370
     0
390
0
  6
Continuous
 62
     1
100
AcDbBlockReference
  2
ARROW
 10
25.503349
 20
20.760285
 30
0.0
 41
1.0
 50
352.34741
  0
INSERT
  5
312
100
AcDbEntity
  8
4
370
     0
390
0
  6
Continuous
 62
     1
100
AcDbBlockReference
  2
ARROW
 10
26.020897
 20
20.97466
 30
0.0
 41
1.0
 42
1.0
 50
231.917248
  0
INSERT
  5
313
100
AcDbEntity
  8
3
370
    90
390
0
  6
Continuous
 62
     7
100
AcDbBlockReference
  2
ARROW
 10
25.485527
 20
20.599284
 30
0.0
  0
INSERT
  5
314
100
AcDbEntity
  8
4
370
     0
390
0
  6
Continuous
 62
     1
100
AcDbBlockReference
  2
ARROW
 10
25.391989
 20
21.869305
 30
0.0
 41
1.0
 50
352.34741
  0
INSERT
  5
315
100
AcDbEntity
  8
4
370
     0
390
0
  6
Continuous
 62
     1
100
AcDbBlockReference
  2
ARROW
 10
25.909537
 20
22.08368
 30
0.0
 41
1.0
 42
1.0
 50
231.917248
  0
INSERT
  5
316
100
AcDbEntity
  8
3
370
    15
390
0
  6
Continuous
 62
     7
100
AcDbBlockReference
  2
ARROW
 10
23.960277
 20
18.697073
 30
0.0
 41
1.0
 42
1.0
 50
28.240833
  0
INSERT
  5
317
100
AcDbEntity
  8
3
370
    15
390
0
  6
Continuous
 62
     7
100
AcDbBlockReference
  2
ARROW
 10
23.552733
 20
19.11307
 30
0.0
 41
1.0
 42
1.0
 50
55.0
  0
INSERT
  5
318
100
AcDbEntity
  8
3
370
    15
390
0
  6
Continuous
 62
     7
100
AcDbBlockReference
  2
ARROW
 10
23.878368
 20
19.247998
 30
0.0
 41
1.0
 42
1.0
 50
165.0
  0
LINE
  5
319
100
AcDbEntity
  8
4
370
    15
390
0
  6
Continuous
 62
     1
100
AcDbLine
 10
27.070019
 20
24.619821
 30
0.0
 11
26.886186
 21
24.619821
 31
0.0
  0
LINE
  5
31A
100
AcDbEntity
  8
4
370
    15
390
0
  6
Continuous
 62
     1
100
AcDbLine
 10
26.886186
 20
24.619821
 30
0.0
 11
26.724416
 21
24.21392
 31
0.0
  0
INSERT
  5
31B
100
AcDbEntity
  8
4
370
     0
390
0
  6
Continuous
 62
     1
100
AcDbBlockReference
  2
ARROW
 10
26.724416
 20
24.21392
 30
0.0
 41
1.0
 42
1.0
 50
248.270447
  0
TEXT
  5
31C
100
AcDbEntity
  8
0
370
    15
390
0
  6
Continuous
 62
     7
100
AcDbText
 10
22.402671
 20
14.382574
 30
0.0
 40
0.09
  1
Wichtige Bemerkung:
  7
Vcadd_SIMP
100
AcDbText
  0
TEXT
  5
31D
100
AcDbEntity
  8
0
370
    15
390
0
  6
Continuous
 62
     7
100
AcDbText
 10
22.402671
 20
14.247574
 30
0.0
 40
0.09
  1
Diese Zeichnung beschreibt ein
  7
Vcadd_SIMP
100
AcDbText
  0
TEXT
  5
31E
100
AcDbEntity
  8
0
370
    15
390
0
  6
Continuous
 62
     7
100
AcDbText
 10
22.402671
 20
14.112574
 30
0.0
 40
0.09
  1
Produkt der Firma SUN Hydraulik
  7
Vcadd_SIMP
100
AcDbText
  0
TEXT
  5
31F
100
AcDbEntity
  8
0
370
    15
390
0
  6
Continuous
 62
     7
100
AcDbText
 10
22.402671
 20
13.977574
 30
0.0
 40
0.09
  1
und darf nicht ohne Genehmigung
  7
Vcadd_SIMP
100
AcDbText
  0
TEXT
  5
320
100
AcDbEntity
  8
0
370
    15
390
0
  6
Continuous
 62
     7
100
AcDbText
 10
22.402671
 20
13.842574
 30
0.0
 40
0.09
  1
vervielfδltigt oder an Dritte wei-
  7
Vcadd_SIMP
100
AcDbText
  0
TEXT
  5
321
100
AcDbEntity
  8
0
370
    15
390
0
  6
Continuous
 62
     7
100
AcDbText
 10
22.402671
 20
13.707574
 30
0.0
 40
0.09
  1
tergegeben werden. 
  7
Vcadd_SIMP
100
AcDbText
  0
TEXT
  5
322
100
AcDbEntity
  8
0
370
    15
390
0
  6
Continuous
 62
     7
100
AcDbText
 10
22.510824
 20
13.413154
 30
0.0
 40
0.09
  1
SUN HYDRAULICS CORPORATION
  7
Vcadd_SIMP
100
AcDbText
  0
TEXT
  5
323
100
AcDbEntity
  8
0
370
    15
390
0
  6
Continuous
 62
     7
100
AcDbText
 10
22.368978
 20
13.420028
 30
0.0
 40
0.085
  1
C
  7
Vcadd_SIMP
100
AcDbText
  0
CIRCLE
  5
324
100
AcDbEntity
  8
4
370
    15
390
0
  6
Continuous
 62
     1
100
AcDbCircle
 10
22.398476
 20
13.452996
 30
0.0
 40
0.058579
  0
TEXT
  5
325
100
AcDbEntity
  8
4
370
    15
390
0
  6
Continuous
 62
     7
100
AcDbText
 10
25.918792
 20
15.103904
 30
0.0
 40
0.133
  1
Freiraum fόr Sechskantnuss
  7
Vcadd_SIMP
100
AcDbText
  0
TEXT
  5
326
100
AcDbEntity
  8
4
370
    15
390
0
  6
Continuous
 62
     7
100
AcDbText
 10
25.918792
 20
14.904404
 30
0.0
 40
0.133
  1
Min. Abstand von der Mittellinie bis zur End-
  7
Vcadd_SIMP
100
AcDbText
  0
TEXT
  5
327
100
AcDbEntity
  8
4
370
    15
390
0
  6
Continuous
 62
     7
100
AcDbText
 10
25.918792
 20
14.704904
 30
0.0
 40
0.133
  1
kante des Ventilkφrpers
  7
Vcadd_SIMP
100
AcDbText
  0
TEXT
  5
328
100
AcDbEntity
  8
4
370
    15
390
0
  6
Continuous
 62
     7
100
AcDbText
 10
25.918792
 20
14.505404
 30
0.0
 40
0.133
  1
Min. Abstand von der Mittellinie bis zur Mittel-
  7
Vcadd_SIMP
100
AcDbText
  0
TEXT
  5
329
100
AcDbEntity
  8
4
370
    15
390
0
  6
Continuous
 62
     7
100
AcDbText
 10
25.918792
 20
14.305904
 30
0.0
 40
0.133
  1
linie bei gleicher Einschraubbohrung
  7
Vcadd_SIMP
100
AcDbText
  0
TEXT
  5
32A
100
AcDbEntity
  8
4
370
    15
390
0
  6
Continuous
 62
     7
100
AcDbText
 10
25.354547
 20
15.101357
 30
0.0
 40
0.133
  1
44,45
  7
Vcadd_SIMP
100
AcDbText
  0
TEXT
  5
32B
100
AcDbEntity
  8
4
370
    15
390
0
  6
Continuous
 62
     7
100
AcDbText
 10
25.354547
 20
14.901857
 30
0.0
 40
0.133
  1
28,57
  7
Vcadd_SIMP
100
AcDbText
  0
TEXT
  5
32C
100
AcDbEntity
  8
4
370
    15
390
0
  6
Continuous
 62
     7
100
AcDbText
 10
25.354547
 20
14.702357
 30
0.0
 40
0.133
  1
47,63
  7
Vcadd_SIMP
100
AcDbText
  0
TEXT
  5
32D
100
AcDbEntity
  8
4
370
    15
390
0
  6
Continuous
 62
     7
100
AcDbText
 10
25.389513
 20
13.994909
 30
0.0
 40
0.133
  1
Name in Bohrtabelle: SUN STD T-23A CAVITY
  7
Vcadd_SIMP
100
AcDbText
  0
TEXT
  5
32E
100
AcDbEntity
  8
4
370
    15
390
0
  6
Continuous
 62
     7
100
AcDbText
 10
25.389513
 20
13.795409
 30
0.0
 40
0.133
  1
Code in Bohrtabelle: T23A
  7
Vcadd_SIMP
100
AcDbText
  0
TEXT
  5
32F
100
AcDbEntity
  8
0
370
    15
390
0
  6
Continuous
 62
     7
100
AcDbText
 10
29.702845
 20
13.783549
 30
0.0
 40
0.13
  1
T-23A Metrisch
 50
270.0
  7
Vcadd_SIMP
 72
     1
 11
30.42473
 21
13.783549
 31
0.0
100
AcDbText
  0
TEXT
  5
330
100
AcDbEntity
  8
0
370
    15
390
0
  6
Continuous
 62
     7
100
AcDbText
 10
29.609612
 20
13.783549
 30
0.0
 40
0.13
  1
Blatt 3 von 3
 50
270.0
  7
Vcadd_SIMP
 72
     1
 11
30.25573
 21
13.783549
 31
0.0
100
AcDbText
  0
TEXT
  5
331
100
AcDbEntity
  8
4
370
    15
390
0
  6
Continuous
 62
     7
100
AcDbText
 10
27.552627
 20
16.37448
 30
0.0
 40
0.15
  1
Gewinde und alle
  7
Vcadd_SIMP
100
AcDbText
  0
TEXT
  5
332
100
AcDbEntity
  8
4
370
    15
390
0
  6
Continuous
 62
     7
100
AcDbText
 10
27.552627
 20
16.17948
 30
0.0
 40
0.15
  1
Durchmesser
  7
Vcadd_SIMP
100
AcDbText
  0
LINE
  5
333
100
AcDbEntity
  8
4
370
    15
390
0
  6
Continuous
 62
     1
100
AcDbLine
 10
25.341324
 20
17.765758
 30
0.0
 11
25.174729
 21
17.765758
 31
0.0
  0
LINE
  5
334
100
AcDbEntity
  8
4
370
    15
390
0
  6
Continuous
 62
     1
100
AcDbLine
 10
25.174729
 20
17.765758
 30
0.0
 11
25.360329
 21
19.716908
 31
0.0
  0
TEXT
  5
335
100
AcDbEntity
  8
4
370
    15
390
0
  6
Continuous
 62
     7
100
AcDbText
 10
25.361993
 20
17.70625
 30
0.0
 40
0.142
  1
0,50 x 45^  MAX
  7
Vcadd_SIMP
100
AcDbText
  0
TEXT
  5
336
100
AcDbEntity
  8
4
370
    15
390
0
  6
Continuous
 62
     7
100
AcDbText
 10
25.637986
 20
18.274739
 30
0.0
 40
0.13
  1
Anschluss #1
  7
Vcadd_SIMP
100
AcDbText
  0
TEXT
  5
337
100
AcDbEntity
  8
4
370
    15
390
0
  6
Continuous
 62
     7
100
AcDbText
 10
28.355384
 20
19.31651
 30
0.0
 40
0.142
  1
56,4
  7
Vcadd_SIMP
100
AcDbText
  0
TEXT
  5
338
100
AcDbEntity
  8
4
370
    15
390
0
  6
Continuous
 62
     7
100
AcDbText
 10
28.680404
 20
19.955933
 30
0.0
 40
0.12
  1
Abstόtzung
  7
Vcadd_SIMP
100
AcDbText
  0
TEXT
  5
339
100
AcDbEntity
  8
4
370
    15
390
0
  6
Continuous
 62
     7
100
AcDbText
 10
28.680404
 20
19.775933
 30
0.0
 40
0.12
  1
(fόr Ventilbuchse)
  7
Vcadd_SIMP
100
AcDbText
  0
TEXT
  5
33A
100
AcDbEntity
  8
4
370
    15
390
0
  6
Continuous
 62
     7
100
AcDbText
 10
28.723609
 20
21.769375
 30
0.0
 40
0.12
  1
LS-Anschlag
  7
Vcadd_SIMP
 72
     1
 11
29.249423
 21
21.769375
 31
0.0
100
AcDbText
  0
TEXT
  5
33B
100
AcDbEntity
  8
4
370
    15
390
0
  6
Continuous
 62
     7
100
AcDbText
 10
28.532864
 20
21.589375
 30
0.0
 40
0.12
  1
(Maίbezugskante)
  7
Vcadd_SIMP
 72
     1
 11
29.249423
 21
21.589375
 31
0.0
100
AcDbText
  0
LINE
  5
33C
100
AcDbEntity
  8
4
370
    15
390
0
  6
Continuous
 62
     1
100
AcDbLine
 10
28.550724
 20
23.913643
 30
0.0
 11
29.642455
 21
23.913643
 31
0.0
  0
LINE
  5
33D
100
AcDbEntity
  8
4
370
    15
390
0
  6
Continuous
 62
     1
100
AcDbLine
 10
28.306849
 20
23.42192
 30
0.0
 11
28.550724
 21
23.913643
 31
0.0
  0
LINE
  5
33E
100
AcDbEntity
  8
4
370
    15
390
0
  6
Continuous
 62
     1
100
AcDbLine
 10
27.093081
 20
23.42192
 30
0.0
 11
28.306849
 21
23.42192
 31
0.0
  0
TEXT
  5
33F
100
AcDbEntity
  8
4
370
    15
390
0
  6
Continuous
 62
     7
100
AcDbText
 10
29.85002
 20
23.325176
 30
0.0
 40
0.142
  1
41,27
  7
Vcadd_SIMP
100
AcDbText
  0
LINE
  5
340
100
AcDbEntity
  8
3
370
    15
390
0
  6
Continuous
 62
     1
100
AcDbLine
 10
26.979137
 20
23.370029
 30
0.0
 11
29.811431
 21
23.370029
 31
0.0
  0
TEXT
  5
341
100
AcDbEntity
  8
4
370
    15
390
0
  6
Continuous
 62
     7
100
AcDbText
 10
28.485044
 20
24.577207
 30
0.0
 40
0.12
  1
Min. Abstand des
  7
Vcadd_SIMP
100
AcDbText
  0
TEXT
  5
342
100
AcDbEntity
  8
4
370
    15
390
0
  6
Continuous
 62
     7
100
AcDbText
 10
28.485044
 20
24.397207
 30
0.0
 40
0.12
  1
Sechskant
  7
Vcadd_SIMP
100
AcDbText
  0
TEXT
  5
343
100
AcDbEntity
  8
4
370
    15
390
0
  6
Continuous
 62
     7
100
AcDbText
 10
29.821082
 20
24.481974
 30
0.0
 40
0.142
  1
62,71
  7
Vcadd_SIMP
100
AcDbText
  0
LINE
  5
344
100
AcDbEntity
  8
3
370
    15
390
0
  6
Continuous
 62
     1
100
AcDbLine
 10
28.367287
 20
24.537217
 30
0.0
 11
29.791415
 21
24.537217
 31
0.0
  0
LINE
  5
345
100
AcDbEntity
  8
3
370
    15
390
0
  6
Continuous
 62
     1
100
AcDbLine
 10
26.868997
 20
24.21392
 30
0.0
 11
28.170133
 21
24.21392
 31
0.0
  0
LINE
  5
346
100
AcDbEntity
  8
4
370
    15
390
0
  6
Continuous
 62
     1
100
AcDbLine
 10
28.170133
 20
24.21392
 30
0.0
 11
28.367287
 21
24.537217
 31
0.0
  0
TEXT
  5
347
100
AcDbEntity
  8
4
370
    15
390
0
  6
Continuous
 62
     7
100
AcDbText
 10
27.130369
 20
24.577351
 30
0.0
 40
0.12
  1
SW 31,80
  7
Vcadd_SIMP
100
AcDbText
  0
TEXT
  5
348
100
AcDbEntity
  8
4
370
    15
390
0
  6
Continuous
 62
     7
100
AcDbText
 10
23.491369
 20
28.200808
 30
0.0
 40
0.14
  1
T-
  7
Vcadd_SIMP
100
AcDbText
  0
TEXT
  5
349
100
AcDbEntity
  8
4
370
    15
390
0
  6
Continuous
 62
     7
100
AcDbText
 10
24.263901
 20
28.200808
 30
0.0
 40
0.14
  1
Einschraubventilbohrung
  7
Vcadd_SIMP
100
AcDbText
  0
TEXT
  5
34A
100
AcDbEntity
  8
4
370
    15
390
0
  6
Continuous
 62
     7
100
AcDbText
 10
23.166722
 20
27.689413
 30
0.0
 40
0.14
  1
M
  7
Vcadd_SIMP
100
AcDbText
  0
TEXT
  5
34B
100
AcDbEntity
  8
4
370
    15
390
0
  6
Continuous
 62
     7
100
AcDbText
 10
23.610189
 20
27.689413
 30
0.0
 40
0.14
  1
x
  7
Vcadd_SIMP
100
AcDbText
  0
TEXT
  5
34C
100
AcDbEntity
  8
4
370
    15
390
0
  6
Continuous
 62
     7
100
AcDbText
 10
23.824855
 20
27.689413
 30
0.0
 40
0.14
  1
2.0
  7
Vcadd_SIMP
100
AcDbText
  0
TEXT
  5
34D
100
AcDbEntity
  8
4
370
    15
390
0
  6
Continuous
 62
     7
100
AcDbText
 10
24.293014
 20
27.689413
 30
0.0
 40
0.14
  1
-6H ISO (Metrisch) Gewinde
  7
Vcadd_SIMP
100
AcDbText
  0
LINE
  5
34E
100
AcDbEntity
  8
3
370
    15
390
0
  6
Continuous
 62
     1
100
AcDbLine
 10
23.533026
 20
28.172461
 30
0.0
 11
27.474938
 21
28.172461
 31
0.0
  0
TEXT
  5
34F
100
AcDbEntity
  8
4
370
    15
390
0
  6
Continuous
 62
     7
100
AcDbText
 10
23.270137
 20
27.932344
 30
0.0
 40
0.14
  1
(alle Abmessungen in Millimeter)
  7
Vcadd_SIMP
100
AcDbText
  0
LINE
  5
350
100
AcDbEntity
  8
4
370
    15
390
0
  6
Continuous
 62
     7
100
AcDbLine
 10
22.957448
 20
27.686593
 30
0.0
 11
23.030018
 21
27.812287
 31
0.0
  0
LINE
  5
351
100
AcDbEntity
  8
4
370
    15
390
0
  6
Continuous
 62
     7
100
AcDbLine
 10
23.102588
 20
27.686593
 30
0.0
 11
23.030018
 21
27.812287
 31
0.0
  0
LINE
  5
352
100
AcDbEntity
  8
4
370
    15
390
0
  6
Continuous
 62
     7
100
AcDbLine
 10
22.957448
 20
27.686593
 30
0.0
 11
23.102588
 21
27.686593
 31
0.0
  0
TEXT
  5
353
100
AcDbEntity
  8
4
370
    15
390
0
  6
Continuous
 62
     7
100
AcDbText
 10
23.74222
 20
28.198099
 30
0.0
 40
0.14
  1
23A
  7
Vcadd_SIMP
100
AcDbText
  0
TEXT
  5
354
100
AcDbEntity
  8
4
370
    15
390
0
  6
Continuous
 62
     7
100
AcDbText
 10
23.331256
 20
27.689413
 30
0.0
 40
0.14
  1
36
  7
Vcadd_SIMP
100
AcDbText
  0
TEXT
  5
355
100
AcDbEntity
  8
4
370
    15
390
0
  6
Continuous
 62
     7
100
AcDbText
 10
23.707157
 20
27.412003
 30
0.0
 40
0.14
  1
34,70/34,93 PITCH DIA.
  7
Vcadd_SIMP
 72
     1
 11
25.478157
 21
27.412003
 31
0.0
100
AcDbText
  0
TEXT
  5
356
100
AcDbEntity
  8
4
370
    15
390
0
  6
Continuous
 62
     7
100
AcDbText
 10
22.748483
 20
21.088833
 30
0.0
 40
0.12
  1
Min. Abstand fόr Bereich mit
  7
Vcadd_SIMP
100
AcDbText
  0
TEXT
  5
357
100
AcDbEntity
  8
4
370
    15
390
0
  6
Continuous
 62
     7
100
AcDbText
 10
22.748483
 20
20.908833
 30
0.0
 40
0.12
  1
vollstδndigen Gewindegδngen
  7
Vcadd_SIMP
100
AcDbText
  0
LINE
  5
358
100
AcDbEntity
  8
4
370
    15
390
0
  6
Continuous
 62
     7
100
AcDbLine
 10
25.071424
 20
20.878699
 30
0.0
 11
25.143993
 21
21.004393
 31
0.0
  0
LINE
  5
359
100
AcDbEntity
  8
4
370
    15
390
0
  6
Continuous
 62
     7
100
AcDbLine
 10
25.216563
 20
20.878699
 30
0.0
 11
25.143993
 21
21.004393
 31
0.0
  0
LINE
  5
35A
100
AcDbEntity
  8
4
370
    15
390
0
  6
Continuous
 62
     7
100
AcDbLine
 10
25.071424
 20
20.878699
 30
0.0
 11
25.216563
 21
20.878699
 31
0.0
  0
TEXT
  5
35B
100
AcDbEntity
  8
4
370
    15
390
0
  6
Continuous
 62
     7
100
AcDbText
 10
21.585964
 20
18.607287
 30
0.0
 40
0.13
  1
Abmessungen,Werkzeuge,Anschlόsse
 50
270.0
  7
Vcadd_SIMP
100
AcDbText
  0
TEXT
  5
35C
100
AcDbEntity
  8
4
370
    15
390
0
  6
Continuous
 62
     7
100
AcDbText
 10
21.778807
 20
17.994533
 30
0.0
 40
0.13
  1
T-23A Einschraubbohrung
 50
270.0
  7
Vcadd_SIMP
100
AcDbText
  0
TEXT
  5
35D
100
AcDbEntity
  8
0
370
    15
390
0
  6
Continuous
 62
     7
100
AcDbText
 10
21.039481
 20
13.777935
 30
0.0
 40
0.13
  1
T-23A Metrisch
 50
270.0
  7
Vcadd_SIMP
 72
     1
 11
21.761366
 21
13.777935
 31
0.0
100
AcDbText
  0
TEXT
  5
35E
100
AcDbEntity
  8
0
370
    15
390
0
  6
Continuous
 62
     7
100
AcDbText
 10
20.946248
 20
13.777935
 30
0.0
 40
0.13
  1
Blatt 3 von 3
 50
270.0
  7
Vcadd_SIMP
 72
     1
 11
21.592366
 21
13.777935
 31
0.0
100
AcDbText
  0
CIRCLE
  5
35F
100
AcDbEntity
  8
0
370
    15
390
0
  6
Continuous
 62
     7
100
AcDbCircle
 10
21.312077
 20
13.237095
 30
0.0
 40
0.054385
  0
CIRCLE
  5
360
100
AcDbEntity
  8
0
370
    15
390
0
  6
Continuous
 62
     2
100
AcDbCircle
 10
21.133836
 20
15.032814
 30
0.0
 40
0.312
  0
LINE
  5
361
100
AcDbEntity
  8
0
370
    15
390
0
  6
Continuous
 62
     7
100
AcDbLine
 10
21.198842
 20
15.1506
 30
0.0
 11
21.253308
 21
15.1506
 31
0.0
  0
LINE
  5
362
100
AcDbEntity
  8
0
370
    15
390
0
  6
Continuous
 62
     7
100
AcDbLine
 10
21.198842
 20
15.243751
 30
0.0
 11
21.198842
 21
15.1506
 31
0.0
  0
LINE
  5
363
100
AcDbEntity
  8
0
370
    15
390
0
  6
Continuous
 62
     7
100
AcDbLine
 10
21.161336
 20
15.243751
 30
0.0
 11
21.198842
 21
15.243751
 31
0.0
  0
LINE
  5
364
100
AcDbEntity
  8
0
370
    15
390
0
  6
Continuous
 62
     7
100
AcDbLine
 10
21.161336
 20
15.1506
 30
0.0
 11
21.161336
 21
15.243751
 31
0.0
  0
LINE
  5
365
100
AcDbEntity
  8
0
370
    15
390
0
  6
Continuous
 62
     7
100
AcDbLine
 10
21.014359
 20
15.1506
 30
0.0
 11
21.161336
 21
15.1506
 31
0.0
  0
LINE
  5
366
100
AcDbEntity
  8
0
370
    15
390
0
  6
Continuous
 62
     7
100
AcDbLine
 10
21.014359
 20
15.298752
 30
0.0
 11
21.014359
 21
15.1506
 31
0.0
  0
LINE
  5
367
100
AcDbEntity
  8
0
370
    15
390
0
  6
Continuous
 62
     7
100
AcDbLine
 10
21.069402
 20
15.298752
 30
0.0
 11
21.014359
 21
15.298752
 31
0.0
  0
LINE
  5
368
100
AcDbEntity
  8
0
370
    15
390
0
  6
Continuous
 62
     7
100
AcDbLine
 10
21.069402
 20
15.2056
 30
0.0
 11
21.069402
 21
15.298752
 31
0.0
  0
LINE
  5
369
100
AcDbEntity
  8
0
370
    15
390
0
  6
Continuous
 62
     7
100
AcDbLine
 10
21.105952
 20
15.2056
 30
0.0
 11
21.069402
 21
15.2056
 31
0.0
  0
LINE
  5
36A
100
AcDbEntity
  8
0
370
    15
390
0
  6
Continuous
 62
     7
100
AcDbLine
 10
21.105952
 20
15.298752
 30
0.0
 11
21.105952
 21
15.2056
 31
0.0
  0
LINE
  5
36B
100
AcDbEntity
  8
0
370
    15
390
0
  6
Continuous
 62
     7
100
AcDbLine
 10
21.253308
 20
15.298752
 30
0.0
 11
21.105952
 21
15.298752
 31
0.0
  0
LINE
  5
36C
100
AcDbEntity
  8
0
370
    15
390
0
  6
Continuous
 62
     7
100
AcDbLine
 10
21.253308
 20
15.298752
 30
0.0
 11
21.253308
 21
15.1506
 31
0.0
  0
LINE
  5
36D
100
AcDbEntity
  8
0
370
    15
390
0
  6
Continuous
 62
     7
100
AcDbLine
 10
21.253308
 20
14.95874
 30
0.0
 11
21.253308
 21
15.014446
 31
0.0
  0
LINE
  5
36E
100
AcDbEntity
  8
0
370
    15
390
0
  6
Continuous
 62
     7
100
AcDbLine
 10
21.014359
 20
14.95874
 30
0.0
 11
21.253308
 21
14.95874
 31
0.0
  0
LINE
  5
36F
100
AcDbEntity
  8
0
370
    15
390
0
  6
Continuous
 62
     7
100
AcDbLine
 10
21.014359
 20
15.106891
 30
0.0
 11
21.014359
 21
14.95874
 31
0.0
  0
LINE
  5
370
100
AcDbEntity
  8
0
370
    15
390
0
  6
Continuous
 62
     7
100
AcDbLine
 10
21.253308
 20
15.106891
 30
0.0
 11
21.014359
 21
15.106891
 31
0.0
  0
LINE
  5
371
100
AcDbEntity
  8
0
370
    15
390
0
  6
Continuous
 62
     7
100
AcDbLine
 10
21.253308
 20
15.051971
 30
0.0
 11
21.253308
 21
15.106891
 31
0.0
  0
LINE
  5
372
100
AcDbEntity
  8
0
370
    15
390
0
  6
Continuous
 62
     7
100
AcDbLine
 10
21.06936
 20
15.051971
 30
0.0
 11
21.253308
 21
15.051971
 31
0.0
  0
LINE
  5
373
100
AcDbEntity
  8
0
370
    15
390
0
  6
Continuous
 62
     7
100
AcDbLine
 10
21.06936
 20
15.014446
 30
0.0
 11
21.06936
 21
15.051971
 31
0.0
  0
LINE
  5
374
100
AcDbEntity
  8
0
370
    15
390
0
  6
Continuous
 62
     7
100
AcDbLine
 10
21.06936
 20
15.014446
 30
0.0
 11
21.253308
 21
15.014446
 31
0.0
  0
LINE
  5
375
100
AcDbEntity
  8
0
370
    15
390
0
  6
Continuous
 62
     7
100
AcDbLine
 10
21.014359
 20
14.857162
 30
0.0
 11
21.014359
 21
14.912868
 31
0.0
  0
LINE
  5
376
100
AcDbEntity
  8
0
370
    15
390
0
  6
Continuous
 62
     7
100
AcDbLine
 10
21.198308
 20
14.857162
 30
0.0
 11
21.014359
 21
14.857162
 31
0.0
  0
LINE
  5
377
100
AcDbEntity
  8
0
370
    15
390
0
  6
Continuous
 62
     7
100
AcDbLine
 10
21.198308
 20
14.819637
 30
0.0
 11
21.198308
 21
14.857162
 31
0.0
  0
LINE
  5
378
100
AcDbEntity
  8
0
370
    15
390
0
  6
Continuous
 62
     7
100
AcDbLine
 10
21.014359
 20
14.819637
 30
0.0
 11
21.198308
 21
14.819637
 31
0.0
  0
LINE
  5
379
100
AcDbEntity
  8
0
370
    15
390
0
  6
Continuous
 62
     7
100
AcDbLine
 10
21.014359
 20
14.764717
 30
0.0
 11
21.014359
 21
14.819637
 31
0.0
  0
LINE
  5
37A
100
AcDbEntity
  8
0
370
    15
390
0
  6
Continuous
 62
     7
100
AcDbLine
 10
21.253308
 20
14.764717
 30
0.0
 11
21.014359
 21
14.764717
 31
0.0
  0
LINE
  5
37B
100
AcDbEntity
  8
0
370
    15
390
0
  6
Continuous
 62
     7
100
AcDbLine
 10
21.253308
 20
14.912868
 30
0.0
 11
21.253308
 21
14.764717
 31
0.0
  0
LINE
  5
37C
100
AcDbEntity
  8
0
370
    15
390
0
  6
Continuous
 62
     7
100
AcDbLine
 10
21.253308
 20
14.912868
 30
0.0
 11
21.014359
 21
14.912868
 31
0.0
  0
LINE
  5
37D
100
AcDbEntity
  8
0
370
    15
390
0
  6
Continuous
 62
     7
100
AcDbLine
 10
21.229834
 20
14.548557
 30
0.0
 11
21.296517
 21
14.548557
 31
0.0
  0
LINE
  5
37E
100
AcDbEntity
  8
0
370
    15
390
0
  6
Continuous
 62
     7
100
AcDbLine
 10
21.229834
 20
14.468197
 30
0.0
 11
21.229834
 21
14.548557
 31
0.0
  0
LINE
  5
37F
100
AcDbEntity
  8
0
370
    15
390
0
  6
Continuous
 62
     7
100
AcDbLine
 10
21.033833
 20
14.468197
 30
0.0
 11
21.229834
 21
14.468197
 31
0.0
  0
LINE
  5
380
100
AcDbEntity
  8
0
370
    15
390
0
  6
Continuous
 62
     7
100
AcDbLine
 10
21.033833
 20
14.508377
 30
0.0
 11
21.033833
 21
14.468197
 31
0.0
  0
LINE
  5
381
100
AcDbEntity
  8
0
370
    15
390
0
  6
Continuous
 62
     7
100
AcDbLine
 10
21.189654
 20
14.508377
 30
0.0
 11
21.033833
 21
14.508377
 31
0.0
  0
LINE
  5
382
100
AcDbEntity
  8
0
370
    15
390
0
  6
Continuous
 62
     7
100
AcDbLine
 10
21.189654
 20
14.548557
 30
0.0
 11
21.189654
 21
14.508377
 31
0.0
  0
LINE
  5
383
100
AcDbEntity
  8
0
370
    15
390
0
  6
Continuous
 62
     7
100
AcDbLine
 10
21.033833
 20
14.548557
 30
0.0
 11
21.189654
 21
14.548557
 31
0.0
  0
LINE
  5
384
100
AcDbEntity
  8
0
370
    15
390
0
  6
Continuous
 62
     7
100
AcDbLine
 10
21.033833
 20
14.588737
 30
0.0
 11
21.033833
 21
14.548557
 31
0.0
  0
LINE
  5
385
100
AcDbEntity
  8
0
370
    15
390
0
  6
Continuous
 62
     7
100
AcDbLine
 10
21.296517
 20
14.588737
 30
0.0
 11
21.033833
 21
14.588737
 31
0.0
  0
LINE
  5
386
100
AcDbEntity
  8
0
370
    15
390
0
  6
Continuous
 62
     7
100
AcDbLine
 10
21.296517
 20
14.588737
 30
0.0
 11
21.296517
 21
14.548557
 31
0.0
  0
LINE
  5
387
100
AcDbEntity
  8
0
370
    15
390
0
  6
Continuous
 62
     7
100
AcDbLine
 10
21.074014
 20
14.387836
 30
0.0
 11
21.229834
 21
14.387836
 31
0.0
  0
LINE
  5
388
100
AcDbEntity
  8
0
370
    15
390
0
  6
Continuous
 62
     7
100
AcDbLine
 10
21.074014
 20
14.347656
 30
0.0
 11
21.074014
 21
14.387836
 31
0.0
  0
LINE
  5
389
100
AcDbEntity
  8
0
370
    15
390
0
  6
Continuous
 62
     7
100
AcDbLine
 10
21.229834
 20
14.347656
 30
0.0
 11
21.074014
 21
14.347656
 31
0.0
  0
LINE
  5
38A
100
AcDbEntity
  8
0
370
    15
390
0
  6
Continuous
 62
     7
100
AcDbLine
 10
21.229834
 20
14.307476
 30
0.0
 11
21.229834
 21
14.347656
 31
0.0
  0
LINE
  5
38B
100
AcDbEntity
  8
0
370
    15
390
0
  6
Continuous
 62
     7
100
AcDbLine
 10
20.954175
 20
14.307476
 30
0.0
 11
21.229834
 21
14.307476
 31
0.0
  0
LINE
  5
38C
100
AcDbEntity
  8
0
370
    15
390
0
  6
Continuous
 62
     7
100
AcDbLine
 10
20.953473
 20
14.385395
 30
0.0
 11
20.954175
 21
14.307476
 31
0.0
  0
LINE
  5
38D
100
AcDbEntity
  8
0
370
    15
390
0
  6
Continuous
 62
     7
100
AcDbLine
 10
20.993653
 20
14.385395
 30
0.0
 11
20.953473
 21
14.385395
 31
0.0
  0
LINE
  5
38E
100
AcDbEntity
  8
0
370
    15
390
0
  6
Continuous
 62
     7
100
AcDbLine
 10
20.993653
 20
14.347656
 30
0.0
 11
20.993653
 21
14.385395
 31
0.0
  0
LINE
  5
38F
100
AcDbEntity
  8
0
370
    15
390
0
  6
Continuous
 62
     7
100
AcDbLine
 10
21.033833
 20
14.347656
 30
0.0
 11
20.993653
 21
14.347656
 31
0.0
  0
LINE
  5
390
100
AcDbEntity
  8
0
370
    15
390
0
  6
Continuous
 62
     7
100
AcDbLine
 10
21.033833
 20
14.428016
 30
0.0
 11
21.033833
 21
14.347656
 31
0.0
  0
LINE
  5
391
100
AcDbEntity
  8
0
370
    15
390
0
  6
Continuous
 62
     7
100
AcDbLine
 10
21.229834
 20
14.428016
 30
0.0
 11
21.033833
 21
14.428016
 31
0.0
  0
LINE
  5
392
100
AcDbEntity
  8
0
370
    15
390
0
  6
Continuous
 62
     7
100
AcDbLine
 10
21.229834
 20
14.428016
 30
0.0
 11
21.229834
 21
14.387836
 31
0.0
  0
LINE
  5
393
100
AcDbEntity
  8
0
370
    15
390
0
  6
Continuous
 62
     7
100
AcDbLine
 10
21.296517
 20
14.185421
 30
0.0
 11
21.229834
 21
14.185421
 31
0.0
  0
LINE
  5
394
100
AcDbEntity
  8
0
370
    15
390
0
  6
Continuous
 62
     7
100
AcDbLine
 10
21.296517
 20
14.145237
 30
0.0
 11
21.296517
 21
14.185421
 31
0.0
  0
LINE
  5
395
100
AcDbEntity
  8
0
370
    15
390
0
  6
Continuous
 62
     7
100
AcDbLine
 10
21.033833
 20
14.145237
 30
0.0
 11
21.296517
 21
14.145237
 31
0.0
  0
LINE
  5
396
100
AcDbEntity
  8
0
370
    15
390
0
  6
Continuous
 62
     7
100
AcDbLine
 10
21.033833
 20
14.265781
 30
0.0
 11
21.033833
 21
14.145237
 31
0.0
  0
LINE
  5
397
100
AcDbEntity
  8
0
370
    15
390
0
  6
Continuous
 62
     7
100
AcDbLine
 10
21.229834
 20
14.265781
 30
0.0
 11
21.033833
 21
14.265781
 31
0.0
  0
LINE
  5
398
100
AcDbEntity
  8
0
370
    15
390
0
  6
Continuous
 62
     7
100
AcDbLine
 10
21.229834
 20
14.265781
 30
0.0
 11
21.229834
 21
14.185421
 31
0.0
  0
LINE
  5
399
100
AcDbEntity
  8
0
370
    15
390
0
  6
Continuous
 62
     7
100
AcDbLine
 10
21.189654
 20
14.185421
 30
0.0
 11
21.074014
 21
14.185421
 31
0.0
  0
LINE
  5
39A
100
AcDbEntity
  8
0
370
    15
390
0
  6
Continuous
 62
     7
100
AcDbLine
 10
21.074014
 20
14.225597
 30
0.0
 11
21.074014
 21
14.185421
 31
0.0
  0
LINE
  5
39B
100
AcDbEntity
  8
0
370
    15
390
0
  6
Continuous
 62
     7
100
AcDbLine
 10
21.189654
 20
14.225597
 30
0.0
 11
21.074014
 21
14.225597
 31
0.0
  0
LINE
  5
39C
100
AcDbEntity
  8
0
370
    15
390
0
  6
Continuous
 62
     7
100
AcDbLine
 10
21.189654
 20
14.225597
 30
0.0
 11
21.189654
 21
14.185421
 31
0.0
  0
LINE
  5
39D
100
AcDbEntity
  8
0
370
    15
390
0
  6
Continuous
 62
     7
100
AcDbLine
 10
21.189654
 20
14.0247
 30
0.0
 11
21.229834
 21
14.0247
 31
0.0
  0
LINE
  5
39E
100
AcDbEntity
  8
0
370
    15
390
0
  6
Continuous
 62
     7
100
AcDbLine
 10
21.189654
 20
14.06488
 30
0.0
 11
21.189654
 21
14.0247
 31
0.0
  0
LINE
  5
39F
100
AcDbEntity
  8
0
370
    15
390
0
  6
Continuous
 62
     7
100
AcDbLine
 10
21.033833
 20
14.06488
 30
0.0
 11
21.189654
 21
14.06488
 31
0.0
  0
LINE
  5
3A0
100
AcDbEntity
  8
0
370
    15
390
0
  6
Continuous
 62
     7
100
AcDbLine
 10
21.033833
 20
14.10506
 30
0.0
 11
21.033833
 21
14.06488
 31
0.0
  0
LINE
  5
3A1
100
AcDbEntity
  8
0
370
    15
390
0
  6
Continuous
 62
     7
100
AcDbLine
 10
21.229834
 20
14.10506
 30
0.0
 11
21.033833
 21
14.10506
 31
0.0
  0
LINE
  5
3A2
100
AcDbEntity
  8
0
370
    15
390
0
  6
Continuous
 62
     7
100
AcDbLine
 10
21.229834
 20
14.10506
 30
0.0
 11
21.229834
 21
14.0247
 31
0.0
  0
LINE
  5
3A3
100
AcDbEntity
  8
0
370
    15
390
0
  6
Continuous
 62
     7
100
AcDbLine
 10
21.074014
 20
13.783619
 30
0.0
 11
21.229834
 21
13.783619
 31
0.0
  0
LINE
  5
3A4
100
AcDbEntity
  8
0
370
    15
390
0
  6
Continuous
 62
     7
100
AcDbLine
 10
21.074014
 20
13.743438
 30
0.0
 11
21.074014
 21
13.783619
 31
0.0
  0
LINE
  5
3A5
100
AcDbEntity
  8
0
370
    15
390
0
  6
Continuous
 62
     7
100
AcDbLine
 10
21.229834
 20
13.743438
 30
0.0
 11
21.074014
 21
13.743438
 31
0.0
  0
LINE
  5
3A6
100
AcDbEntity
  8
0
370
    15
390
0
  6
Continuous
 62
     7
100
AcDbLine
 10
21.229834
 20
13.703258
 30
0.0
 11
21.229834
 21
13.743438
 31
0.0
  0
LINE
  5
3A7
100
AcDbEntity
  8
0
370
    15
390
0
  6
Continuous
 62
     7
100
AcDbLine
 10
21.033833
 20
13.703258
 30
0.0
 11
21.229834
 21
13.703258
 31
0.0
  0
LINE
  5
3A8
100
AcDbEntity
  8
0
370
    15
390
0
  6
Continuous
 62
     7
100
AcDbLine
 10
21.033833
 20
13.823799
 30
0.0
 11
21.033833
 21
13.703258
 31
0.0
  0
LINE
  5
3A9
100
AcDbEntity
  8
0
370
    15
390
0
  6
Continuous
 62
     7
100
AcDbLine
 10
21.229834
 20
13.823799
 30
0.0
 11
21.033833
 21
13.823799
 31
0.0
  0
LINE
  5
3AA
100
AcDbEntity
  8
0
370
    15
390
0
  6
Continuous
 62
     7
100
AcDbLine
 10
21.229834
 20
13.823799
 30
0.0
 11
21.229834
 21
13.783619
 31
0.0
  0
LINE
  5
3AB
100
AcDbEntity
  8
0
370
    15
390
0
  6
Continuous
 62
     7
100
AcDbLine
 10
21.033833
 20
13.622898
 30
0.0
 11
21.296517
 21
13.622898
 31
0.0
  0
LINE
  5
3AC
100
AcDbEntity
  8
0
370
    15
390
0
  6
Continuous
 62
     7
100
AcDbLine
 10
21.033833
 20
13.663078
 30
0.0
 11
21.033833
 21
13.622898
 31
0.0
  0
LINE
  5
3AD
100
AcDbEntity
  8
0
370
    15
390
0
  6
Continuous
 62
     7
100
AcDbLine
 10
21.296517
 20
13.663078
 30
0.0
 11
21.033833
 21
13.663078
 31
0.0
  0
LINE
  5
3AE
100
AcDbEntity
  8
0
370
    15
390
0
  6
Continuous
 62
     7
100
AcDbLine
 10
21.296517
 20
13.663078
 30
0.0
 11
21.296517
 21
13.622898
 31
0.0
  0
LINE
  5
3AF
100
AcDbEntity
  8
0
370
    15
390
0
  6
Continuous
 62
     7
100
AcDbLine
 10
21.256337
 20
13.542537
 30
0.0
 11
21.296517
 21
13.542537
 31
0.0
  0
LINE
  5
3B0
100
AcDbEntity
  8
0
370
    15
390
0
  6
Continuous
 62
     7
100
AcDbLine
 10
21.256337
 20
13.582718
 30
0.0
 11
21.256337
 21
13.542537
 31
0.0
  0
LINE
  5
3B1
100
AcDbEntity
  8
0
370
    15
390
0
  6
Continuous
 62
     7
100
AcDbLine
 10
21.296517
 20
13.582718
 30
0.0
 11
21.256337
 21
13.582718
 31
0.0
  0
LINE
  5
3B2
100
AcDbEntity
  8
0
370
    15
390
0
  6
Continuous
 62
     7
100
AcDbLine
 10
21.296517
 20
13.582718
 30
0.0
 11
21.296517
 21
13.542537
 31
0.0
  0
LINE
  5
3B3
100
AcDbEntity
  8
0
370
    15
390
0
  6
Continuous
 62
     7
100
AcDbLine
 10
21.033833
 20
13.542537
 30
0.0
 11
21.229834
 21
13.542537
 31
0.0
  0
LINE
  5
3B4
100
AcDbEntity
  8
0
370
    15
390
0
  6
Continuous
 62
     7
100
AcDbLine
 10
21.033833
 20
13.582718
 30
0.0
 11
21.033833
 21
13.542537
 31
0.0
  0
LINE
  5
3B5
100
AcDbEntity
  8
0
370
    15
390
0
  6
Continuous
 62
     7
100
AcDbLine
 10
21.229834
 20
13.582718
 30
0.0
 11
21.033833
 21
13.582718
 31
0.0
  0
LINE
  5
3B6
100
AcDbEntity
  8
0
370
    15
390
0
  6
Continuous
 62
     7
100
AcDbLine
 10
21.229834
 20
13.582718
 30
0.0
 11
21.229834
 21
13.542537
 31
0.0
  0
LINE
  5
3B7
100
AcDbEntity
  8
0
370
    15
390
0
  6
Continuous
 62
     7
100
AcDbLine
 10
21.189654
 20
13.386615
 30
0.0
 11
21.229834
 21
13.386615
 31
0.0
  0
LINE
  5
3B8
100
AcDbEntity
  8
0
370
    15
390
0
  6
Continuous
 62
     7
100
AcDbLine
 10
21.189654
 20
13.462177
 30
0.0
 11
21.189654
 21
13.386615
 31
0.0
  0
LINE
  5
3B9
100
AcDbEntity
  8
0
370
    15
390
0
  6
Continuous
 62
     7
100
AcDbLine
 10
21.074014
 20
13.462177
 30
0.0
 11
21.189654
 21
13.462177
 31
0.0
  0
LINE
  5
3BA
100
AcDbEntity
  8
0
370
    15
390
0
  6
Continuous
 62
     7
100
AcDbLine
 10
21.074014
 20
13.386615
 30
0.0
 11
21.074014
 21
13.462177
 31
0.0
  0
LINE
  5
3BB
100
AcDbEntity
  8
0
370
    15
390
0
  6
Continuous
 62
     7
100
AcDbLine
 10
21.033833
 20
13.386615
 30
0.0
 11
21.074014
 21
13.386615
 31
0.0
  0
LINE
  5
3BC
100
AcDbEntity
  8
0
370
    15
390
0
  6
Continuous
 62
     7
100
AcDbLine
 10
21.033833
 20
13.502357
 30
0.0
 11
21.033833
 21
13.386615
 31
0.0
  0
LINE
  5
3BD
100
AcDbEntity
  8
0
370
    15
390
0
  6
Continuous
 62
     7
100
AcDbLine
 10
21.229834
 20
13.502357
 30
0.0
 11
21.033833
 21
13.502357
 31
0.0
  0
LINE
  5
3BE
100
AcDbEntity
  8
0
370
    15
390
0
  6
Continuous
 62
     7
100
AcDbLine
 10
21.229834
 20
13.502357
 30
0.0
 11
21.229834
 21
13.386615
 31
0.0
  0
LINE
  5
3BF
100
AcDbEntity
  8
0
370
    15
390
0
  6
Continuous
 62
     7
100
AcDbLine
 10
21.189654
 20
13.219154
 30
0.0
 11
21.229834
 21
13.219154
 31
0.0
  0
LINE
  5
3C0
100
AcDbEntity
  8
0
370
    15
390
0
  6
Continuous
 62
     7
100
AcDbLine
 10
21.189654
 20
13.306255
 30
0.0
 11
21.189654
 21
13.219154
 31
0.0
  0
LINE
  5
3C1
100
AcDbEntity
  8
0
370
    15
390
0
  6
Continuous
 62
     7
100
AcDbLine
 10
21.151925
 20
13.306255
 30
0.0
 11
21.189654
 21
13.306255
 31
0.0
  0
LINE
  5
3C2
100
AcDbEntity
  8
0
370
    15
390
0
  6
Continuous
 62
     7
100
AcDbLine
 10
21.151925
 20
13.219154
 30
0.0
 11
21.151925
 21
13.306255
 31
0.0
  0
LINE
  5
3C3
100
AcDbEntity
  8
0
370
    15
390
0
  6
Continuous
 62
     7
100
AcDbLine
 10
21.033833
 20
13.219154
 30
0.0
 11
21.151925
 21
13.219154
 31
0.0
  0
LINE
  5
3C4
100
AcDbEntity
  8
0
370
    15
390
0
  6
Continuous
 62
     7
100
AcDbLine
 10
21.033833
 20
13.346435
 30
0.0
 11
21.033833
 21
13.219154
 31
0.0
  0
LINE
  5
3C5
100
AcDbEntity
  8
0
370
    15
390
0
  6
Continuous
 62
     7
100
AcDbLine
 10
21.074014
 20
13.346435
 30
0.0
 11
21.033833
 21
13.346435
 31
0.0
  0
LINE
  5
3C6
100
AcDbEntity
  8
0
370
    15
390
0
  6
Continuous
 62
     7
100
AcDbLine
 10
21.074014
 20
13.259334
 30
0.0
 11
21.074014
 21
13.346435
 31
0.0
  0
LINE
  5
3C7
100
AcDbEntity
  8
0
370
    15
390
0
  6
Continuous
 62
     7
100
AcDbLine
 10
21.111745
 20
13.259334
 30
0.0
 11
21.074014
 21
13.259334
 31
0.0
  0
LINE
  5
3C8
100
AcDbEntity
  8
0
370
    15
390
0
  6
Continuous
 62
     7
100
AcDbLine
 10
21.111745
 20
13.346435
 30
0.0
 11
21.111745
 21
13.259334
 31
0.0
  0
LINE
  5
3C9
100
AcDbEntity
  8
0
370
    15
390
0
  6
Continuous
 62
     7
100
AcDbLine
 10
21.229834
 20
13.346435
 30
0.0
 11
21.111745
 21
13.346435
 31
0.0
  0
LINE
  5
3CA
100
AcDbEntity
  8
0
370
    15
390
0
  6
Continuous
 62
     7
100
AcDbLine
 10
21.229834
 20
13.346435
 30
0.0
 11
21.229834
 21
13.219154
 31
0.0
  0
LINE
  5
3CB
100
AcDbEntity
  8
0
370
    15
390
0
  6
Continuous
 62
     7
100
AcDbLine
 10
21.033833
 20
13.863979
 30
0.0
 11
21.229834
 21
13.863979
 31
0.0
  0
LINE
  5
3CC
100
AcDbEntity
  8
0
370
    15
390
0
  6
Continuous
 62
     7
100
AcDbLine
 10
21.033833
 20
13.98452
 30
0.0
 11
21.033833
 21
13.863979
 31
0.0
  0
LINE
  5
3CD
100
AcDbEntity
  8
0
370
    15
390
0
  6
Continuous
 62
     7
100
AcDbLine
 10
21.154374
 20
13.98452
 30
0.0
 11
21.033833
 21
13.98452
 31
0.0
  0
LINE
  5
3CE
100
AcDbEntity
  8
0
370
    15
390
0
  6
Continuous
 62
     7
100
AcDbLine
 10
21.154374
 20
13.904159
 30
0.0
 11
21.154374
 21
13.98452
 31
0.0
  0
LINE
  5
3CF
100
AcDbEntity
  8
0
370
    15
390
0
  6
Continuous
 62
     7
100
AcDbLine
 10
21.189654
 20
13.904159
 30
0.0
 11
21.154374
 21
13.904159
 31
0.0
  0
LINE
  5
3D0
100
AcDbEntity
  8
0
370
    15
390
0
  6
Continuous
 62
     7
100
AcDbLine
 10
21.189654
 20
13.966743
 30
0.0
 11
21.189654
 21
13.904159
 31
0.0
  0
LINE
  5
3D1
100
AcDbEntity
  8
0
370
    15
390
0
  6
Continuous
 62
     7
100
AcDbLine
 10
21.229834
 20
13.966743
 30
0.0
 11
21.189654
 21
13.966743
 31
0.0
  0
LINE
  5
3D2
100
AcDbEntity
  8
0
370
    15
390
0
  6
Continuous
 62
     7
100
AcDbLine
 10
21.229834
 20
13.966743
 30
0.0
 11
21.229834
 21
13.863979
 31
0.0
  0
LINE
  5
3D3
100
AcDbEntity
  8
0
370
    15
390
0
  6
Continuous
 62
     7
100
AcDbLine
 10
21.074014
 20
13.904159
 30
0.0
 11
21.114194
 21
13.904159
 31
0.0
  0
LINE
  5
3D4
100
AcDbEntity
  8
0
370
    15
390
0
  6
Continuous
 62
     7
100
AcDbLine
 10
21.074014
 20
13.944339
 30
0.0
 11
21.074014
 21
13.904159
 31
0.0
  0
LINE
  5
3D5
100
AcDbEntity
  8
0
370
    15
390
0
  6
Continuous
 62
     7
100
AcDbLine
 10
21.114194
 20
13.944339
 30
0.0
 11
21.074014
 21
13.944339
 31
0.0
  0
LINE
  5
3D6
100
AcDbEntity
  8
0
370
    15
390
0
  6
Continuous
 62
     7
100
AcDbLine
 10
21.114194
 20
13.944339
 30
0.0
 11
21.114194
 21
13.904159
 31
0.0
  0
HATCH
  5
3D7
100
AcDbEntity
  8
0
370
    15
390
0
  6
Continuous
 62
   174
100
AcDbHatch
 10
0.0
 20
0.0
 30
0.0
210
0.0
220
0.0
230
1.0
  2
SOLID
 70
     1
 71
     0
 91
        4
 92
        1
 93
        1
 72
     2
 10
21.133835632457913
 20
15.032813740487912
 40
0.3120002746582031
 50
0.0
 51
359.999994
 73
     1
 97
        0
 92
        1
 93
       12
 72
     1
 10
21.198841888561429
 20
15.150600147958615
 11
21.253308136120022
 21
15.150600147958615
 72
     1
 10
21.253308136120022
 20
15.150600147958615
 11
21.253308136120022
 21
15.298751545663693
 72
     1
 10
21.253308136120022
 20
15.298751545663693
 11
21.105952102794827
 21
15.298751545663693
 72
     1
 10
21.105952102794827
 20
15.298751545663693
 11
21.105952102794827
 21
15.205600453134396
 72
     1
 10
21.105952102794827
 20
15.205600453134396
 11
21.069401580944241
 21
15.205600453134396
 72
     1
 10
21.069401580944241
 20
15.205600453134396
 11
21.069401580944241
 21
15.298751545663693
 72
     1
 10
21.069401580944241
 20
15.298751545663693
 11
21.014359314098538
 21
15.298751545663693
 72
     1
 10
21.014359314098538
 20
15.298751545663693
 11
21.014359314098538
 21
15.150600147958615
 72
     1
 10
21.014359314098538
 20
15.150600147958615
 11
21.161335785045804
 21
15.150600147958615
 72
     1
 10
21.161335785045804
 20
15.150600147958615
 11
21.161335785045804
 21
15.243751240487912
 72
     1
 10
21.161335785045804
 20
15.243751240487912
 11
21.198841888561429
 21
15.243751240487912
 72
     1
 10
21.198841888561429
 20
15.243751240487912
 11
21.198841888561429
 21
15.150600147958615
 97
        0
 92
        1
 93
        8
 72
     1
 10
21.253308136120022
 20
14.958739948984006
 11
21.253308136120022
 21
15.014445973153927
 72
     1
 10
21.253308136120022
 20
15.014445973153927
 11
21.069359619274319
 21
15.014445973153927
 72
     1
 10
21.069359619274319
 20
15.014445973153927
 11
21.069359619274319
 21
15.051971150155881
 72
     1
 10
21.069359619274319
 20
15.051971150155881
 11
21.253308136120022
 21
15.051971150155881
 72
     1
 10
21.253308136120022
 20
15.051971150155881
 11
21.253308136120022
 21
15.106891346689084
 72
     1
 10
21.253308136120022
 20
15.106891346689084
 11
21.014359314098538
 21
15.106891346689084
 72
     1
 10
21.014359314098538
 20
15.106891346689084
 11
21.014359314098538
 21
14.958739948984006
 72
     1
 10
21.014359314098538
 20
14.958739948984006
 11
21.253308136120022
 21
14.958739948984006
 97
        0
 92
        1
 93
        8
 72
     1
 10
21.014359314098538
 20
14.857162190194943
 11
21.014359314098538
 21
14.912868214364865
 72
     1
 10
21.014359314098538
 20
14.912868214364865
 11
21.253308136120022
 21
14.912868214364865
 72
     1
 10
21.253308136120022
 20
14.912868214364865
 11
21.253308136120022
 21
14.764716816659787
 72
     1
 10
21.253308136120022
 20
14.764716816659787
 11
21.014359314098538
 21
14.764716816659787
 72
     1
 10
21.014359314098538
 20
14.764716816659787
 11
21.014359314098538
 21
14.81963701319299
 72
     1
 10
21.014359314098538
 20
14.81963701319299
 11
21.198307830944241
 21
14.81963701319299
 72
     1
 10
21.198307830944241
 20
14.81963701319299
 11
21.198307830944241
 21
14.857162190194943
 72
     1
 10
21.198307830944241
 20
14.857162190194943
 11
21.014359314098538
 21
14.857162190194943
 97
        0
 75
     0
 76
     1
 98
        1
 10
0.0
 20
0.0
  0
HATCH
  5
3D8
100
AcDbEntity
  8
0
370
    15
390
0
  6
Continuous
 62
   174
100
AcDbHatch
 10
0.0
 20
0.0
 30
0.0
210
0.0
220
0.0
230
1.0
  2
SOLID
 70
     1
 71
     0
 91
        4
 92
        1
 93
       10
 72
     1
 10
21.229834396495999
 20
14.548556996103146
 11
21.296517212047757
 21
14.548556996103146
 72
     1
 10
21.296517212047757
 20
14.548556996103146
 11
21.296517212047757
 21
14.588737202401974
 72
     1
 10
21.296517212047757
 20
14.588737202401974
 11
21.033833343639554
 21
14.588737202401974
 72
     1
 10
21.033833343639554
 20
14.588737202401974
 11
21.033833343639554
 21
14.548556996103146
 72
     1
 10
21.033833343639554
 20
14.548556996103146
 11
21.189654190197171
 21
14.548556996103146
 72
     1
 10
21.189654190197171
 20
14.548556996103146
 11
21.189654190197171
 21
14.508376789804318
 72
     1
 10
21.189654190197171
 20
14.508376789804318
 11
21.033833343639554
 21
14.508376789804318
 72
     1
 10
21.033833343639554
 20
14.508376789804318
 11
21.033833343639554
 21
14.46819658350549
 72
     1
 10
21.033833343639554
 20
14.46819658350549
 11
21.229834396495999
 21
14.46819658350549
 72
     1
 10
21.229834396495999
 20
14.46819658350549
 11
21.229834396495999
 21
14.548556996103146
 97
        0
 92
        1
 93
       12
 72
     1
 10
21.074013549938382
 20
14.387836170907834
 11
21.229834396495999
 21
14.387836170907834
 72
     1
 10
21.229834396495999
 20
14.387836170907834
 11
21.229834396495999
 21
14.428016377206662
 72
     1
 10
21.229834396495999
 20
14.428016377206662
 11
21.033833343639554
 21
14.428016377206662
 72
     1
 10
21.033833343639554
 20
14.428016377206662
 11
21.033833343639554
 21
14.347655964609006
 72
     1
 10
21.033833343639554
 20
14.347655964609006
 11
20.993653137340726
 21
14.347655964609006
 72
     1
 10
20.993653137340726
 20
14.347655964609006
 11
20.993653137340726
 21
14.385394764657834
 72
     1
 10
20.993653137340726
 20
14.385394764657834
 11
20.953472931041897
 21
14.385394764657834
 72
     1
 10
20.953472931041897
 20
14.385394764657834
 11
20.954174835338772
 21
14.307475758310177
 72
     1
 10
20.954174835338772
 20
14.307475758310177
 11
21.229834396495999
 21
14.307475758310177
 72
     1
 10
21.229834396495999
 20
14.307475758310177
 11
21.229834396495999
 21
14.347655964609006
 72
     1
 10
21.229834396495999
 20
14.347655964609006
 11
21.074013549938382
 21
14.347655964609006
 72
     1
 10
21.074013549938382
 20
14.347655964609006
 11
21.074013549938382
 21
14.387836170907834
 97
        0
 92
        1
 93
        6
 72
     1
 10
21.296517212047757
 20
14.18542070459924
 11
21.229834396495999
 21
14.18542070459924
 72
     1
 10
21.229834396495999
 20
14.18542070459924
 11
21.229834396495999
 21
14.265781117196896
 72
     1
 10
21.229834396495999
 20
14.265781117196896
 11
21.033833343639554
 21
14.265781117196896
 72
     1
 10
21.033833343639554
 20
14.265781117196896
 11
21.033833343639554
 21
14.145236683603146
 72
     1
 10
21.033833343639554
 20
14.145236683603146
 11
21.296517212047757
 21
14.145236683603146
 72
     1
 10
21.296517212047757
 20
14.145236683603146
 11
21.296517212047757
 21
14.18542070459924
 97
        0
 92
        1
 93
        4
 72
     1
 10
21.189654190197171
 20
14.18542070459924
 11
21.074013549938382
 21
14.18542070459924
 72
     1
 10
21.074013549938382
 20
14.18542070459924
 11
21.074013549938382
 21
14.225597096200802
 72
     1
 10
21.074013549938382
 20
14.225597096200802
 11
21.189654190197171
 21
14.225597096200802
 72
     1
 10
21.189654190197171
 20
14.225597096200802
 11
21.189654190197171
 21
14.18542070459924
 97
        0
 75
     0
 76
     1
 98
        1
 10
0.0
 20
0.0
  0
HATCH
  5
3D9
100
AcDbEntity
  8
0
370
    15
390
0
  6
Continuous
 62
   174
100
AcDbHatch
 10
0.0
 20
0.0
 30
0.0
210
0.0
220
0.0
230
1.0
  2
SOLID
 70
     1
 71
     0
 91
        8
 92
        1
 93
        6
 72
     1
 10
21.189654190197171
 20
14.024699879403927
 11
21.229834396495999
 21
14.024699879403927
 72
     1
 10
21.229834396495999
 20
14.024699879403927
 11
21.229834396495999
 21
14.105060292001584
 72
     1
 10
21.229834396495999
 20
14.105060292001584
 11
21.033833343639554
 21
14.105060292001584
 72
     1
 10
21.033833343639554
 20
14.105060292001584
 11
21.033833343639554
 21
14.064880085702756
 72
     1
 10
21.033833343639554
 20
14.064880085702756
 11
21.189654190197171
 21
14.064880085702756
 72
     1
 10
21.189654190197171
 20
14.064880085702756
 11
21.189654190197171
 21
14.024699879403927
 97
        0
 92
        1
 93
        8
 72
     1
 10
21.074013549938382
 20
13.783618641610959
 11
21.229834396495999
 21
13.783618641610959
 72
     1
 10
21.229834396495999
 20
13.783618641610959
 11
21.229834396495999
 21
13.823798847909787
 72
     1
 10
21.229834396495999
 20
13.823798847909787
 11
21.033833343639554
 21
13.823798847909787
 72
     1
 10
21.033833343639554
 20
13.823798847909787
 11
21.033833343639554
 21
13.703258229013302
 72
     1
 10
21.033833343639554
 20
13.703258229013302
 11
21.229834396495999
 21
13.703258229013302
 72
     1
 10
21.229834396495999
 20
13.703258229013302
 11
21.229834396495999
 21
13.743438435312131
 72
     1
 10
21.229834396495999
 20
13.743438435312131
 11
21.074013549938382
 21
13.743438435312131
 72
     1
 10
21.074013549938382
 20
13.743438435312131
 11
21.074013549938382
 21
13.783618641610959
 97
        0
 92
        1
 93
        4
 72
     1
 10
21.033833343639554
 20
13.622897816415646
 11
21.296517212047757
 21
13.622897816415646
 72
     1
 10
21.296517212047757
 20
13.622897816415646
 11
21.296517212047757
 21
13.663078022714474
 72
     1
 10
21.296517212047757
 20
13.663078022714474
 11
21.033833343639554
 21
13.663078022714474
 72
     1
 10
21.033833343639554
 20
13.663078022714474
 11
21.033833343639554
 21
13.622897816415646
 97
        0
 92
        1
 93
        4
 72
     1
 10
21.256337005748929
 20
13.54253740381799
 11
21.296517212047757
 21
13.54253740381799
 72
     1
 10
21.296517212047757
 20
13.54253740381799
 11
21.296517212047757
 21
13.582717610116818
 72
     1
 10
21.296517212047757
 20
13.582717610116818
 11
21.256337005748929
 21
13.582717610116818
 72
     1
 10
21.256337005748929
 20
13.582717610116818
 11
21.256337005748929
 21
13.54253740381799
 97
        0
 92
        1
 93
        4
 72
     1
 10
21.033833343639554
 20
13.54253740381799
 11
21.229834396495999
 21
13.54253740381799
 72
     1
 10
21.229834396495999
 20
13.54253740381799
 11
21.229834396495999
 21
13.582717610116818
 72
     1
 10
21.229834396495999
 20
13.582717610116818
 11
21.033833343639554
 21
13.582717610116818
 72
     1
 10
21.033833343639554
 20
13.582717610116818
 11
21.033833343639554
 21
13.54253740381799
 97
        0
 92
        1
 93
        8
 72
     1
 10
21.189654190197171
 20
13.386615467782834
 11
21.229834396495999
 21
13.386615467782834
 72
     1
 10
21.229834396495999
 20
13.386615467782834
 11
21.229834396495999
 21
13.502357197519162
 72
     1
 10
21.229834396495999
 20
13.502357197519162
 11
21.033833343639554
 21
13.502357197519162
 72
     1
 10
21.033833343639554
 20
13.502357197519162
 11
21.033833343639554
 21
13.386615467782834
 72
     1
 10
21.033833343639554
 20
13.386615467782834
 11
21.074013549938382
 21
13.386615467782834
 72
     1
 10
21.074013549938382
 20
13.386615467782834
 11
21.074013549938382
 21
13.462176991220334
 72
     1
 10
21.074013549938382
 20
13.462176991220334
 11
21.189654190197171
 21
13.462176991220334
 72
     1
 10
21.189654190197171
 20
13.462176991220334
 11
21.189654190197171
 21
13.386615467782834
 97
        0
 92
        1
 93
        8
 72
     1
 10
21.033833343639554
 20
13.863979054208615
 11
21.229834396495999
 21
13.863979054208615
 72
     1
 10
21.229834396495999
 20
13.863979054208615
 11
21.229834396495999
 21
13.966743183847287
 72
     1
 10
21.229834396495999
 20
13.966743183847287
 11
21.189654190197171
 21
13.966743183847287
 72
     1
 10
21.189654190197171
 20
13.966743183847287
 11
21.189654190197171
 21
13.904159260507443
 72
     1
 10
21.189654190197171
 20
13.904159260507443
 11
21.154373962536038
 21
13.904159260507443
 72
     1
 10
21.154373962536038
 20
13.904159260507443
 11
21.154373962536038
 21
13.984519673105099
 72
     1
 10
21.154373962536038
 20
13.984519673105099
 11
21.033833343639554
 21
13.984519673105099
 72
     1
 10
21.033833343639554
 20
13.984519673105099
 11
21.033833343639554
 21
13.863979054208615
 97
        0
 92
        1
 93
        4
 72
     1
 10
21.074013549938382
 20
13.904159260507443
 11
21.11419375623721
 21
13.904159260507443
 72
     1
 10
21.11419375623721
 20
13.904159260507443
 11
21.11419375623721
 21
13.944339466806271
 72
     1
 10
21.11419375623721
 20
13.944339466806271
 11
21.074013549938382
 21
13.944339466806271
 72
     1
 10
21.074013549938382
 20
13.944339466806271
 11
21.074013549938382
 21
13.904159260507443
 97
        0
 75
     0
 76
     1
 98
        1
 10
0.0
 20
0.0
  0
HATCH
  5
3DA
100
AcDbEntity
  8
0
370
    15
390
0
  6
Continuous
 62
   174
100
AcDbHatch
 10
0.0
 20
0.0
 30
0.0
210
0.0
220
0.0
230
1.0
  2
SOLID
 70
     1
 71
     0
 91
        1
 92
        1
 93
       12
 72
     1
 10
21.189654190197171
 20
13.219154072519162
 11
21.229834396495999
 21
13.219154072519162
 72
     1
 10
21.229834396495999
 20
13.219154072519162
 11
21.229834396495999
 21
13.346435261484006
 72
     1
 10
21.229834396495999
 20
13.346435261484006
 11
21.111744720592679
 21
13.346435261484006
 72
     1
 10
21.111744720592679
 20
13.346435261484006
 11
21.111744720592679
 21
13.25933427881799
 72
     1
 10
21.111744720592679
 20
13.25933427881799
 11
21.074013549938382
 21
13.25933427881799
 72
     1
 10
21.074013549938382
 20
13.25933427881799
 11
21.074013549938382
 21
13.346435261484006
 72
     1
 10
21.074013549938382
 20
13.346435261484006
 11
21.033833343639554
 21
13.346435261484006
 72
     1
 10
21.033833343639554
 20
13.346435261484006
 11
21.033833343639554
 21
13.219154072519162
 72
     1
 10
21.033833343639554
 20
13.219154072519162
 11
21.151924926891507
 21
13.219154072519162
 72
     1
 10
21.151924926891507
 20
13.219154072519162
 11
21.151924926891507
 21
13.306255055185177
 72
     1
 10
21.151924926891507
 20
13.306255055185177
 11
21.189654190197171
 21
13.306255055185177
 72
     1
 10
21.189654190197171
 20
13.306255055185177
 11
21.189654190197171
 21
13.219154072519162
 97
        0
 75
     0
 76
     1
 98
        1
 10
0.0
 20
0.0
  0
TEXT
  5
3DB
100
AcDbEntity
  8
0
370
    15
390
0
  6
Continuous
 62
     7
100
AcDbText
 10
21.288737
 20
13.255039
 30
0.0
 40
0.04606
  1
R
 50
270.0
 41
1.125
  7
Vcadd_SIMP
100
AcDbText
  0
TEXT
  5
3DC
100
AcDbEntity
  8
0
370
    15
390
0
  6
Continuous
 62
     7
100
AcDbText
 10
20.935419
 20
13.895786
 30
0.0
 40
0.062
  1
CORPORATION
 50
270.0
  7
Vcadd_SIMP
100
AcDbText
  0
TEXT
  5
3DD
100
AcDbEntity
  8
0
370
    15
390
0
  6
Continuous
 62
     7
100
AcDbText
 10
20.843771
 20
14.664103
 30
0.0
 40
0.062
  1
1500 WEST UNIVERSITY PKWY
 50
270.0
  7
Vcadd_SIMP
100
AcDbText
  0
TEXT
  5
3DE
100
AcDbEntity
  8
0
370
    15
390
0
  6
Continuous
 62
     7
100
AcDbText
 10
20.750771
 20
14.664103
 30
0.0
 40
0.062
  1
SARASOTA, FLORIDA 34243, USA
 50
270.0
  7
Vcadd_SIMP
100
AcDbText
  0
TEXT
  5
3DF
100
AcDbEntity
  8
0
370
    15
390
0
  6
Continuous
 62
     7
100
AcDbText
 10
20.657771
 20
14.664103
 30
0.0
 40
0.062
  1
TELEPHONE (941) 355-2983
 50
270.0
  7
Vcadd_SIMP
100
AcDbText
  0
TEXT
  5
3E0
100
AcDbEntity
  8
4
370
    15
390
0
  6
Continuous
 62
     7
100
AcDbText
 10
29.034282
 20
19.319898
 30
0.0
 40
0.12
  1
Min. Tiefe von
  7
Vcadd_SIMP
100
AcDbText
  0
TEXT
  5
3E1
100
AcDbEntity
  8
4
370
    15
390
0
  6
Continuous
 62
     7
100
AcDbText
 10
29.034282
 20
19.139898
 30
0.0
 40
0.12
  1
25,40 %%c (Ventil-
  7
Vcadd_SIMP
100
AcDbText
  0
TEXT
  5
3E2
100
AcDbEntity
  8
4
370
    15
390
0
  6
Continuous
 62
     7
100
AcDbText
 10
29.034282
 20
18.959898
 30
0.0
 40
0.12
  1
arbeitsbereich)
  7
Vcadd_SIMP
100
AcDbText
  0
TEXT
  5
3E3
100
AcDbEntity
  8
4
370
    15
390
0
  6
Continuous
 62
     7
100
AcDbText
 10
25.369187
 20
13.466676
 30
0.0
 40
0.133
  1
Alle O-Ring-Einfόhrungsschrδgen mόssen
  7
Vcadd_SIMP
100
AcDbText
  0
TEXT
  5
3E4
100
AcDbEntity
  8
4
370
    15
390
0
  6
Continuous
 62
     7
100
AcDbText
 10
25.369187
 20
13.267176
 30
0.0
 40
0.133
  1
glatt und frei von Kerben und Kanten sein.
  7
Vcadd_SIMP
100
AcDbText
  0
TEXT
  5
3E5
100
AcDbEntity
  8
4
370
    15
390
0
  6
Continuous
 62
     7
100
AcDbText
 10
25.378093
 20
15.432535
 30
0.0
 40
0.133
  1
Freiraum fόr Sechskant-Steckschlόssel
  7
Vcadd_SIMP
100
AcDbText
  0
TEXT
  5
3E6
100
AcDbEntity
  8
4
370
    15
390
0
  6
Continuous
 62
     7
100
AcDbText
 10
25.131442
 20
15.41765
 30
0.0
 40
0.133
  1
*
  7
Vcadd_SIMP
100
AcDbText
  0
TEXT
  5
3E7
100
AcDbEntity
  8
4
370
    15
390
0
  6
Continuous
 62
     7
100
AcDbText
 10
25.05877
 20
13.457946
 30
0.0
 40
0.133
  1
**
  7
Vcadd_SIMP
100
AcDbText
  0
TEXT
  5
3E8
100
AcDbEntity
  8
4
370
    15
390
0
  6
Continuous
 62
     7
100
AcDbText
 10
26.929353
 20
20.980019
 30
0.0
 40
0.13
  1
Anschluss #2
  7
Vcadd_SIMP
100
AcDbText
  0
LINE
  5
3E9
100
AcDbEntity
  8
3
370
    15
390
0
  6
Continuous
 62
     1
100
AcDbLine
 10
27.086965
 20
20.307529
 30
0.0
 11
28.386133
 21
20.307529
 31
0.0
  0
LINE
  5
3EA
100
AcDbEntity
  8
3
370
    15
390
0
  6
Continuous
 62
     1
100
AcDbLine
 10
28.310112
 20
21.182529
 30
0.0
 11
28.310112
 21
20.307529
 31
0.0
  0
LINE
  5
3EB
100
AcDbEntity
  8
3
370
    15
390
0
  6
Continuous
 62
     1
100
AcDbLine
 10
28.310112
 20
21.182529
 30
0.0
 11
28.310112
 21
21.29742
 31
0.0
  0
LINE
  5
3EC
100
AcDbEntity
  8
3
370
    15
390
0
  6
Continuous
 62
     1
100
AcDbLine
 10
28.310112
 20
21.29742
 30
0.0
 11
28.481886
 21
21.29742
 31
0.0
  0
LINE
  5
3ED
100
AcDbEntity
  8
3
370
    15
390
0
  6
Continuous
 62
     1
100
AcDbLine
 10
27.139002
 20
21.182529
 30
0.0
 11
28.386133
 21
21.182529
 31
0.0
  0
TEXT
  5
3EE
100
AcDbEntity
  8
4
370
    15
390
0
  6
Continuous
 62
     7
100
AcDbText
 10
28.482802
 20
21.244154
 30
0.0
 40
0.142
  1
22,23
  7
Vcadd_SIMP
100
AcDbText
  0
INSERT
  5
3EF
100
AcDbEntity
  8
3
370
    90
390
0
  6
Continuous
 62
     7
100
AcDbBlockReference
  2
ARROW
 10
28.310112
 20
21.182529
 30
0.0
 50
90.0
  0
INSERT
  5
3F0
100
AcDbEntity
  8
3
370
    90
390
0
  6
Continuous
 62
     7
100
AcDbBlockReference
  2
ARROW
 10
28.310112
 20
20.307529
 30
0.0
 50
270.0
  0
TEXT
  5
3F1
100
AcDbEntity
  8
4
370
    15
390
0
  6
Continuous
 62
     7
100
AcDbText
 10
27.025697
 20
22.093376
 30
0.0
 40
0.13
  1
Anschluss #3
  7
Vcadd_SIMP
100
AcDbText
  0
LINE
  5
3F2
100
AcDbEntity
  8
3
370
    15
390
0
  6
Continuous
 62
     1
100
AcDbLine
 10
28.310558
 20
22.276027
 30
0.0
 11
28.310558
 21
21.776027
 31
0.0
  0
LINE
  5
3F3
100
AcDbEntity
  8
3
370
    15
390
0
  6
Continuous
 62
     1
100
AcDbLine
 10
28.310558
 20
22.276027
 30
0.0
 11
28.310558
 21
22.390915
 31
0.0
  0
LINE
  5
3F4
100
AcDbEntity
  8
3
370
    15
390
0
  6
Continuous
 62
     1
100
AcDbLine
 10
28.310558
 20
22.390915
 30
0.0
 11
28.482332
 21
22.390915
 31
0.0
  0
LINE
  5
3F5
100
AcDbEntity
  8
3
370
    15
390
0
  6
Continuous
 62
     1
100
AcDbLine
 10
27.165684
 20
22.276033
 30
0.0
 11
28.386579
 21
22.276024
 31
0.0
  0
LINE
  5
3F6
100
AcDbEntity
  8
3
370
    15
390
0
  6
Continuous
 62
     1
100
AcDbLine
 10
27.161223
 20
21.776027
 30
0.0
 11
28.386579
 21
21.776027
 31
0.0
  0
INSERT
  5
3F7
100
AcDbEntity
  8
3
370
    90
390
0
  6
Continuous
 62
     7
100
AcDbBlockReference
  2
ARROW
 10
28.310558
 20
22.276027
 30
0.0
 50
90.0
  0
INSERT
  5
3F8
100
AcDbEntity
  8
3
370
    90
390
0
  6
Continuous
 62
     7
100
AcDbBlockReference
  2
ARROW
 10
28.310558
 20
21.776027
 30
0.0
 50
270.0
  0
TEXT
  5
3F9
100
AcDbEntity
  8
4
370
    15
390
0
  6
Continuous
 62
     7
100
AcDbText
 10
28.523124
 20
22.321651
 30
0.0
 40
0.142
  1
12,70
  7
Vcadd_SIMP
100
AcDbText
  0
TEXT
  5
3FA
100
AcDbEntity
  8
4
370
    15
390
0
  6
Continuous
 62
     7
100
AcDbText
 10
28.686443
 20
23.572803
 30
0.0
 40
0.12
  1
Min. Abstand
  7
Vcadd_SIMP
 72
     2
 11
29.781518
 21
23.572803
 31
0.0
100
AcDbText
  0
TEXT
  5
3FB
100
AcDbEntity
  8
4
370
    15
390
0
  6
Continuous
 62
     7
100
AcDbText
 10
28.313476
 20
23.392803
 30
0.0
 40
0.12
  1
zum LS-Anschlag
  7
Vcadd_SIMP
 72
     2
 11
29.781518
 21
23.392803
 31
0.0
100
AcDbText
  0
LINE
  5
3FC
100
AcDbEntity
  8
3
370
    15
390
0
  6
Continuous
 62
     1
100
AcDbLine
 10
28.481262
 20
23.057529
 30
0.0
 11
28.481262
 21
22.682529
 31
0.0
  0
LINE
  5
3FD
100
AcDbEntity
  8
3
370
    15
390
0
  6
Continuous
 62
     1
100
AcDbLine
 10
27.187078
 20
22.682529
 30
0.0
 11
28.557283
 21
22.682529
 31
0.0
  0
LINE
  5
3FE
100
AcDbEntity
  8
3
370
    15
390
0
  6
Continuous
 62
     1
100
AcDbLine
 10
27.22751
 20
23.057529
 30
0.0
 11
28.557283
 21
23.057529
 31
0.0
  0
LINE
  5
3FF
100
AcDbEntity
  8
3
370
    15
390
0
  6
Continuous
 62
     1
100
AcDbLine
 10
28.481262
 20
23.057529
 30
0.0
 11
28.481262
 21
23.17242
 31
0.0
  0
LINE
  5
400
100
AcDbEntity
  8
3
370
    15
390
0
  6
Continuous
 62
     1
100
AcDbLine
 10
28.481262
 20
23.17242
 30
0.0
 11
28.653036
 21
23.17242
 31
0.0
  0
TEXT
  5
401
100
AcDbEntity
  8
4
370
    15
390
0
  6
Continuous
 62
     7
100
AcDbText
 10
28.646
 20
23.103157
 30
0.0
 40
0.142
  1
9,53
  7
Vcadd_SIMP
100
AcDbText
  0
INSERT
  5
402
100
AcDbEntity
  8
3
370
    90
390
0
  6
Continuous
 62
     7
100
AcDbBlockReference
  2
ARROW
 10
28.481262
 20
22.682529
 30
0.0
 50
270.0
  0
INSERT
  5
403
100
AcDbEntity
  8
3
370
    90
390
0
  6
Continuous
 62
     7
100
AcDbBlockReference
  2
ARROW
 10
28.481262
 20
23.057529
 30
0.0
 50
90.0
  0
TEXT
  5
404
100
AcDbEntity
  8
4
370
    15
390
0
  6
Continuous
 62
     7
100
AcDbText
 10
27.219784
 20
22.910426
 30
0.0
 40
0.13
  1
Anschluss #4
  7
Vcadd_SIMP
100
AcDbText
  0
TEXT
  5
405
100
AcDbEntity
  8
0
370
    15
390
0
  6
Continuous
 62
     7
100
AcDbText
 10
21.618698
 20
15.423584
 30
0.0
 40
0.125
  1
E
 50
270.0
  7
Vcadd_SIMP
100
AcDbText
  0
TEXT
  5
406
100
AcDbEntity
  8
0
370
    15
390
0
  6
Continuous
 62
     7
100
AcDbText
 10
30.30689
 20
15.405296
 30
0.0
 40
0.125
  1
E
 50
270.0
  7
Vcadd_SIMP
100
AcDbText
  0
TEXT
  5
407
100
AcDbEntity
  8
4
370
    15
390
0
  6
Continuous
 62
     7
100
AcDbText
 10
22.037717
 20
23.03055
 30
0.0
 40
0.142
  1
23,01
  7
Vcadd_SIMP
100
AcDbText
  0
LINE
  5
408
100
AcDbEntity
  8
4
370
    15
390
0
  6
Continuous
 62
     1
100
AcDbLine
 10
23.823246
 20
22.635528
 30
0.0
 11
23.886073
 21
23.092455
 31
0.0
  0
LINE
  5
409
100
AcDbEntity
  8
4
370
    15
390
0
  6
Continuous
 62
     1
100
AcDbLine
 10
23.823246
 20
22.635528
 30
0.0
 11
25.326528
 21
22.635528
 31
0.0
  0
TEXT
  5
40A
100
AcDbEntity
  8
4
370
    15
390
0
  6
Continuous
 62
     7
100
AcDbText
 10
26.293174
 20
25.486302
 30
0.0
 40
0.12
  1
Formbohrer 994-023-***
  7
Vcadd_SIMP
100
AcDbText
  0
TEXT
  5
40B
100
AcDbEntity
  8
4
370
    15
390
0
  6
Continuous
 62
     7
100
AcDbText
 10
26.293117
 20
25.037716
 30
0.0
 40
0.12
  1
Formreibahle 994-023-***
  7
Vcadd_SIMP
100
AcDbText
  0
INSERT
  5
423
100
AcDbEntity
  8
3
370
     0
390
0
  6
Continuous
 62
     1
100
AcDbBlockReference
  2
METRIC_TOL
 10
21.568688
 20
19.658322
 30
0.0
  0
LINE
  5
424
100
AcDbEntity
  8
0
370
    15
390
0
  6
Continuous
 62
     7
100
AcDbLine
 10
20.898983
 20
20.898079
 30
0.0
 11
20.898983
 21
23.273079
 31
0.0
  0
LINE
  5
425
100
AcDbEntity
  8
0
370
    15
390
0
  6
Continuous
 62
     7
100
AcDbLine
 10
21.054983
 20
23.273079
 30
0.0
 11
21.054983
 21
20.898079
 31
0.0
  0
LINE
  5
426
100
AcDbEntity
  8
0
370
    15
390
0
  6
Continuous
 62
     7
100
AcDbLine
 10
21.366983
 20
23.273079
 30
0.0
 11
21.366983
 21
20.898079
 31
0.0
  0
LINE
  5
427
100
AcDbEntity
  8
0
370
    15
390
0
  6
Continuous
 62
     7
100
AcDbLine
 10
21.522983
 20
23.273079
 30
0.0
 11
21.522983
 21
20.898079
 31
0.0
  0
LINE
  5
428
100
AcDbEntity
  8
0
370
    15
390
0
  6
Continuous
 62
     7
100
AcDbLine
 10
21.678984
 20
20.898079
 30
0.0
 11
21.678984
 21
23.273079
 31
0.0
  0
LINE
  5
429
100
AcDbEntity
  8
0
370
    15
390
0
  6
Continuous
 62
     7
100
AcDbLine
 10
21.834984
 20
20.898079
 30
0.0
 11
21.834984
 21
23.273079
 31
0.0
  0
TEXT
  5
42A
100
AcDbEntity
  8
0
370
     0
390
0
  6
Continuous
 62
     7
100
AcDbText
 10
21.101259
 20
23.218735
 30
0.0
 40
0.065844
  1
REVISED TOOLING P/N. REVISED DIMS FOR
 50
270.0
 41
0.9
  7
Vcadd_SIMP
100
AcDbText
  0
TEXT
  5
42B
100
AcDbEntity
  8
0
370
     0
390
0
  6
Continuous
 62
     7
100
AcDbText
 10
20.945259
 20
23.218735
 30
0.0
 40
0.065844
  1
CAVITY / TOOLING CONSISTENCY.
 50
270.0
 41
0.9
  7
Vcadd_SIMP
100
AcDbText
  0
TEXT
  5
42C
100
AcDbEntity
  8
0
370
     0
390
0
  6
Continuous
 62
     7
100
AcDbText
 10
20.789259
 20
23.218735
 30
0.0
 40
0.065844
  1
ADDED METRIC TOL BLOCK TO SHEETS 2 & 3
 50
270.0
 41
0.9
  7
Vcadd_SIMP
100
AcDbText
  0
TEXT
  5
42D
100
AcDbEntity
  8
0
370
     0
390
0
  6
Continuous
 62
     7
100
AcDbText
 10
21.06338
 20
23.398079
 30
0.0
 40
0.065844
  1
E
 50
270.0
  7
Vcadd_SIMP
 72
     1
 11
21.10124
 21
23.398079
 31
0.0
100
AcDbText
  0
TEXT
  5
42E
100
AcDbEntity
  8
0
370
     0
390
0
  6
Continuous
 62
     7
100
AcDbText
 10
20.834209
 20
20.648079
 30
0.0
 40
0.065844
  1
06MAY11
 50
270.0
  7
Vcadd_SIMP
 72
     1
 11
21.099232
 21
20.648079
 31
0.0
100
AcDbText
  0
TEXT
  5
42F
100
AcDbEntity
  8
0
370
     0
390
0
  6
Continuous
 62
     7
100
AcDbText
 10
20.985651
 20
20.273079
 30
0.0
 40
0.065844
  1
JRS
 50
270.0
  7
Vcadd_SIMP
 72
     1
 11
21.099232
 21
20.273079
 31
0.0
100
AcDbText
  0
TEXT
  5
430
100
AcDbEntity
  8
0
370
     0
390
0
  6
Continuous
 62
     7
100
AcDbText
 10
20.966721
 20
19.773079
 30
0.0
 40
0.065844
  1
10164
 50
270.0
 41
0.7
  7
Vcadd_SIMP
 72
     1
 11
21.099232
 21
19.773079
 31
0.0
100
AcDbText
  0
LINE
  5
431
100
AcDbEntity
  8
0
370
    15
390
0
  6
Continuous
 62
     7
100
AcDbLine
 10
21.210983
 20
19.648079
 30
0.0
 11
21.210983
 21
23.523079
 31
0.0
  0
TEXT
  5
432
100
AcDbEntity
  8
0
370
     0
390
0
  6
Continuous
 62
     7
100
AcDbText
 10
20.985651
 20
20.023079
 30
0.0
 40
0.065844
  1
RCL
 50
270.0
  7
Vcadd_SIMP
 72
     1
 11
21.099232
 21
20.023079
 31
0.0
100
AcDbText
  0
LINE
  5
433
100
AcDbEntity
  8
4
370
    30
390
0
  6
Continuous
 62
     1
100
AcDbLine
 10
25.326528
 20
21.745029
 30
0.0
 11
22.764796
 21
21.745029
 31
0.0
  0
LINE
  5
434
100
AcDbEntity
  8
3
370
    30
390
0
  6
Continuous
 62
     1
100
AcDbLine
 10
26.964485
 20
21.745029
 30
0.0
 11
29.901441
 21
21.745029
 31
0.0
  0
TEXT
  5
435
100
AcDbEntity
  8
4
370
    15
390
0
  6
Continuous
 62
     7
100
AcDbText
 10
22.025991
 20
19.952057
 30
0.0
 40
0.142
  1
46,23
  7
Vcadd_SIMP
100
AcDbText
  0
TEXT
  5
436
100
AcDbEntity
  8
4
370
    15
390
0
  6
Continuous
 62
     7
100
AcDbText
 10
22.025991
 20
19.774557
 30
0.0
 40
0.142
  1
46,33
  7
Vcadd_SIMP
100
AcDbText
  0
TEXT
  5
437
100
AcDbEntity
  8
4
370
    15
390
0
  6
Continuous
 62
     7
100
AcDbText
 10
23.931163
 20
22.052601
 30
0.0
 40
0.142
  1
39,68
  7
Vcadd_SIMP
100
AcDbText
  0
TEXT
  5
438
100
AcDbEntity
  8
4
370
    15
390
0
  6
Continuous
 62
     7
100
AcDbText
 10
26.269684
 20
26.024424
 30
0.0
 40
0.12
  1
Formreibahle 1,19 mm tiefer
  7
Vcadd_SIMP
100
AcDbText
  0
TEXT
  5
439
100
AcDbEntity
  8
4
370
    15
390
0
  6
Continuous
 62
     7
100
AcDbText
 10
26.269684
 20
25.874424
 30
0.0
 40
0.12
  1
einfόhren als Formbohrer
  7
Vcadd_SIMP
100
AcDbText
  0
ENDSEC
  0
SECTION
  2
OBJECTS
  0
DICTIONARY
  5
19
100
AcDbDictionary
280
     0
281
     1
  3
ACAD_GROUP
350
1A
  3
ACAD_MLINESTYLE
350
1B
  3
ACAD_LAYOUT
350
1E
  3
ACAD_PLOTSETTINGS
350
22
  3
ACAD_PLOTSTYLENAME
350
1F
  3
ACAD_WIPEOUT_VARS
350
23
  0
DICTIONARY
  5
1A
102
{ACAD_REACTORS
330
19
102
}
100
AcDbDictionary
280
     0
281
     1
  0
DICTIONARY
  5
1B
102
{ACAD_REACTORS
330
19
102
}
100
AcDbDictionary
280
     0
281
     1
  3
Standard
350
1C
  0
MLINESTYLE
  5
1C
102
{ACAD_REACTORS
330
1B
102
}
100
AcDbMlineStyle
  2
Standard
 70
     0
  3

 62
     0
 51
90.0
 52
90.0
 71
     2
 49
0.5
 62
   256
  6
ByLayer
 49
-0.5
 62
   256
  6
ByLayer
  0
ACDBDICTIONARYWDFLT
  5
1F
102
{ACAD_REACTORS
330
19
102
}
100
AcDbDictionary
281
     1
  3
Normal
350
1D
100
AcDbDictionaryWithDefault
340
1D
  0
ACDBPLACEHOLDER
  5
1D
102
{ACAD_REACTORS
330
1F
102
}
  0
LAYOUT
  5
20
102
{ACAD_REACTORS
330
1E
102
}
100
AcDbPlotSettings
  1

  2

  4

  6

 40
0.0
 41
0.0
 42
0.0
 43
0.0
 44
0.0
 45
0.0
 46
0.0
 47
0.0
 48
0.0
 49
0.0
140
0.0
141
0.0
142
1.0
143
1.0
 70
  1024
 72
     0
 73
     0
 74
     0
  7

 75
     0
147
1.0
148
0.0
149
0.0
100
AcDbLayout
  1
Model
 70
     0
 71
     0
 10
0.0
 20
0.0
 11
0.0
 21
0.0
 12
0.0
 22
0.0
 32
0.0
 14
0.0
 24
0.0
 34
0.0
 15
0.0
 25
0.0
 35
0.0
146
0.0
 13
0.0
 23
0.0
 33
0.0
 16
0.0
 26
0.0
 36
0.0
 17
0.0
 27
0.0
 37
0.0
 76
     0
330
A
331
0
345
0
346
0
  0
LAYOUT
  5
21
102
{ACAD_REACTORS
330
1E
102
}
100
AcDbPlotSettings
  1

  2

  4

  6

 40
0.0
 41
0.0
 42
0.0
 43
0.0
 44
0.0
 45
0.0
 46
0.0
 47
0.0
 48
0.0
 49
0.0
140
0.0
141
0.0
142
1.0
143
1.0
 70
     0
 72
     0
 73
     0
 74
     0
  7

 75
     0
147
1.0
148
0.0
149
0.0
100
AcDbLayout
  1
Layout1
 70
     0
 71
     0
 10
0.0
 20
0.0
 11
0.0
 21
0.0
 12
0.0
 22
0.0
 32
0.0
 14
0.0
 24
0.0
 34
0.0
 15
0.0
 25
0.0
 35
0.0
146
0.0
 13
0.0
 23
0.0
 33
0.0
 16
0.0
 26
0.0
 36
0.0
 17
0.0
 27
0.0
 37
0.0
 76
     0
330
B
331
0
345
0
346
0
  0
DICTIONARY
  5
1E
102
{ACAD_REACTORS
330
19
102
}
100
AcDbDictionary
280
     0
281
     1
  3
Layout1
350
21
  3
Model
350
20
  0
DICTIONARY
  5
22
102
{ACAD_REACTORS
330
19
102
}
100
AcDbDictionary
280
     0
281
     1
  0
WIPEOUTVARIABLES
  5
23
100
AcDbWipeoutVariables
 70
     1
  0
ENDSEC
  0
EOF
