  0
SECTION
  2
HEADER
  9
$ACADVER
  1
AC1015
  9
$ACADMAINTVER
 70
     6
  9
$DWGCODEPAGE
  3
ANSI_1253
  9
$INSBASE
 10
0.0
 20
0.0
 30
0.0
  9
$EXTMIN
 10
27.820232
 20
12.645383
 30
0.0
  9
$EXTMAX
 10
32.822815
 20
20.647236
 30
0.0
  9
$LIMMIN
 10
0.0
 20
0.0
  9
$LIMMAX
 10
0.0
 20
0.0
  9
$ORTHOMODE
 70
     0
  9
$REGENMODE
 70
     1
  9
$FILLMODE
 70
     1
  9
$QTEXTMODE
 70
     0
  9
$MIRRTEXT
 70
     1
  9
$LTSCALE
 40
1.0
  9
$ATTMODE
 70
     1
  9
$TEXTSIZE
 40
0.2
  9
$TRACEWID
 40
0.05
  9
$TEXTSTYLE
  7
Standard
  9
$CLAYER
  8
0
  9
$CELTYPE
  6
Continuous
  9
$CECOLOR
 62
   256
  9
$CELTSCALE
 40
1.0
  9
$DISPSILH
 70
     0
  9
$DIMSCALE
 40
1.0
  9
$DIMASZ
 40
0.18
  9
$DIMEXO
 40
0.0625
  9
$DIMDLI
 40
0.38
  9
$DIMRND
 40
0.0
  9
$DIMDLE
 40
0.0
  9
$DIMEXE
 40
0.18
  9
$DIMTP
 40
0.0
  9
$DIMTM
 40
0.0
  9
$DIMTXT
 40
0.18
  9
$DIMCEN
 40
0.09
  9
$DIMTSZ
 40
0.0
  9
$DIMTOL
 70
     0
  9
$DIMLIM
 70
     0
  9
$DIMTIH
 70
     1
  9
$DIMTOH
 70
     1
  9
$DIMSE1
 70
     0
  9
$DIMSE2
 70
     0
  9
$DIMTAD
 70
     0
  9
$DIMZIN
 70
     0
  9
$DIMBLK
  1

  9
$DIMASO
 70
     1
  9
$DIMSHO
 70
     1
  9
$DIMPOST
  1

  9
$DIMAPOST
  1

  9
$DIMALT
 70
     0
  9
$DIMALTD
 70
     2
  9
$DIMALTF
 40
25.4
  9
$DIMLFAC
 40
1.0
  9
$DIMTOFL
 70
     0
  9
$DIMTVP
 40
0.0
  9
$DIMTIX
 70
     0
  9
$DIMSOXD
 70
     0
  9
$DIMSAH
 70
     0
  9
$DIMBLK1
  1

  9
$DIMBLK2
  1

  9
$DIMSTYLE
  2
Standard
  9
$DIMCLRD
 70
     0
  9
$DIMCLRE
 70
     0
  9
$DIMCLRT
 70
     0
  9
$DIMTFAC
 40
1.0
  9
$DIMGAP
 40
0.09
  9
$DIMJUST
 70
     0
  9
$DIMSD1
 70
     0
  9
$DIMSD2
 70
     0
  9
$DIMTOLJ
 70
     1
  9
$DIMTZIN
 70
     0
  9
$DIMALTZ
 70
     0
  9
$DIMALTTZ
 70
     0
  9
$DIMUPT
 70
     0
  9
$DIMDEC
 70
     4
  9
$DIMTDEC
 70
     4
  9
$DIMALTU
 70
     2
  9
$DIMALTTD
 70
     2
  9
$DIMTXSTY
  7
Standard
  9
$DIMAUNIT
 70
     0
  9
$DIMADEC
 70
     0
  9
$DIMALTRND
 40
0.0
  9
$DIMAZIN
 70
     0
  9
$DIMDSEP
 70
     0
  9
$DIMATFIT
 70
     3
  9
$DIMFRAC
 70
     0
  9
$DIMLDRBLK
  1

  9
$DIMLUNIT
 70
     2
  9
$DIMLWD
 70
     0
  9
$DIMLWE
 70
     0
  9
$DIMTMOVE
 70
     0
  9
$LUNITS
 70
     2
  9
$LUPREC
 70
     4
  9
$SKETCHINC
 40
0.1
  9
$FILLETRAD
 40
0.0
  9
$AUNITS
 70
     0
  9
$AUPREC
 70
     0
  9
$MENU
  1
acad
  9
$ELEVATION
 40
0.0
  9
$PELEVATION
 40
0.0
  9
$THICKNESS
 40
0.0
  9
$LIMCHECK
 70
     0
  9
$CHAMFERA
 40
0.0
  9
$CHAMFERB
 40
0.0
  9
$CHAMFERC
 40
0.0
  9
$CHAMFERD
 40
0.0
  9
$SKPOLY
 70
     0
  9
$TDCREATE
 40
0.000000000
  9
$TDUCREATE
 40
0.000000000
  9
$TDUPDATE
 40
0.000000000
  9
$TDUUPDATE
 40
0.000000000
  9
$TDINDWG
 40
0.0000000000
  9
$TDUSRTIMER
 40
0.0000000000
  9
$USRTIMER
 70
     1
  9
$ANGBASE
 50
0.0
  9
$ANGDIR
 70
     0
  9
$PDMODE
 70
     2
  9
$PDSIZE
 40
-1.0
  9
$PLINEWID
 40
0.0
  9
$SPLFRAME
 70
     0
  9
$SPLINETYPE
 70
     6
  9
$SPLINESEGS
 70
     8
  9
$HANDSEED
  5
3F0
  9
$SURFTAB1
 70
     6
  9
$SURFTAB2
 70
     6
  9
$SURFTYPE
 70
     6
  9
$SURFU
 70
     6
  9
$SURFV
 70
     6
  9
$UCSBASE
  2

  9
$UCSNAME
  2

  9
$UCSORG
 10
0.0
 20
0.0
 30
0.0
  9
$UCSXDIR
 10
1.0
 20
0.0
 30
0.0
  9
$UCSYDIR
 10
0.0
 20
1.0
 30
0.0
  9
$UCSORTHOREF
  2

  9
$UCSORTHOVIEW
 70
     0
  9
$UCSORGTOP
 10
0.0
 20
0.0
 30
0.0
  9
$UCSORGBOTTOM
 10
0.0
 20
0.0
 30
0.0
  9
$UCSORGLEFT
 10
0.0
 20
0.0
 30
0.0
  9
$UCSORGRIGHT
 10
0.0
 20
0.0
 30
0.0
  9
$UCSORGFRONT
 10
0.0
 20
0.0
 30
0.0
  9
$UCSORGBACK
 10
0.0
 20
0.0
 30
0.0
  9
$PUCSBASE
  2

  9
$PUCSNAME
  2

  9
$PUCSORG
 10
0.0
 20
0.0
 30
0.0
  9
$PUCSXDIR
 10
1.0
 20
0.0
 30
0.0
  9
$PUCSYDIR
 10
0.0
 20
1.0
 30
0.0
  9
$PUCSORTHOREF
  2

  9
$PUCSORTHOVIEW
 70
     0
  9
$PUCSORGTOP
 10
0.0
 20
0.0
 30
0.0
  9
$PUCSORGBOTTOM
 10
0.0
 20
0.0
 30
0.0
  9
$PUCSORGLEFT
 10
0.0
 20
0.0
 30
0.0
  9
$PUCSORGRIGHT
 10
0.0
 20
0.0
 30
0.0
  9
$PUCSORGFRONT
 10
0.0
 20
0.0
 30
0.0
  9
$PUCSORGBACK
 10
0.0
 20
0.0
 30
0.0
  9
$USERI1
 70
     0
  9
$USERI2
 70
     0
  9
$USERI3
 70
     0
  9
$USERI4
 70
     0
  9
$USERI5
 70
     0
  9
$USERR1
 40
0.0
  9
$USERR2
 40
0.0
  9
$USERR3
 40
0.0
  9
$USERR4
 40
0.0
  9
$USERR5
 40
0.0
  9
$WORLDVIEW
 70
     1
  9
$SHADEDGE
 70
     3
  9
$SHADEDIF
 70
    70
  9
$TILEMODE
 70
     1
  9
$MAXACTVP
 70
    16
  9
$PINSBASE
 10
0.0
 20
0.0
 30
0.0
  9
$PLIMCHECK
 70
     0
  9
$PEXTMIN
 10
1.000000E+20
 20
1.000000E+20
 30
1.000000E+20
  9
$PEXTMAX
 10
-1.000000E+20
 20
-1.000000E+20
 30
-1.000000E+20
  9
$PLIMMIN
 10
0.0
 20
0.0
  9
$PLIMMAX
 10
12.0
 20
9.0
  9
$UNITMODE
 70
     0
  9
$VISRETAIN
 70
     0
  9
$PLINEGEN
 70
     1
  9
$PSLTSCALE
 70
     0
  9
$TREEDEPTH
 70
  3020
  9
$CMLSTYLE
  2
Standard
  9
$CMLJUST
 70
     0
  9
$CMLSCALE
 40
1.0
  9
$PROXYGRAPHICS
 70
     0
  9
$MEASUREMENT
 70
     0
  9
$CELWEIGHT
370
     0
  9
$ENDCAPS
280
     0
  9
$JOINSTYLE
280
     0
  9
$LWDISPLAY
290
     1
  9
$INSUNITS
 70
     0
  9
$HYPERLINKBASE
  1

  9
$STYLESHEET
  1

  9
$XEDIT
290
     1
  9
$CEPSNTYPE
380
     0
  9
$PSTYLEMODE
290
     1
  9
$FINGERPRINTGUID
  2

  9
$VERSIONGUID
  2

  9
$EXTNAMES
290
     1
  9
$PSVPSCALE
 40
0.0
  0
ENDSEC
  0
SECTION
  2
CLASSES
  0
CLASS
  1
LWPOLYLINE
  2
AcDbPolyline
  3
AutoCAD 2000
 90
        0
280
     0
281
     1
  0
CLASS
  1
IMAGE
  2
AcDbRasterImage
  3
ISM
 90
      127
280
     0
281
     1
  0
CLASS
  1
OLE2FRAME
  2
AcDbOle2Frame
  3
AutoCAD 2000
 90
        0
280
     0
281
     1
  0
CLASS
  1
HATCH
  2
AcDbHatch
  3
AutoCAD 2000
 90
        0
280
     0
281
     1
  0
CLASS
  1
DICTIONARYVAR
  2
AcDbDictionaryVar
  3
AutoCAD 2000
 90
        0
280
     0
281
     0
  0
CLASS
  1
RASTERVARIABLES
  2
AcDbRasterVariables
  3
ISM
 90
        0
280
     0
281
     0
  0
CLASS
  1
IMAGEDEF
  2
AcDbRasterImageDef
  3
ISM
 90
        0
280
     0
281
     0
  0
CLASS
  1
IMAGEDEF_REACTOR
  2
AcDbRasterImageDefReactor
  3
ISM
 90
        1
280
     0
281
     0
  0
CLASS
  1
IDBUFFER
  2
AcDbIdBuffer
  3
AutoCAD 2000
 90
        0
280
     0
281
     0
  0
CLASS
  1
SPATIAL_FILTER
  2
AcDbSpatialFilter
  3
AutoCAD 2000
 90
        0
280
     0
281
     0
  0
CLASS
  1
XRECORD
  2
AcDbXrecord
  3
AutoCAD 2000
 90
        0
280
     0
281
     0
  0
CLASS
  1
SORTENTSTABLE
  2
AcDbSortentsTable
  3
AutoCAD 2000
 90
        0
280
     0
281
     0
  0
CLASS
  1
LAYER_INDEX
  2
AcDbLayerIndex
  3
AutoCAD 2000
 90
        0
280
     0
281
     0
  0
CLASS
  1
SPATIAL_INDEX
  2
AcDbSpatialIndex
  3
AutoCAD 2000
 90
        0
280
     0
281
     0
  0
CLASS
  1
OBJECT_PTR
  2
CAseDLPNTableRecord
  3
"ASE-LPNTableRecord"
 90
        1
280
     0
281
     0
  0
CLASS
  1
LAYOUT
  2
AcDbLayout
  3
AutoCAD 2000
 90
        0
280
     0
281
     0
  0
CLASS
  1
PLOTSETTINGS
  2
AcDbPlotSettings
  3
AutoCAD 2000
 90
        0
280
     0
281
     0
  0
CLASS
  1
ACDBDICTIONARYWDFLT
  2
AcDbDictionaryWithDefault
  3
AutoCAD 2000
 90
        0
280
     0
281
     0
  0
CLASS
  1
ACDBPLACEHOLDER
  2
AcDbPlaceHolder
  3
AutoCAD 2000
 90
        0
280
     0
281
     0
  0
CLASS
  1
VBA_PROJECT
  2
AcDbVbaProject
  3
acadvba
 90
        0
280
     0
281
     0
  0
CLASS
  1
WIPEOUT
  2
AcDbWipeout
  3
WipeOut|AutoCAD Express Tool|expresstools@autodesk.com
 90
      127
280
     0
281
     1
  0
CLASS
  1
WIPEOUTVARIABLES
  2
AcDbWipeoutVariables
  3
WipeOut|AutoCAD Express Tool|expresstools@autodesk.com
 90
        0
280
     0
281
     0
  0
CLASS
  1
RTEXT
  2
RText
  3
RText|AutoCAD Express Tool|expresstools@autodesk.com
 90
        0
280
     0
281
     1
  0
CLASS
  1
ARCALIGNEDTEXT
  2
AcDbArcAlignedText
  3
ATEXT|AutoCAD Express Tool|expresstools@autodesk.com
 90
        0
280
     0
281
     1
  0
ENDSEC
  0
SECTION
  2
TABLES
  0
TABLE
  2
VPORT
  5
7
100
AcDbSymbolTable
 70
     2
  0
VPORT
  5
15
100
AcDbSymbolTableRecord
100
AcDbViewportTableRecord
  2
*ACTIVE
 70
     0
 10
0.0
 20
0.0
 11
1.0
 21
1.0
 12
6.591288
 22
4.579184
 13
0.0
 23
0.0
 14
1.0
 24
1.0
 15
0.0
 25
0.0
 16
0.0
 26
0.0
 36
1.0
 17
0.0
 27
0.0
 37
0.0
 40
9.158369
 41
0.688564
 42
50.0
 43
0.0
 44
0.0
 50
0.0
 51
0.0
 71
     0
 72
   100
 73
     1
 74
     1
 75
     0
 76
     0
 77
     0
 78
     0
281
     0
 65
     0
110
0.0
120
0.0
130
0.0
111
1.0
121
0.0
131
0.0
112
0.0
122
1.0
132
0.0
345
0
346
0
 79
     0
146
0.0
  0
VPORT
  5
3EF
100
AcDbSymbolTableRecord
100
AcDbViewportTableRecord
  2
MYVPORT
 70
     0
 10
0.0
 20
0.0
 11
1.0
 21
1.0
 12
6.21
 22
9.02
 13
0.0
 23
0.0
 14
1.0
 24
1.0
 15
0.0
 25
0.0
 16
0.0
 26
0.0
 36
1.0
 17
0.0
 27
0.0
 37
0.0
 40
18.04
 41
0.688564
 42
50.0
 43
0.0
 44
0.0
 50
0.0
 51
0.0
 71
     0
 72
   100
 73
     1
 74
     1
 75
     0
 76
     0
 77
     0
 78
     0
281
     0
 65
     0
110
0.0
120
0.0
130
0.0
111
1.0
121
0.0
131
0.0
112
0.0
122
1.0
132
0.0
345
0
346
0
 79
     0
146
0.0
  0
ENDTAB
  0
TABLE
  2
LTYPE
  5
4
100
AcDbSymbolTable
 70
     7
  0
LTYPE
  5
11
100
AcDbSymbolTableRecord
100
AcDbLinetypeTableRecord
  2
ByBlock
 70
    64
  3

 72
    65
 73
     0
 40
0.0
  0
LTYPE
  5
12
100
AcDbSymbolTableRecord
100
AcDbLinetypeTableRecord
  2
ByLayer
 70
    64
  3

 72
    65
 73
     0
 40
0.0
  0
LTYPE
  5
13
100
AcDbSymbolTableRecord
100
AcDbLinetypeTableRecord
  2
Continuous
 70
    64
  3
Solid line
 72
    65
 73
     0
 40
0.0
  0
LTYPE
  5
5F
100
AcDbSymbolTableRecord
100
AcDbLinetypeTableRecord
  2
CL____X1
 70
    64
  3
Visual CADD Translation
 72
    65
 73
     4
 40
1.33
 49
0.05
 74
     0
 49
-0.05
 74
     0
 49
1.18
 74
     0
 49
-0.05
 74
     0
  0
LTYPE
  5
148
100
AcDbSymbolTableRecord
100
AcDbLinetypeTableRecord
  2
DIVIDE
 70
    64
  3
Visual CADD Translation
 72
    65
 73
     6
 40
1.0
 49
0.6
 74
     0
 49
-0.133
 74
     0
 49
0.0
 74
     0
 49
-0.134
 74
     0
 49
0.0
 74
     0
 49
-0.133
 74
     0
  0
LTYPE
  5
1D0
100
AcDbSymbolTableRecord
100
AcDbLinetypeTableRecord
  2
TYPE___8
 70
    64
  3
Visual CADD Translation
 72
    65
 73
     6
 40
1.0
 49
0.6
 74
     0
 49
-0.08
 74
     0
 49
0.08
 74
     0
 49
-0.08
 74
     0
 49
0.08
 74
     0
 49
-0.08
 74
     0
  0
LTYPE
  5
230
100
AcDbSymbolTableRecord
100
AcDbLinetypeTableRecord
  2
PHANTOM
 70
    64
  3
Visual CADD Translation
 72
    65
 73
     6
 40
1.37
 49
0.99
 74
     0
 49
-0.05
 74
     0
 49
0.115
 74
     0
 49
-0.05
 74
     0
 49
0.115
 74
     0
 49
-0.05
 74
     0
  0
ENDTAB
  0
TABLE
  2
LAYER
  5
2
100
AcDbSymbolTable
 70
     8
  0
LAYER
  5
14
100
AcDbSymbolTableRecord
100
AcDbLayerTableRecord
  2
0
 70
     0
 62
     7
  6
Continuous
290
     1
370
    -3
390
1D
  0
LAYER
  5
24
100
AcDbSymbolTableRecord
100
AcDbLayerTableRecord
  2
1
 70
     0
 62
     7
  6
Continuous
290
     1
370
    -3
390
1D
  0
LAYER
  5
25
100
AcDbSymbolTableRecord
100
AcDbLayerTableRecord
  2
2
 70
     0
 62
     7
  6
Continuous
290
     1
370
    -3
390
1D
  0
LAYER
  5
26
100
AcDbSymbolTableRecord
100
AcDbLayerTableRecord
  2
3
 70
     0
 62
     7
  6
Continuous
290
     1
370
    -3
390
1D
  0
LAYER
  5
27
100
AcDbSymbolTableRecord
100
AcDbLayerTableRecord
  2
4
 70
     0
 62
     7
  6
Continuous
290
     1
370
    -3
390
1D
  0
LAYER
  5
28
100
AcDbSymbolTableRecord
100
AcDbLayerTableRecord
  2
14
 70
     0
 62
     7
  6
Continuous
290
     1
370
    -3
390
1D
  0
LAYER
  5
29
100
AcDbSymbolTableRecord
100
AcDbLayerTableRecord
  2
100
 70
     0
 62
     7
  6
Continuous
290
     1
370
    -3
390
1D
  0
LAYER
  5
29E
100
AcDbSymbolTableRecord
100
AcDbLayerTableRecord
  2
9
 70
     0
 62
     7
  6
Continuous
290
     1
370
    -3
390
1D
  0
ENDTAB
  0
TABLE
  2
STYLE
  5
3
100
AcDbSymbolTable
 70
     3
  0
STYLE
  5
17
100
AcDbSymbolTableRecord
100
AcDbTextStyleTableRecord
  2
Standard
 70
     0
 40
0.0
 41
1.0
 50
0.0
 71
     0
 42
0.0
  3
txt
  4

  0
STYLE
  5
31
100
AcDbSymbolTableRecord
100
AcDbTextStyleTableRecord
  2
Vcadd_Main
 70
     0
 40
0.0
 41
1.0
 50
0.0
 71
     0
 42
0.0
  3
Main
  4

  0
STYLE
  5
194
100
AcDbSymbolTableRecord
100
AcDbTextStyleTableRecord
  2
Vcadd_SIMP
 70
     0
 40
0.0
 41
1.0
 50
0.0
 71
     0
 42
0.0
  3
SIMP
  4

  0
ENDTAB
  0
TABLE
  2
VIEW
  5
5
100
AcDbSymbolTable
 70
     0
  0
ENDTAB
  0
TABLE
  2
UCS
  5
6
100
AcDbSymbolTable
 70
     1
  0
UCS
  5
3EE
100
AcDbSymbolTableRecord
100
AcDbUCSTableRecord
  2
MYUCS
 70
     0
 10
0.0
 20
0.0
 30
0.0
 11
0.0
 21
1.0
 31
0.0
 12
0.0
 22
0.0
 32
1.0
 79
     0
146
0.0
  0
ENDTAB
  0
TABLE
  2
APPID
  5
8
100
AcDbSymbolTable
 70
     1
  0
APPID
  5
16
100
AcDbSymbolTableRecord
100
AcDbRegAppTableRecord
  2
ACAD
 70
     0
  0
ENDTAB
  0
TABLE
  2
DIMSTYLE
  5
9
100
AcDbSymbolTable
 70
     2
100
AcDbDimStyleTable
 71
     0
  0
DIMSTYLE
105
18
100
AcDbSymbolTableRecord
100
AcDbDimStyleTableRecord
  2
Standard
 70
     0
  3

  4

 40
1.0
 41
0.18
 42
0.0625
 43
0.38
 44
0.18
 45
0.0
 46
0.0
 47
0.0
 48
0.0
 71
     0
 72
     0
 73
     1
 74
     1
 75
     0
 76
     0
 77
     0
 78
     0
 79
     0
140
0.18
141
0.09
142
0.0
143
25.4
144
1.0
145
0.0
146
1.0
147
0.09
148
0.0
170
     0
171
     2
172
     0
173
     0
174
     0
175
     0
176
     0
177
     0
178
     0
179
     0
271
     4
272
     4
273
     2
274
     2
275
     0
276
     0
277
     2
278
    46
279
     0
280
     0
281
     0
282
     0
283
     1
284
     0
285
     0
286
     0
288
     0
289
     3
340
17
341
0
342
0
343
0
344
0
371
    -2
372
    -2
  0
DIMSTYLE
105
32
100
AcDbSymbolTableRecord
100
AcDbDimStyleTableRecord
  2
VCADD_DIMSTYLE
 70
     0
  3

  4

 40
1.0
 41
2.5
 42
0.1
 43
0.0
 44
0.1
 45
0.0
 46
0.0
 47
0.003
 48
0.002
 71
     0
 72
     0
 73
     1
 74
     1
 75
     0
 76
     0
 77
     0
 78
     3
 79
     1
140
0.1
141
0.0
142
0.0
143
1.0
144
1.0
145
0.0
146
1.0
147
0.2
148
0.0
170
     0
171
     3
172
     0
173
     0
174
     1
175
     0
176
     0
177
     0
178
     0
179
     3
271
     3
272
     4
273
     2
274
     2
275
     0
276
     0
277
     2
278
    46
279
     0
280
     0
281
     0
282
     0
283
     1
284
     0
285
     0
286
     0
288
     0
289
     3
340
31
341
0
342
0
343
0
344
0
371
    -2
372
    -2
  0
ENDTAB
  0
TABLE
  2
BLOCK_RECORD
  5
1
100
AcDbSymbolTable
 70
     4
  0
BLOCK_RECORD
  5
A
100
AcDbSymbolTableRecord
100
AcDbBlockTableRecord
  2
*MODEL_SPACE
340
20
  0
BLOCK_RECORD
  5
B
100
AcDbSymbolTableRecord
100
AcDbBlockTableRecord
  2
*PAPER_SPACE
340
21
  0
BLOCK_RECORD
  5
2A
100
AcDbSymbolTableRecord
100
AcDbBlockTableRecord
  2
_CLOSED
340
0
  0
BLOCK_RECORD
  5
1D9
100
AcDbSymbolTableRecord
100
AcDbBlockTableRecord
  2
MAU
340
0
102
{BLKREFS
331
1E6
331
1F7
102
}
  0
BLOCK_RECORD
  5
1E8
100
AcDbSymbolTableRecord
100
AcDbBlockTableRecord
  2
MAL
340
0
102
{BLKREFS
331
1F5
102
}
  0
BLOCK_RECORD
  5
29C
100
AcDbSymbolTableRecord
100
AcDbBlockTableRecord
  2
ARROW
340
0
102
{BLKREFS
331
2A4
331
2A5
331
2A6
331
2A7
331
2A8
331
2A9
331
2AA
331
2AB
331
2AC
331
2AD
331
2AE
331
2AF
331
2B0
331
2B1
331
2B2
331
2B3
331
2B4
331
2B5
331
2B6
331
2B7
331
2B8
331
2B9
331
2BA
331
2BB
331
2BC
331
2BD
331
2C0
331
2C4
331
2C7
331
3E4
102
}
  0
ENDTAB
  0
ENDSEC
  0
SECTION
  2
BLOCKS
  0
BLOCK
  5
D
100
AcDbEntity
  8
0
390
0
100
AcDbBlockBegin
  2
*MODEL_SPACE
 70
     0
 10
0.0
 20
0.0
 30
0.0
  3
*MODEL_SPACE
  1

  0
ENDBLK
  5
E
100
AcDbEntity
  8
0
390
0
100
AcDbBlockEnd
  0
BLOCK
  5
F
100
AcDbEntity
 67
     1
  8
0
390
0
100
AcDbBlockBegin
  2
*PAPER_SPACE
 70
     0
 10
0.0
 20
0.0
 30
0.0
  3
*PAPER_SPACE
  1

  0
ENDBLK
  5
10
100
AcDbEntity
 67
     1
  8
0
390
0
100
AcDbBlockEnd
  0
BLOCK
  5
2B
100
AcDbEntity
  8
0
390
0
100
AcDbBlockBegin
  2
_CLOSED
 70
     0
 10
0.0
 20
0.0
 30
0.0
  3
_CLOSED
  1

  0
LINE
  5
2C
100
AcDbEntity
  8
0
370
    -2
390
0
  6
ByBlock
 62
     0
100
AcDbLine
 10
-1.0
 20
0.166667
 30
0.0
 11
0.0
 21
0.0
 31
0.0
  0
LINE
  5
2D
100
AcDbEntity
  8
0
370
    -2
390
0
  6
ByBlock
 62
     0
100
AcDbLine
 10
0.0
 20
0.0
 30
0.0
 11
-1.0
 21
-0.166667
 31
0.0
  0
LINE
  5
2E
100
AcDbEntity
  8
0
370
    -2
390
0
  6
ByBlock
 62
     0
100
AcDbLine
 10
-1.0
 20
0.166667
 30
0.0
 11
-1.0
 21
-0.166667
 31
0.0
  0
LINE
  5
2F
100
AcDbEntity
  8
0
370
    -2
390
0
  6
ByBlock
 62
     0
100
AcDbLine
 10
0.0
 20
0.0
 30
0.0
 11
-1.0
 21
0.0
 31
0.0
  0
ENDBLK
  5
30
100
AcDbEntity
  8
0
390
0
100
AcDbBlockEnd
  0
BLOCK
  5
1DA
100
AcDbEntity
  8
0
390
0
100
AcDbBlockBegin
  2
MAU
 70
     0
 10
0.0
 20
0.0
 30
0.0
  3
MAU
  1

  0
LINE
  5
1DB
100
AcDbEntity
  8
0
370
     0
390
0
  6
Continuous
 62
     2
100
AcDbLine
 10
0.0
 20
0.0
 30
0.0
 11
-0.024965
 21
-0.169856
 31
0.0
  0
LINE
  5
1DC
100
AcDbEntity
  8
0
370
     0
390
0
  6
Continuous
 62
     2
100
AcDbLine
 10
0.0
 20
0.0
 30
0.0
 11
0.022192
 21
-0.169856
 31
0.0
  0
LINE
  5
1DD
100
AcDbEntity
  8
0
370
     0
390
0
  6
Continuous
 62
     2
100
AcDbLine
 10
0.022192
 20
-0.169856
 30
0.0
 11
-0.024965
 21
-0.169856
 31
0.0
  0
LINE
  5
1DE
100
AcDbEntity
  8
0
370
     0
390
0
  6
Continuous
 62
     7
100
AcDbLine
 10
-0.015773
 20
-0.160825
 30
0.0
 11
0.013481
 21
-0.160825
 31
0.0
  0
LINE
  5
1DF
100
AcDbEntity
  8
0
370
     0
390
0
  6
Continuous
 62
     7
100
AcDbLine
 10
0.013481
 20
-0.160825
 30
0.0
 11
-0.000196
 21
-0.036413
 31
0.0
  0
LINE
  5
1E0
100
AcDbEntity
  8
0
370
     0
390
0
  6
Continuous
 62
     7
100
AcDbLine
 10
-0.015773
 20
-0.160825
 30
0.0
 11
-0.000196
 21
-0.036413
 31
0.0
  0
LINE
  5
1E1
100
AcDbEntity
  8
0
370
     0
390
0
  6
Continuous
 62
     7
100
AcDbLine
 10
-0.006656
 20
-0.149436
 30
0.0
 11
-0.000576
 21
-0.078031
 31
0.0
  0
LINE
  5
1E2
100
AcDbEntity
  8
0
370
     0
390
0
  6
Continuous
 62
     7
100
AcDbLine
 10
-0.006656
 20
-0.149436
 30
0.0
 11
0.005122
 21
-0.149436
 31
0.0
  0
LINE
  5
1E3
100
AcDbEntity
  8
0
370
     0
390
0
  6
Continuous
 62
     7
100
AcDbLine
 10
0.005122
 20
-0.149436
 30
0.0
 11
-0.000576
 21
-0.078031
 31
0.0
  0
LINE
  5
1E4
100
AcDbEntity
  8
0
370
     0
390
0
  6
Continuous
 62
     7
100
AcDbLine
 10
-0.000957
 20
-0.142427
 30
0.0
 11
-0.000957
 21
-0.119647
 31
0.0
  0
ENDBLK
  5
1E5
100
AcDbEntity
  8
0
390
0
100
AcDbBlockEnd
  0
BLOCK
  5
1E9
100
AcDbEntity
  8
0
390
0
100
AcDbBlockBegin
  2
MAL
 70
     0
 10
0.0
 20
0.0
 30
0.0
  3
MAL
  1

  0
LINE
  5
1EA
100
AcDbEntity
  8
0
370
     0
390
0
  6
Continuous
 62
     2
100
AcDbLine
 10
0.0
 20
0.0
 30
0.0
 11
0.169856
 21
0.024965
 31
0.0
  0
LINE
  5
1EB
100
AcDbEntity
  8
0
370
     0
390
0
  6
Continuous
 62
     2
100
AcDbLine
 10
0.0
 20
0.0
 30
0.0
 11
0.169856
 21
-0.022192
 31
0.0
  0
LINE
  5
1EC
100
AcDbEntity
  8
0
370
     0
390
0
  6
Continuous
 62
     2
100
AcDbLine
 10
0.169856
 20
-0.022192
 30
0.0
 11
0.169856
 21
0.024965
 31
0.0
  0
LINE
  5
1ED
100
AcDbEntity
  8
0
370
     0
390
0
  6
Continuous
 62
     7
100
AcDbLine
 10
0.160825
 20
0.015773
 30
0.0
 11
0.160825
 21
-0.013481
 31
0.0
  0
LINE
  5
1EE
100
AcDbEntity
  8
0
370
     0
390
0
  6
Continuous
 62
     7
100
AcDbLine
 10
0.160825
 20
-0.013481
 30
0.0
 11
0.036413
 21
0.000196
 31
0.0
  0
LINE
  5
1EF
100
AcDbEntity
  8
0
370
     0
390
0
  6
Continuous
 62
     7
100
AcDbLine
 10
0.160825
 20
0.015773
 30
0.0
 11
0.036413
 21
0.000196
 31
0.0
  0
LINE
  5
1F0
100
AcDbEntity
  8
0
370
     0
390
0
  6
Continuous
 62
     7
100
AcDbLine
 10
0.149436
 20
0.006656
 30
0.0
 11
0.078031
 21
0.000576
 31
0.0
  0
LINE
  5
1F1
100
AcDbEntity
  8
0
370
     0
390
0
  6
Continuous
 62
     7
100
AcDbLine
 10
0.149436
 20
0.006656
 30
0.0
 11
0.149436
 21
-0.005122
 31
0.0
  0
LINE
  5
1F2
100
AcDbEntity
  8
0
370
     0
390
0
  6
Continuous
 62
     7
100
AcDbLine
 10
0.149436
 20
-0.005122
 30
0.0
 11
0.078031
 21
0.000576
 31
0.0
  0
LINE
  5
1F3
100
AcDbEntity
  8
0
370
     0
390
0
  6
Continuous
 62
     7
100
AcDbLine
 10
0.142427
 20
0.000957
 30
0.0
 11
0.119647
 21
0.000957
 31
0.0
  0
ENDBLK
  5
1F4
100
AcDbEntity
  8
0
390
0
100
AcDbBlockEnd
  0
BLOCK
  5
29D
100
AcDbEntity
  8
0
390
0
100
AcDbBlockBegin
  2
ARROW
 70
     0
 10
0.0
 20
0.0
 30
0.0
  3
ARROW
  1

  0
LINE
  5
29F
100
AcDbEntity
  8
9
370
     0
390
0
  6
Continuous
 62
     5
100
AcDbLine
 10
0.0
 20
0.0
 30
0.0
 11
-0.160849
 21
0.031523
 31
0.0
  0
LINE
  5
2A0
100
AcDbEntity
  8
9
370
     0
390
0
  6
Continuous
 62
     5
100
AcDbLine
 10
-0.160849
 20
0.031523
 30
0.0
 11
-0.160849
 21
-0.035463
 31
0.0
  0
LINE
  5
2A1
100
AcDbEntity
  8
9
370
     0
390
0
  6
Continuous
 62
     5
100
AcDbLine
 10
0.0
 20
0.0
 30
0.0
 11
-0.160849
 21
-0.035463
 31
0.0
  0
HATCH
  5
2A2
100
AcDbEntity
  8
9
370
     0
390
0
  6
Continuous
 62
     5
100
AcDbHatch
 10
0.0
 20
0.0
 30
0.0
210
0.0
220
0.0
230
1.0
  2
SOLID
 70
     1
 71
     0
 91
        1
 92
        1
 93
        3
 72
     1
 10
0.0
 20
0.0
 11
-0.1608486175537109
 21
0.0315227508544922
 72
     1
 10
-0.1608486175537109
 20
0.0315227508544922
 11
-0.1608486175537109
 21
-0.0354633331298828
 72
     1
 10
-0.1608486175537109
 20
-0.0354633331298828
 11
0.0
 21
0.0
 97
        0
 75
     0
 76
     1
 98
        1
 10
0.0
 20
0.0
  0
ENDBLK
  5
2A3
100
AcDbEntity
  8
0
390
0
100
AcDbBlockEnd
  0
ENDSEC
  0
SECTION
  2
ENTITIES
  0
VIEWPORT
  5
33
100
AcDbEntity
 67
     1
  8
0
390
0
  6
Continuous
 62
     0
100
AcDbViewport
 10
4.5
 20
3.259162
 30
0.0
 40
12.857143
 41
9.311892
 68
     1
 69
     1
 12
762.9316
 22
546.5183
 13
1169.457242
 23
377.488
 14
0.5
 24
0.5
 15
12.0
 25
12.0
 16
0.0
 26
0.0
 36
1.0
 17
0.0
 27
0.0
 37
0.0
 42
50.0
 43
-55.0
 44
-55.0
 45
1084.5
 50
0.0
 51
0.0
 72
   500
 90
        0
340
0
  1

281
     0
 71
     1
 74
     0
110
0.0
120
0.0
130
0.0
111
1.0
121
0.0
131
0.0
112
0.0
122
1.0
132
0.0
345
0
346
0
 79
     0
146
0.0
  0
LINE
  5
34
100
AcDbEntity
  8
0
370
    15
390
0
  6
Continuous
 62
     6
100
AcDbLine
 10
32.822814
 20
20.647235
 30
0.0
 11
32.822814
 21
12.645383
 31
0.0
  0
LINE
  5
35
100
AcDbEntity
  8
0
370
    15
390
0
  6
Continuous
 62
     6
100
AcDbLine
 10
27.820232
 20
12.645383
 30
0.0
 11
27.820232
 21
20.647235
 31
0.0
  0
LINE
  5
36
100
AcDbEntity
  8
0
370
    15
390
0
  6
Continuous
 62
     6
100
AcDbLine
 10
32.822814
 20
12.645383
 30
0.0
 11
27.820232
 21
12.645383
 31
0.0
  0
LINE
  5
37
100
AcDbEntity
  8
0
370
    15
390
0
  6
Continuous
 62
     6
100
AcDbLine
 10
32.822814
 20
20.647235
 30
0.0
 11
27.820232
 21
20.647235
 31
0.0
  0
LINE
  5
38
100
AcDbEntity
  8
0
370
    15
390
0
  6
Continuous
 62
     2
100
AcDbLine
 10
28.507732
 20
12.645383
 30
0.0
 11
28.507732
 21
17.957882
 31
0.0
  0
LINE
  5
39
100
AcDbEntity
  8
0
370
    15
390
0
  6
Continuous
 62
     2
100
AcDbLine
 10
28.507732
 20
17.957882
 30
0.0
 11
27.820232
 21
17.957882
 31
0.0
  0
LINE
  5
3A
100
AcDbEntity
  8
0
370
    15
390
0
  6
Continuous
 62
     7
100
AcDbLine
 10
28.507732
 20
12.645383
 30
0.0
 11
28.507732
 21
12.645383
 31
0.0
  0
LINE
  5
3B
100
AcDbEntity
  8
0
370
    15
390
0
  6
Continuous
 62
     7
100
AcDbLine
 10
28.507732
 20
14.020383
 30
0.0
 11
27.820232
 21
14.020383
 31
0.0
  0
LINE
  5
3C
100
AcDbEntity
  8
0
370
    15
390
0
  6
Continuous
 62
     7
100
AcDbLine
 10
28.507732
 20
15.520383
 30
0.0
 11
27.820232
 21
15.520383
 31
0.0
  0
LINE
  5
3D
100
AcDbEntity
  8
0
370
    15
390
0
  6
Continuous
 62
     7
100
AcDbLine
 10
28.507732
 20
16.020383
 30
0.0
 11
27.820232
 21
16.020383
 31
0.0
  0
LINE
  5
3E
100
AcDbEntity
  8
0
370
    15
390
0
  6
Continuous
 62
     7
100
AcDbLine
 10
28.507732
 20
17.832882
 30
0.0
 11
27.820232
 21
17.832882
 31
0.0
  0
LINE
  5
3F
100
AcDbEntity
  8
0
370
    15
390
0
  6
Continuous
 62
     7
100
AcDbLine
 10
27.898232
 20
17.957882
 30
0.0
 11
27.898232
 21
16.020383
 31
0.0
  0
LINE
  5
40
100
AcDbEntity
  8
0
370
    15
390
0
  6
Continuous
 62
     7
100
AcDbLine
 10
28.320232
 20
15.520383
 30
0.0
 11
28.320232
 21
16.020383
 31
0.0
  0
LINE
  5
41
100
AcDbEntity
  8
0
370
    15
390
0
  6
Continuous
 62
     7
100
AcDbLine
 10
27.960732
 20
15.520383
 30
0.0
 11
27.960732
 21
14.707883
 31
0.0
  0
LINE
  5
42
100
AcDbEntity
  8
0
370
    15
390
0
  6
Continuous
 62
     7
100
AcDbLine
 10
28.101232
 20
15.520383
 30
0.0
 11
28.101232
 21
14.707883
 31
0.0
  0
LINE
  5
43
100
AcDbEntity
  8
0
370
    15
390
0
  6
Continuous
 62
     7
100
AcDbLine
 10
28.101232
 20
14.707883
 30
0.0
 11
28.101232
 21
14.020383
 31
0.0
  0
LINE
  5
44
100
AcDbEntity
  8
0
370
    15
390
0
  6
Continuous
 62
     7
100
AcDbLine
 10
28.288732
 20
15.520383
 30
0.0
 11
28.288732
 21
14.020383
 31
0.0
  0
LINE
  5
45
100
AcDbEntity
  8
0
370
    15
390
0
  6
Continuous
 62
     7
100
AcDbLine
 10
28.101232
 20
14.707882
 30
0.0
 11
27.820232
 21
14.707883
 31
0.0
  0
LINE
  5
46
100
AcDbEntity
  8
0
370
    15
390
0
  6
Continuous
 62
     7
100
AcDbLine
 10
28.101232
 20
14.707882
 30
0.0
 11
28.288732
 21
14.707882
 31
0.0
  0
LINE
  5
47
100
AcDbEntity
  8
0
370
    15
390
0
  6
Continuous
 62
     7
100
AcDbLine
 10
28.288732
 20
15.332883
 30
0.0
 11
28.101232
 21
15.332883
 31
0.0
  0
LINE
  5
48
100
AcDbEntity
  8
0
370
    15
390
0
  6
Continuous
 62
     7
100
AcDbLine
 10
27.820232
 20
15.249383
 30
0.0
 11
27.960732
 21
15.249383
 31
0.0
  0
LINE
  5
49
100
AcDbEntity
  8
0
370
    15
390
0
  6
Continuous
 62
     7
100
AcDbLine
 10
27.820232
 20
14.978383
 30
0.0
 11
27.960732
 21
14.978383
 31
0.0
  0
LINE
  5
4A
100
AcDbEntity
  8
0
370
    15
390
0
  6
Continuous
 62
     7
100
AcDbLine
 10
27.960732
 20
14.978383
 30
0.0
 11
28.101232
 21
14.978383
 31
0.0
  0
LINE
  5
4B
100
AcDbEntity
  8
0
370
    15
390
0
  6
Continuous
 62
     7
100
AcDbLine
 10
27.960732
 20
15.249383
 30
0.0
 11
28.101232
 21
15.249383
 31
0.0
  0
LINE
  5
4C
100
AcDbEntity
  8
0
370
    15
390
0
  6
Continuous
 62
     7
100
AcDbLine
 10
28.288732
 20
14.020383
 30
0.0
 11
28.288732
 21
12.645383
 31
0.0
  0
LINE
  5
4D
100
AcDbEntity
  8
0
370
    15
390
0
  6
Continuous
 62
     7
100
AcDbLine
 10
28.507732
 20
13.739383
 30
0.0
 11
28.288732
 21
13.739383
 31
0.0
  0
LINE
  5
4E
100
AcDbEntity
  8
0
370
    15
390
0
  6
Continuous
 62
     7
100
AcDbLine
 10
32.635314
 20
14.020383
 30
0.0
 11
32.635314
 21
12.645383
 31
0.0
  0
LINE
  5
4F
100
AcDbEntity
  8
0
370
    15
390
0
  6
Continuous
 62
     7
100
AcDbLine
 10
32.635314
 20
13.739383
 30
0.0
 11
32.821408
 21
13.739383
 31
0.0
  0
LINE
  5
50
100
AcDbEntity
  8
0
370
    15
390
0
  6
Continuous
 62
     7
100
AcDbLine
 10
32.635314
 20
14.020383
 30
0.0
 11
32.822814
 21
14.020383
 31
0.0
  0
LINE
  5
51
100
AcDbEntity
  8
0
370
    15
390
0
  6
Continuous
 62
     7
100
AcDbLine
 10
27.969068
 20
14.453482
 30
0.0
 11
27.907203
 21
14.309731
 31
0.0
  0
ARC
  5
52
100
AcDbEntity
  8
0
370
    15
390
0
  6
Continuous
 62
     7
100
AcDbCircle
 10
28.057313
 20
14.245129
 30
0.0
 40
0.163422
100
AcDbArc
 50
156.690426
 51
236.832239
  0
ARC
  5
53
100
AcDbEntity
  8
0
370
    15
390
0
  6
Continuous
 62
     7
100
AcDbCircle
 10
27.814615
 20
14.504783
 30
0.0
 40
0.162749
100
AcDbArc
 50
341.621748
 51
418.314135
  0
LINE
  5
54
100
AcDbEntity
  8
0
370
    15
390
0
  6
Continuous
 62
     7
100
AcDbLine
 10
27.967695
 20
14.38973
 30
0.0
 11
27.920349
 21
14.41442
 31
0.0
  0
LINE
  5
55
100
AcDbEntity
  8
0
370
    15
390
0
  6
Continuous
 62
     7
100
AcDbLine
 10
27.95399
 20
14.360298
 30
0.0
 11
27.908435
 21
14.385981
 31
0.0
  0
LINE
  5
56
100
AcDbEntity
  8
0
370
    15
390
0
  6
Continuous
 62
     7
100
AcDbLine
 10
28.507732
 20
16.645383
 30
0.0
 11
27.820232
 21
16.645383
 31
0.0
  0
LINE
  5
57
100
AcDbEntity
  8
0
370
    15
390
0
  6
Continuous
 62
     7
100
AcDbLine
 10
28.507732
 20
16.395383
 30
0.0
 11
27.820232
 21
16.395383
 31
0.0
  0
LINE
  5
58
100
AcDbEntity
  8
0
370
    15
390
0
  6
Continuous
 62
     7
100
AcDbLine
 10
28.507732
 20
16.270383
 30
0.0
 11
27.820232
 21
16.270383
 31
0.0
  0
LINE
  5
59
100
AcDbEntity
  8
0
370
    15
390
0
  6
Continuous
 62
     7
100
AcDbLine
 10
28.507732
 20
16.145383
 30
0.0
 11
27.820232
 21
16.145383
 31
0.0
  0
LINE
  5
5A
100
AcDbEntity
  8
2
370
    15
390
0
  6
Continuous
 62
     7
100
AcDbLine
 10
31.180673
 20
16.838137
 30
0.0
 11
31.180673
 21
16.791138
 31
0.0
  0
LINE
  5
5B
100
AcDbEntity
  8
2
370
    15
390
0
  6
Continuous
 62
     7
100
AcDbLine
 10
31.124673
 20
16.791138
 30
0.0
 11
31.124673
 21
16.666138
 31
0.0
  0
LINE
  5
5C
100
AcDbEntity
  8
2
370
    15
390
0
  6
Continuous
 62
     7
100
AcDbLine
 10
31.166673
 20
16.641889
 30
0.0
 11
31.124673
 21
16.666138
 31
0.0
  0
LINE
  5
5D
100
AcDbEntity
  8
2
370
    15
390
0
  6
Continuous
 62
     7
100
AcDbLine
 10
31.166673
 20
16.362137
 30
0.0
 11
31.117673
 21
16.313138
 31
0.0
  0
LINE
  5
5E
100
AcDbEntity
  8
2
370
    15
390
0
  6
Continuous
 62
     7
100
AcDbLine
 10
31.166673
 20
16.641889
 30
0.0
 11
31.166673
 21
16.362137
 31
0.0
  0
LINE
  5
60
100
AcDbEntity
  8
2
370
    15
390
0
  6
CL____X1
 62
     7
100
AcDbLine
 10
31.140674
 20
16.336137
 30
0.0
 11
31.140674
 21
16.656901
 31
0.0
  0
LINE
  5
61
100
AcDbEntity
  8
2
370
    15
390
0
  6
Continuous
 62
     7
100
AcDbLine
 10
31.117673
 20
16.313138
 30
0.0
 11
31.117673
 21
16.229138
 31
0.0
  0
LINE
  5
62
100
AcDbEntity
  8
2
370
    15
390
0
  6
Continuous
 62
     7
100
AcDbLine
 10
31.101674
 20
16.213137
 30
0.0
 11
31.117673
 21
16.229138
 31
0.0
  0
LINE
  5
63
100
AcDbEntity
  8
2
370
    15
390
0
  6
Continuous
 62
     7
100
AcDbLine
 10
31.102923
 20
15.520638
 30
0.0
 11
31.102923
 21
15.463137
 31
0.0
  0
LINE
  5
64
100
AcDbEntity
  8
2
370
    15
390
0
  6
Continuous
 62
     7
100
AcDbLine
 10
31.102923
 20
15.718138
 30
0.0
 11
31.102923
 21
15.775138
 31
0.0
  0
LINE
  5
65
100
AcDbEntity
  8
2
370
    15
390
0
  6
Continuous
 62
     7
100
AcDbLine
 10
31.048673
 20
15.520638
 30
0.0
 11
31.048673
 21
15.718138
 31
0.0
  0
LINE
  5
66
100
AcDbEntity
  8
2
370
    15
390
0
  6
Continuous
 62
     7
100
AcDbLine
 10
30.666673
 20
15.889949
 30
0.0
 11
30.666673
 21
15.971957
 31
0.0
  0
LINE
  5
67
100
AcDbEntity
  8
2
370
    15
390
0
  6
Continuous
 62
     7
100
AcDbLine
 10
30.755261
 20
15.932137
 30
0.0
 11
30.818986
 21
15.932137
 31
0.0
  0
ARC
  5
68
100
AcDbEntity
  8
2
370
    15
390
0
  6
Continuous
 62
     7
100
AcDbCircle
 10
31.404755
 20
15.932137
 30
0.0
 40
0.384706
100
AcDbArc
 50
161.039055
 51
198.960945
  0
LINE
  5
69
100
AcDbEntity
  8
2
370
    15
390
0
  6
Continuous
 62
     7
100
AcDbLine
 10
31.040923
 20
15.807139
 30
0.0
 11
31.040923
 21
15.775138
 31
0.0
  0
LINE
  5
6A
100
AcDbEntity
  8
2
370
    15
390
0
  6
Continuous
 62
     7
100
AcDbLine
 10
31.040923
 20
16.213137
 30
0.0
 11
31.040923
 21
16.057133
 31
0.0
  0
LINE
  5
6B
100
AcDbEntity
  8
2
370
    15
390
0
  6
Continuous
 62
     7
100
AcDbLine
 10
31.048673
 20
15.535414
 30
0.0
 11
31.101674
 21
15.535414
 31
0.0
  0
LINE
  5
6C
100
AcDbEntity
  8
2
370
    15
390
0
  6
Continuous
 62
     7
100
AcDbLine
 10
31.101674
 20
15.535414
 30
0.0
 11
31.101674
 21
15.574414
 31
0.0
  0
ARC
  5
6D
100
AcDbEntity
  8
2
370
    15
390
0
  6
Continuous
 62
     7
100
AcDbCircle
 10
31.091675
 20
15.574415
 30
0.0
 40
0.009999
100
AcDbArc
 50
359.994809
 51
450.016118
  0
ARC
  5
6E
100
AcDbEntity
  8
2
370
    15
390
0
  6
Continuous
 62
     7
100
AcDbCircle
 10
31.058672
 20
15.574415
 30
0.0
 40
0.009999
100
AcDbArc
 50
90.0
 51
180.005193
  0
LINE
  5
6F
100
AcDbEntity
  8
2
370
    15
390
0
  6
Continuous
 62
     7
100
AcDbLine
 10
31.048673
 20
15.535414
 30
0.0
 11
31.048673
 21
15.574414
 31
0.0
  0
ARC
  5
70
100
AcDbEntity
  8
2
370
    15
390
0
  6
Continuous
 62
     7
100
AcDbCircle
 10
31.075172
 20
15.616446
 30
0.0
 40
0.036032
100
AcDbArc
 50
242.747148
 51
297.252852
  0
LINE
  5
71
100
AcDbEntity
  8
2
370
    15
390
0
  6
Continuous
 62
     7
100
AcDbLine
 10
31.048673
 20
15.700907
 30
0.0
 11
31.101674
 21
15.700907
 31
0.0
  0
LINE
  5
72
100
AcDbEntity
  8
2
370
    15
390
0
  6
Continuous
 62
     7
100
AcDbLine
 10
31.101674
 20
15.700907
 30
0.0
 11
31.101674
 21
15.661908
 31
0.0
  0
ARC
  5
73
100
AcDbEntity
  8
2
370
    15
390
0
  6
Continuous
 62
     7
100
AcDbCircle
 10
31.091675
 20
15.661907
 30
0.0
 40
0.009999
100
AcDbArc
 50
269.983882
 51
360.005191
  0
ARC
  5
74
100
AcDbEntity
  8
2
370
    15
390
0
  6
Continuous
 62
     7
100
AcDbCircle
 10
31.058672
 20
15.661907
 30
0.0
 40
0.009999
100
AcDbArc
 50
179.994807
 51
270.0
  0
LINE
  5
75
100
AcDbEntity
  8
2
370
    15
390
0
  6
Continuous
 62
     7
100
AcDbLine
 10
31.048673
 20
15.700907
 30
0.0
 11
31.048673
 21
15.661908
 31
0.0
  0
ARC
  5
76
100
AcDbEntity
  8
2
370
    15
390
0
  6
Continuous
 62
     7
100
AcDbCircle
 10
31.075172
 20
15.619876
 30
0.0
 40
0.036032
100
AcDbArc
 50
62.747148
 51
117.252852
  0
LINE
  5
77
100
AcDbEntity
  8
2
370
    15
390
0
  6
Continuous
 62
     7
100
AcDbLine
 10
31.124673
 20
16.669175
 30
0.0
 11
31.177672
 21
16.669175
 31
0.0
  0
LINE
  5
78
100
AcDbEntity
  8
2
370
    15
390
0
  6
Continuous
 62
     7
100
AcDbLine
 10
31.177672
 20
16.669175
 30
0.0
 11
31.177672
 21
16.708174
 31
0.0
  0
ARC
  5
79
100
AcDbEntity
  8
2
370
    15
390
0
  6
Continuous
 62
     7
100
AcDbCircle
 10
31.167676
 20
16.708178
 30
0.0
 40
0.009996
100
AcDbArc
 50
359.976155
 51
450.023845
  0
ARC
  5
7A
100
AcDbEntity
  8
2
370
    15
390
0
  6
Continuous
 62
     7
100
AcDbCircle
 10
31.134672
 20
16.708175
 30
0.0
 40
0.009999
100
AcDbArc
 50
90.0
 51
180.005193
  0
LINE
  5
7B
100
AcDbEntity
  8
2
370
    15
390
0
  6
Continuous
 62
     7
100
AcDbLine
 10
31.124673
 20
16.669175
 30
0.0
 11
31.124673
 21
16.708174
 31
0.0
  0
ARC
  5
7C
100
AcDbEntity
  8
2
370
    15
390
0
  6
Continuous
 62
     7
100
AcDbCircle
 10
31.151173
 20
16.750206
 30
0.0
 40
0.036032
100
AcDbArc
 50
242.747148
 51
297.252852
  0
LINE
  5
7D
100
AcDbEntity
  8
2
370
    15
390
0
  6
Continuous
 62
     7
100
AcDbLine
 10
31.314441
 20
18.787897
 30
0.0
 11
31.227422
 21
18.838137
 31
0.0
  0
LINE
  5
7E
100
AcDbEntity
  8
2
370
    15
390
0
  6
Continuous
 62
     7
100
AcDbLine
 10
31.314441
 20
18.332007
 30
0.0
 11
31.217671
 21
18.276138
 31
0.0
  0
LINE
  5
7F
100
AcDbEntity
  8
2
370
    15
390
0
  6
Continuous
 62
     7
100
AcDbLine
 10
31.314441
 20
18.332007
 30
0.0
 11
31.314441
 21
18.787897
 31
0.0
  0
ARC
  5
80
100
AcDbEntity
  8
2
370
    15
390
0
  6
Continuous
 62
     7
100
AcDbCircle
 10
31.152062
 20
18.550603
 30
0.0
 40
0.287533
100
AcDbArc
 50
64.38433
 51
124.383785
  0
ARC
  5
81
100
AcDbEntity
  8
2
370
    15
390
0
  6
Continuous
 62
     7
100
AcDbCircle
 10
31.152061
 20
18.54004
 30
0.0
 40
0.263902
100
AcDbArc
 50
232.02647
 51
292.026813
  0
LINE
  5
82
100
AcDbEntity
  8
2
370
    15
390
0
  6
Continuous
 62
     7
100
AcDbLine
 10
30.989682
 20
18.332007
 30
0.0
 11
30.989682
 21
18.787896
 31
0.0
  0
LINE
  5
83
100
AcDbEntity
  8
2
370
    15
390
0
  6
Continuous
 62
     7
100
AcDbLine
 10
31.217671
 20
18.057138
 30
0.0
 11
31.217671
 21
18.276138
 31
0.0
  0
LINE
  5
84
100
AcDbEntity
  8
2
370
    15
390
0
  6
Continuous
 62
     7
100
AcDbLine
 10
31.161922
 20
17.916637
 30
0.0
 11
31.161922
 21
18.057138
 31
0.0
  0
LINE
  5
85
100
AcDbEntity
  8
2
370
    15
390
0
  6
Continuous
 62
     7
100
AcDbLine
 10
31.217671
 20
17.856962
 30
0.0
 11
31.147422
 21
17.838137
 31
0.0
  0
LINE
  5
86
100
AcDbEntity
  8
2
370
    15
390
0
  6
Continuous
 62
     7
100
AcDbLine
 10
31.217671
 20
17.85696
 30
0.0
 11
31.217671
 21
17.916637
 31
0.0
  0
LINE
  5
87
100
AcDbEntity
  8
2
370
    15
390
0
  6
Continuous
 62
     7
100
AcDbLine
 10
31.147422
 20
17.531138
 30
0.0
 11
31.147422
 21
17.838137
 31
0.0
  0
LINE
  5
88
100
AcDbEntity
  8
2
370
    15
390
0
  6
Continuous
 62
     7
100
AcDbLine
 10
31.147422
 20
17.265639
 30
0.0
 11
31.147422
 21
17.463137
 31
0.0
  0
LINE
  5
89
100
AcDbEntity
  8
2
370
    15
390
0
  6
Continuous
 62
     7
100
AcDbLine
 10
31.202672
 20
17.516333
 30
0.0
 11
31.147422
 21
17.531138
 31
0.0
  0
LINE
  5
8A
100
AcDbEntity
  8
2
370
    15
390
0
  6
Continuous
 62
     7
100
AcDbLine
 10
31.202672
 20
17.463137
 30
0.0
 11
31.202672
 21
17.516333
 31
0.0
  0
LINE
  5
8B
100
AcDbEntity
  8
2
370
    15
390
0
  6
Continuous
 62
     7
100
AcDbLine
 10
31.202672
 20
17.218508
 30
0.0
 11
31.122922
 21
17.197138
 31
0.0
  0
LINE
  5
8C
100
AcDbEntity
  8
2
370
    15
390
0
  6
Continuous
 62
     7
100
AcDbLine
 10
31.202672
 20
17.218508
 30
0.0
 11
31.202672
 21
17.265639
 31
0.0
  0
LINE
  5
8D
100
AcDbEntity
  8
2
370
    15
390
0
  6
Continuous
 62
     7
100
AcDbLine
 10
31.202672
 20
16.90277
 30
0.0
 11
31.122922
 21
16.924138
 31
0.0
  0
LINE
  5
8E
100
AcDbEntity
  8
2
370
    15
390
0
  6
Continuous
 62
     7
100
AcDbLine
 10
31.202672
 20
16.838137
 30
0.0
 11
31.202672
 21
16.90277
 31
0.0
  0
LINE
  5
8F
100
AcDbEntity
  8
2
370
    15
390
0
  6
Continuous
 62
     7
100
AcDbLine
 10
31.122922
 20
17.166638
 30
0.0
 11
31.122922
 21
17.197138
 31
0.0
  0
LINE
  5
90
100
AcDbEntity
  8
2
370
    15
390
0
  6
Continuous
 62
     7
100
AcDbLine
 10
31.122922
 20
16.947638
 30
0.0
 11
31.122922
 21
16.924138
 31
0.0
  0
LINE
  5
91
100
AcDbEntity
  8
2
370
    15
390
0
  6
Continuous
 62
     7
100
AcDbLine
 10
31.147422
 20
17.282542
 30
0.0
 11
31.200421
 21
17.282542
 31
0.0
  0
LINE
  5
92
100
AcDbEntity
  8
2
370
    15
390
0
  6
Continuous
 62
     7
100
AcDbLine
 10
31.200421
 20
17.282542
 30
0.0
 11
31.200421
 21
17.321541
 31
0.0
  0
ARC
  5
93
100
AcDbEntity
  8
2
370
    15
390
0
  6
Continuous
 62
     7
100
AcDbCircle
 10
31.190425
 20
17.321545
 30
0.0
 40
0.009996
100
AcDbArc
 50
359.976155
 51
450.023845
  0
ARC
  5
94
100
AcDbEntity
  8
2
370
    15
390
0
  6
Continuous
 62
     7
100
AcDbCircle
 10
31.157418
 20
17.321545
 30
0.0
 40
0.009996
100
AcDbArc
 50
89.976155
 51
180.023845
  0
LINE
  5
95
100
AcDbEntity
  8
2
370
    15
390
0
  6
Continuous
 62
     7
100
AcDbLine
 10
31.147422
 20
17.282542
 30
0.0
 11
31.147422
 21
17.321541
 31
0.0
  0
ARC
  5
96
100
AcDbEntity
  8
2
370
    15
390
0
  6
Continuous
 62
     7
100
AcDbCircle
 10
31.173922
 20
17.363573
 30
0.0
 40
0.036032
100
AcDbArc
 50
242.747148
 51
297.252852
  0
LINE
  5
97
100
AcDbEntity
  8
2
370
    15
390
0
  6
Continuous
 62
     7
100
AcDbLine
 10
31.147422
 20
17.448035
 30
0.0
 11
31.200421
 21
17.448035
 31
0.0
  0
LINE
  5
98
100
AcDbEntity
  8
2
370
    15
390
0
  6
Continuous
 62
     7
100
AcDbLine
 10
31.200421
 20
17.448035
 30
0.0
 11
31.200421
 21
17.409035
 31
0.0
  0
ARC
  5
99
100
AcDbEntity
  8
2
370
    15
390
0
  6
Continuous
 62
     7
100
AcDbCircle
 10
31.190425
 20
17.409031
 30
0.0
 40
0.009996
100
AcDbArc
 50
269.976155
 51
360.023845
  0
ARC
  5
9A
100
AcDbEntity
  8
2
370
    15
390
0
  6
Continuous
 62
     7
100
AcDbCircle
 10
31.157418
 20
17.409031
 30
0.0
 40
0.009996
100
AcDbArc
 50
179.976155
 51
270.023845
  0
LINE
  5
9B
100
AcDbEntity
  8
2
370
    15
390
0
  6
Continuous
 62
     7
100
AcDbLine
 10
31.147422
 20
17.448035
 30
0.0
 11
31.147422
 21
17.409035
 31
0.0
  0
ARC
  5
9C
100
AcDbEntity
  8
2
370
    15
390
0
  6
Continuous
 62
     7
100
AcDbCircle
 10
31.173922
 20
17.367003
 30
0.0
 40
0.036032
100
AcDbArc
 50
62.747148
 51
117.252852
  0
LINE
  5
9D
100
AcDbEntity
  8
2
370
    15
390
0
  6
Continuous
 62
     7
100
AcDbLine
 10
31.161922
 20
18.046329
 30
0.0
 11
31.214921
 21
18.046329
 31
0.0
  0
LINE
  5
9E
100
AcDbEntity
  8
2
370
    15
390
0
  6
Continuous
 62
     7
100
AcDbLine
 10
31.214921
 20
18.046329
 30
0.0
 11
31.214921
 21
18.00733
 31
0.0
  0
ARC
  5
9F
100
AcDbEntity
  8
2
370
    15
390
0
  6
Continuous
 62
     7
100
AcDbCircle
 10
31.204925
 20
18.007326
 30
0.0
 40
0.009996
100
AcDbArc
 50
269.976155
 51
360.023845
  0
ARC
  5
A0
100
AcDbEntity
  8
2
370
    15
390
0
  6
Continuous
 62
     7
100
AcDbCircle
 10
31.171921
 20
18.007329
 30
0.0
 40
0.009999
100
AcDbArc
 50
179.994807
 51
270.0
  0
LINE
  5
A1
100
AcDbEntity
  8
2
370
    15
390
0
  6
Continuous
 62
     7
100
AcDbLine
 10
31.161922
 20
18.046329
 30
0.0
 11
31.161922
 21
18.00733
 31
0.0
  0
ARC
  5
A2
100
AcDbEntity
  8
2
370
    15
390
0
  6
Continuous
 62
     7
100
AcDbCircle
 10
31.188421
 20
17.965298
 30
0.0
 40
0.036032
100
AcDbArc
 50
62.747148
 51
117.252852
  0
LINE
  5
A3
100
AcDbEntity
  8
2
370
    15
390
0
  6
Continuous
 62
     7
100
AcDbLine
 10
30.664922
 20
18.838137
 30
0.0
 11
31.227422
 21
18.838137
 31
0.0
  0
ARC
  5
A4
100
AcDbEntity
  8
2
370
    15
390
0
  6
Continuous
 62
     7
100
AcDbCircle
 10
30.666334
 20
17.754297
 30
0.0
 40
1.083841
100
AcDbArc
 50
72.774053
 51
90.074682
  0
LINE
  5
A5
100
AcDbEntity
  8
2
370
    15
390
0
  6
Continuous
 62
     7
100
AcDbLine
 10
30.664922
 20
18.276138
 30
0.0
 11
31.217671
 21
18.276138
 31
0.0
  0
ARC
  5
A6
100
AcDbEntity
  8
2
370
    15
390
0
  6
Continuous
 62
     7
100
AcDbCircle
 10
30.664925
 20
19.247948
 30
0.0
 40
0.97181
100
AcDbArc
 50
269.999782
 51
289.522513
  0
LINE
  5
A7
100
AcDbEntity
  8
2
370
    15
390
0
  6
Continuous
 62
     7
100
AcDbLine
 10
30.664922
 20
18.057138
 30
0.0
 11
31.217671
 21
18.057138
 31
0.0
  0
LINE
  5
A8
100
AcDbEntity
  8
2
370
    15
390
0
  6
Continuous
 62
     7
100
AcDbLine
 10
30.664922
 20
17.916637
 30
0.0
 11
31.217671
 21
17.916637
 31
0.0
  0
LINE
  5
A9
100
AcDbEntity
  8
2
370
    15
390
0
  6
Continuous
 62
     7
100
AcDbLine
 10
30.664922
 20
17.856961
 30
0.0
 11
31.217671
 21
17.85696
 31
0.0
  0
LINE
  5
AA
100
AcDbEntity
  8
2
370
    15
390
0
  6
Continuous
 62
     7
100
AcDbLine
 10
30.664922
 20
17.838137
 30
0.0
 11
31.147424
 21
17.838137
 31
0.0
  0
LINE
  5
AB
100
AcDbEntity
  8
2
370
    15
390
0
  6
Continuous
 62
     7
100
AcDbLine
 10
30.664922
 20
17.531138
 30
0.0
 11
31.147422
 21
17.531138
 31
0.0
  0
LINE
  5
AC
100
AcDbEntity
  8
2
370
    15
390
0
  6
Continuous
 62
     7
100
AcDbLine
 10
30.664922
 20
17.516333
 30
0.0
 11
31.202672
 21
17.516333
 31
0.0
  0
LINE
  5
AD
100
AcDbEntity
  8
2
370
    15
390
0
  6
Continuous
 62
     7
100
AcDbLine
 10
30.664922
 20
17.463137
 30
0.0
 11
31.202672
 21
17.463137
 31
0.0
  0
LINE
  5
AE
100
AcDbEntity
  8
2
370
    15
390
0
  6
Continuous
 62
     7
100
AcDbLine
 10
30.664922
 20
17.265639
 30
0.0
 11
31.202672
 21
17.265639
 31
0.0
  0
LINE
  5
AF
100
AcDbEntity
  8
2
370
    15
390
0
  6
Continuous
 62
     7
100
AcDbLine
 10
30.664922
 20
17.218508
 30
0.0
 11
31.202672
 21
17.218508
 31
0.0
  0
LINE
  5
B0
100
AcDbEntity
  8
2
370
    15
390
0
  6
Continuous
 62
     7
100
AcDbLine
 10
30.664922
 20
17.197138
 30
0.0
 11
31.122922
 21
17.197138
 31
0.0
  0
LINE
  5
B1
100
AcDbEntity
  8
2
370
    15
390
0
  6
Continuous
 62
     7
100
AcDbLine
 10
30.666673
 20
16.924138
 30
0.0
 11
31.122922
 21
16.924138
 31
0.0
  0
LINE
  5
B2
100
AcDbEntity
  8
2
370
    15
390
0
  6
Continuous
 62
     7
100
AcDbLine
 10
30.666673
 20
16.90277
 30
0.0
 11
31.202672
 21
16.90277
 31
0.0
  0
LINE
  5
B3
100
AcDbEntity
  8
2
370
    15
390
0
  6
Continuous
 62
     7
100
AcDbLine
 10
30.666673
 20
16.838137
 30
0.0
 11
31.204673
 21
16.838137
 31
0.0
  0
LINE
  5
B4
100
AcDbEntity
  8
2
370
    15
390
0
  6
Continuous
 62
     7
100
AcDbLine
 10
30.666673
 20
16.791138
 30
0.0
 11
31.180673
 21
16.791138
 31
0.0
  0
LINE
  5
B5
100
AcDbEntity
  8
2
370
    15
390
0
  6
Continuous
 62
     7
100
AcDbLine
 10
30.666673
 20
16.666138
 30
0.0
 11
31.124673
 21
16.666138
 31
0.0
  0
LINE
  5
B6
100
AcDbEntity
  8
2
370
    15
390
0
  6
Continuous
 62
     7
100
AcDbLine
 10
30.666673
 20
16.641889
 30
0.0
 11
31.166673
 21
16.641889
 31
0.0
  0
LINE
  5
B7
100
AcDbEntity
  8
2
370
    15
390
0
  6
Continuous
 62
     7
100
AcDbLine
 10
30.666673
 20
16.362137
 30
0.0
 11
31.166673
 21
16.362137
 31
0.0
  0
LINE
  5
B8
100
AcDbEntity
  8
2
370
    15
390
0
  6
Continuous
 62
     7
100
AcDbLine
 10
30.666673
 20
16.313138
 30
0.0
 11
31.117673
 21
16.313138
 31
0.0
  0
LINE
  5
B9
100
AcDbEntity
  8
2
370
    15
390
0
  6
Continuous
 62
     7
100
AcDbLine
 10
30.666673
 20
16.213137
 30
0.0
 11
31.101674
 21
16.213137
 31
0.0
  0
LINE
  5
BA
100
AcDbEntity
  8
2
370
    15
390
0
  6
Continuous
 62
     7
100
AcDbLine
 10
30.666673
 20
16.229138
 30
0.0
 11
31.117673
 21
16.229138
 31
0.0
  0
LINE
  5
BB
100
AcDbEntity
  8
2
370
    15
390
0
  6
Continuous
 62
     7
100
AcDbLine
 10
30.666673
 20
15.775138
 30
0.0
 11
31.102923
 21
15.775138
 31
0.0
  0
LINE
  5
BC
100
AcDbEntity
  8
2
370
    15
390
0
  6
Continuous
 62
     7
100
AcDbLine
 10
30.666673
 20
15.718138
 30
0.0
 11
31.102923
 21
15.718138
 31
0.0
  0
LINE
  5
BD
100
AcDbEntity
  8
2
370
    15
390
0
  6
Continuous
 62
     7
100
AcDbLine
 10
30.666673
 20
15.520638
 30
0.0
 11
31.102923
 21
15.520638
 31
0.0
  0
LINE
  5
BE
100
AcDbEntity
  8
2
370
    15
390
0
  6
Continuous
 62
     7
100
AcDbLine
 10
30.666673
 20
15.463137
 30
0.0
 11
31.102923
 21
15.463137
 31
0.0
  0
LINE
  5
BF
100
AcDbEntity
  8
2
370
    15
390
0
  6
Continuous
 62
     7
100
AcDbLine
 10
30.666673
 20
15.932137
 30
0.0
 11
30.708861
 21
15.932137
 31
0.0
  0
LINE
  5
C0
100
AcDbEntity
  8
2
370
    15
390
0
  6
Continuous
 62
     7
100
AcDbLine
 10
30.666673
 20
16.008373
 30
0.0
 11
30.666673
 21
16.193363
 31
0.0
  0
LINE
  5
C1
100
AcDbEntity
  8
2
370
    15
390
0
  6
Continuous
 62
     7
100
AcDbLine
 10
30.666673
 20
15.358497
 30
0.0
 11
30.666673
 21
15.911855
 31
0.0
  0
LINE
  5
C2
100
AcDbEntity
  8
2
370
    15
390
0
  6
Continuous
 62
     7
100
AcDbLine
 10
30.625104
 20
17.057139
 30
0.0
 11
30.707109
 21
17.057139
 31
0.0
  0
LINE
  5
C3
100
AcDbEntity
  8
2
370
    15
390
0
  6
Continuous
 62
     7
100
AcDbLine
 10
30.747674
 20
17.057139
 30
0.0
 11
30.814807
 21
17.057139
 31
0.0
  0
ARC
  5
C4
100
AcDbEntity
  8
2
370
    15
390
0
  6
Continuous
 62
     7
100
AcDbCircle
 10
30.664921
 20
17.057138
 30
0.0
 40
0.109501
100
AcDbArc
 50
267.50042
 51
449.585581
  0
LINE
  5
C5
100
AcDbEntity
  8
2
370
    15
390
0
  6
Continuous
 62
     7
100
AcDbLine
 10
30.666673
 20
17.011931
 30
0.0
 11
30.666673
 21
16.28988
 31
0.0
  0
LINE
  5
C6
100
AcDbEntity
  8
2
370
    15
390
0
  6
Continuous
 62
     7
100
AcDbLine
 10
30.70474
 20
17.057139
 30
0.0
 11
30.664922
 21
17.057139
 31
0.0
  0
ARC
  5
C7
100
AcDbEntity
  8
2
370
    15
390
0
  6
Continuous
 62
     7
100
AcDbCircle
 10
30.666673
 20
15.932137
 30
0.0
 40
0.125
100
AcDbArc
 50
270.0
 51
450.0
  0
LINE
  5
C8
100
AcDbEntity
  8
2
370
    15
390
0
  6
Continuous
 62
     7
100
AcDbLine
 10
31.082988
 20
15.451444
 30
0.0
 11
30.666673
 21
15.451444
 31
0.0
  0
ARC
  5
C9
100
AcDbEntity
  8
2
370
    15
390
0
  6
Continuous
 62
     7
100
AcDbCircle
 10
31.574364
 20
17.057138
 30
0.0
 40
0.464533
100
AcDbArc
 50
166.365892
 51
193.634108
  0
LINE
  5
CA
100
AcDbEntity
  8
1
370
    15
390
0
  6
Continuous
 62
     1
100
AcDbLine
 10
31.206672
 20
16.838137
 30
0.0
 11
31.202672
 21
16.838137
 31
0.0
  0
ARC
  5
CB
100
AcDbEntity
  8
1
370
    15
390
0
  6
Continuous
 62
     1
100
AcDbCircle
 10
31.202672
 20
16.818137
 30
0.0
 40
0.02
100
AcDbArc
 50
90.0
 51
180.000528
  0
LINE
  5
CC
100
AcDbEntity
  8
1
370
    15
390
0
  6
Continuous
 62
     1
100
AcDbLine
 10
31.182672
 20
16.682137
 30
0.0
 11
31.182672
 21
16.818137
 31
0.0
  0
LINE
  5
CD
100
AcDbEntity
  8
1
370
    15
390
0
  6
Continuous
 62
     1
100
AcDbLine
 10
31.182672
 20
16.682137
 30
0.0
 11
31.133882
 21
16.633346
 31
0.0
  0
LINE
  5
CE
100
AcDbEntity
  8
1
370
    15
390
0
  6
Continuous
 62
     1
100
AcDbLine
 10
31.133882
 20
16.633346
 30
0.0
 11
31.133882
 21
15.789138
 31
0.0
  0
LINE
  5
CF
100
AcDbEntity
  8
1
370
    15
390
0
  6
CL____X1
 62
     1
100
AcDbLine
 10
31.166673
 20
16.213137
 30
0.0
 11
31.166673
 21
16.661137
 31
0.0
  0
LINE
  5
D0
100
AcDbEntity
  8
1
370
    15
390
0
  6
Continuous
 62
     1
100
AcDbLine
 10
31.133882
 20
15.789138
 30
0.0
 11
31.113263
 21
15.768519
 31
0.0
  0
ARC
  5
D1
100
AcDbEntity
  8
1
370
    15
390
0
  6
Continuous
 62
     1
100
AcDbCircle
 10
31.135196
 20
15.746592
 30
0.0
 40
0.031013
100
AcDbArc
 50
135.007191
 51
179.987272
  0
LINE
  5
D2
100
AcDbEntity
  8
1
370
    15
390
0
  6
Continuous
 62
     1
100
AcDbLine
 10
31.104182
 20
15.451439
 30
0.0
 11
31.104182
 21
15.746599
 31
0.0
  0
LINE
  5
D3
100
AcDbEntity
  8
1
370
    15
390
0
  6
Continuous
 62
     1
100
AcDbLine
 10
31.010673
 20
15.451462
 30
0.0
 11
31.104182
 21
15.451439
 31
0.0
  0
LINE
  5
D4
100
AcDbEntity
  8
1
370
    15
390
0
  6
Continuous
 62
     1
100
AcDbLine
 10
31.423312
 20
16.900362
 30
0.0
 11
31.438701
 21
16.769618
 31
0.0
  0
LINE
  5
D5
100
AcDbEntity
  8
1
370
    15
390
0
  6
Continuous
 62
     1
100
AcDbLine
 10
31.438701
 20
16.769618
 30
0.0
 11
31.469481
 21
16.654256
 31
0.0
  0
LINE
  5
D6
100
AcDbEntity
  8
1
370
    15
390
0
  6
Continuous
 62
     1
100
AcDbLine
 10
31.469481
 20
16.654256
 30
0.0
 11
31.469481
 21
16.554275
 31
0.0
  0
LINE
  5
D7
100
AcDbEntity
  8
1
370
    15
390
0
  6
Continuous
 62
     1
100
AcDbLine
 10
31.469481
 20
16.554275
 30
0.0
 11
31.469481
 21
16.431221
 31
0.0
  0
LINE
  5
D8
100
AcDbEntity
  8
1
370
    15
390
0
  6
Continuous
 62
     1
100
AcDbLine
 10
31.469481
 20
16.431221
 30
0.0
 11
31.454091
 21
16.331241
 31
0.0
  0
LINE
  5
D9
100
AcDbEntity
  8
1
370
    15
390
0
  6
Continuous
 62
     1
100
AcDbLine
 10
31.454091
 20
16.331241
 30
0.0
 11
31.415616
 21
16.223569
 31
0.0
  0
LINE
  5
DA
100
AcDbEntity
  8
1
370
    15
390
0
  6
Continuous
 62
     1
100
AcDbLine
 10
31.415616
 20
16.223569
 30
0.0
 11
31.400228
 21
16.108206
 31
0.0
  0
LINE
  5
DB
100
AcDbEntity
  8
1
370
    15
390
0
  6
Continuous
 62
     1
100
AcDbLine
 10
31.400228
 20
16.108206
 30
0.0
 11
31.407922
 21
16.008226
 31
0.0
  0
LINE
  5
DC
100
AcDbEntity
  8
1
370
    15
390
0
  6
Continuous
 62
     1
100
AcDbLine
 10
31.407922
 20
16.008226
 30
0.0
 11
31.415616
 21
15.969772
 31
0.0
  0
LINE
  5
DD
100
AcDbEntity
  8
1
370
    15
390
0
  6
Continuous
 62
     1
100
AcDbLine
 10
31.415616
 20
15.969772
 30
0.0
 11
31.431006
 21
15.8621
 31
0.0
  0
LINE
  5
DE
100
AcDbEntity
  8
1
370
    15
390
0
  6
Continuous
 62
     1
100
AcDbLine
 10
31.431006
 20
15.8621
 30
0.0
 11
31.431006
 21
15.67752
 31
0.0
  0
LINE
  5
DF
100
AcDbEntity
  8
1
370
    15
390
0
  6
Continuous
 62
     1
100
AcDbLine
 10
31.431006
 20
15.67752
 30
0.0
 11
31.392531
 21
15.546776
 31
0.0
  0
LINE
  5
E0
100
AcDbEntity
  8
1
370
    15
390
0
  6
Continuous
 62
     1
100
AcDbLine
 10
31.392531
 20
15.546776
 30
0.0
 11
31.377143
 21
15.500631
 31
0.0
  0
LINE
  5
E1
100
AcDbEntity
  8
1
370
    15
390
0
  6
Continuous
 62
     1
100
AcDbLine
 10
31.377143
 20
15.500631
 30
0.0
 11
31.354058
 21
15.40834
 31
0.0
  0
LINE
  5
E2
100
AcDbEntity
  8
1
370
    15
390
0
  6
Continuous
 62
     1
100
AcDbLine
 10
31.354058
 20
15.40834
 30
0.0
 11
31.346362
 21
15.308359
 31
0.0
  0
LINE
  5
E3
100
AcDbEntity
  8
1
370
    15
390
0
  6
Continuous
 62
     1
100
AcDbLine
 10
31.346362
 20
15.308359
 30
0.0
 11
31.292499
 21
15.169924
 31
0.0
  0
LINE
  5
E4
100
AcDbEntity
  8
1
370
    15
390
0
  6
Continuous
 62
     1
100
AcDbLine
 10
31.292499
 20
15.169924
 30
0.0
 11
31.223245
 21
15.146852
 31
0.0
  0
LINE
  5
E5
100
AcDbEntity
  8
1
370
    15
390
0
  6
Continuous
 62
     1
100
AcDbLine
 10
31.223245
 20
15.146852
 30
0.0
 11
31.161687
 21
15.069944
 31
0.0
  0
LINE
  5
E6
100
AcDbEntity
  8
1
370
    15
390
0
  6
Continuous
 62
     1
100
AcDbLine
 10
31.133882
 20
15.807137
 30
0.0
 11
31.431006
 21
15.807137
 31
0.0
  0
LINE
  5
E7
100
AcDbEntity
  8
1
370
    15
390
0
  6
Continuous
 62
     1
100
AcDbLine
 10
31.133882
 20
16.432137
 30
0.0
 11
31.469481
 21
16.432137
 31
0.0
  0
LINE
  5
E8
100
AcDbEntity
  8
1
370
    15
390
0
  6
Continuous
 62
     1
100
AcDbLine
 10
31.225989
 20
16.119637
 30
0.0
 11
31.284432
 21
16.119637
 31
0.0
  0
LINE
  5
E9
100
AcDbEntity
  8
1
370
    15
390
0
  6
Continuous
 62
     1
100
AcDbLine
 10
31.196767
 20
16.119637
 30
0.0
 11
31.083882
 21
16.119637
 31
0.0
  0
ELLIPSE
  5
EA
100
AcDbEntity
  8
1
370
    15
390
0
  6
Continuous
 62
     1
100
AcDbEllipse
 10
31.152777
 20
16.752681
 30
0.0
 11
-0.0002832412719727
 21
-0.0382289886474609
 31
0.0
210
0.0
220
0.0
230
1.0
 40
0.748516
 41
0.0
 42
6.2831853071795862
  0
ELLIPSE
  5
EB
100
AcDbEntity
  8
1
370
    15
390
0
  6
Continuous
 62
     1
100
AcDbEllipse
 10
31.075119
 20
15.618018
 30
0.0
 11
-0.0004987716674805
 21
0.0374264717102051
 31
0.0
210
0.0
220
0.0
230
1.0
 40
0.747137
 41
0.0
 42
6.2831853071795862
  0
LINE
  5
EC
100
AcDbEntity
  8
1
370
    15
390
0
  6
Continuous
 62
     1
100
AcDbLine
 10
31.161687
 20
15.069944
 30
0.0
 11
31.145312
 21
15.050129
 31
0.0
  0
LINE
  5
ED
100
AcDbEntity
  8
1
370
    15
390
0
  6
Continuous
 62
     1
100
AcDbLine
 10
31.145312
 20
15.050129
 30
0.0
 11
31.11295
 21
15.028566
 31
0.0
  0
LINE
  5
EE
100
AcDbEntity
  8
1
370
    15
390
0
  6
Continuous
 62
     1
100
AcDbLine
 10
31.11295
 20
15.028566
 30
0.0
 11
31.091376
 21
14.990829
 31
0.0
  0
LINE
  5
EF
100
AcDbEntity
  8
1
370
    15
390
0
  6
Continuous
 62
     1
100
AcDbLine
 10
31.091376
 20
14.990829
 30
0.0
 11
31.05362
 21
14.969267
 31
0.0
  0
LINE
  5
F0
100
AcDbEntity
  8
1
370
    15
390
0
  6
Continuous
 62
     1
100
AcDbLine
 10
31.05362
 20
14.969267
 30
0.0
 11
31.018561
 21
14.963875
 31
0.0
  0
LINE
  5
F1
100
AcDbEntity
  8
1
370
    15
390
0
  6
Continuous
 62
     1
100
AcDbLine
 10
31.018561
 20
14.963875
 30
0.0
 11
31.010673
 21
14.955789
 31
0.0
  0
LINE
  5
F2
100
AcDbEntity
  8
1
370
    15
390
0
  6
Continuous
 62
     1
100
AcDbLine
 10
31.010673
 20
14.955789
 30
0.0
 11
31.010673
 21
15.451544
 31
0.0
  0
LINE
  5
F3
100
AcDbEntity
  8
1
370
    15
390
0
  6
Continuous
 62
     1
100
AcDbLine
 10
31.428161
 20
16.432137
 30
0.0
 11
31.469481
 21
16.473457
 31
0.0
  0
LINE
  5
F4
100
AcDbEntity
  8
1
370
    15
390
0
  6
Continuous
 62
     1
100
AcDbLine
 10
31.339772
 20
16.432137
 30
0.0
 11
31.469481
 21
16.561844
 31
0.0
  0
LINE
  5
F5
100
AcDbEntity
  8
1
370
    15
390
0
  6
Continuous
 62
     1
100
AcDbLine
 10
31.251384
 20
16.432137
 30
0.0
 11
31.469481
 21
16.650233
 31
0.0
  0
LINE
  5
F6
100
AcDbEntity
  8
1
370
    15
390
0
  6
Continuous
 62
     1
100
AcDbLine
 10
31.162997
 20
16.432137
 30
0.0
 11
31.451713
 21
16.720852
 31
0.0
  0
LINE
  5
F7
100
AcDbEntity
  8
1
370
    15
390
0
  6
Continuous
 62
     1
100
AcDbLine
 10
31.133882
 20
16.491411
 30
0.0
 11
31.435899
 21
16.793428
 31
0.0
  0
LINE
  5
F8
100
AcDbEntity
  8
1
370
    15
390
0
  6
Continuous
 62
     1
100
AcDbLine
 10
31.194959
 20
15.807137
 30
0.0
 11
31.104182
 21
15.716362
 31
0.0
  0
LINE
  5
F9
100
AcDbEntity
  8
1
370
    15
390
0
  6
Continuous
 62
     1
100
AcDbLine
 10
31.283347
 20
15.807137
 30
0.0
 11
31.104182
 21
15.627973
 31
0.0
  0
LINE
  5
FA
100
AcDbEntity
  8
1
370
    15
390
0
  6
Continuous
 62
     1
100
AcDbLine
 10
31.371736
 20
15.807137
 30
0.0
 11
31.104182
 21
15.539585
 31
0.0
  0
LINE
  5
FB
100
AcDbEntity
  8
1
370
    15
390
0
  6
Continuous
 62
     1
100
AcDbLine
 10
31.010673
 20
15.357686
 30
0.0
 11
31.431006
 21
15.778021
 31
0.0
  0
LINE
  5
FC
100
AcDbEntity
  8
1
370
    15
390
0
  6
Continuous
 62
     1
100
AcDbLine
 10
31.310107
 20
15.215179
 30
0.0
 11
31.25104
 21
15.156112
 31
0.0
  0
LINE
  5
FD
100
AcDbEntity
  8
1
370
    15
390
0
  6
Continuous
 62
     1
100
AcDbLine
 10
31.348987
 20
15.342447
 30
0.0
 11
31.010673
 21
15.004133
 31
0.0
  0
LINE
  5
FE
100
AcDbEntity
  8
1
370
    15
390
0
  6
Continuous
 62
     1
100
AcDbLine
 10
31.363254
 20
15.445101
 30
0.0
 11
31.010673
 21
15.09252
 31
0.0
  0
LINE
  5
FF
100
AcDbEntity
  8
1
370
    15
390
0
  6
Continuous
 62
     1
100
AcDbLine
 10
31.400535
 20
15.570772
 30
0.0
 11
31.010673
 21
15.180909
 31
0.0
  0
LINE
  5
100
100
AcDbEntity
  8
1
370
    15
390
0
  6
Continuous
 62
     1
100
AcDbLine
 10
31.431006
 20
15.689632
 30
0.0
 11
31.010673
 21
15.269296
 31
0.0
  0
LINE
  5
101
100
AcDbEntity
  8
1
370
    15
390
0
  6
Continuous
 62
     7
100
AcDbLine
 10
31.102923
 20
15.463137
 30
0.0
 11
31.082988
 21
15.451444
 31
0.0
  0
LINE
  5
102
100
AcDbEntity
  8
1
370
    15
390
0
  6
Continuous
 62
     1
100
AcDbLine
 10
31.219924
 20
17.541138
 30
0.0
 11
31.204923
 21
17.526137
 31
0.0
  0
LINE
  5
103
100
AcDbEntity
  8
1
370
    15
390
0
  6
Continuous
 62
     1
100
AcDbLine
 10
31.219924
 20
17.541139
 30
0.0
 11
31.219924
 21
18.119136
 31
0.0
  0
LINE
  5
104
100
AcDbEntity
  8
1
370
    15
390
0
  6
Continuous
 62
     1
100
AcDbLine
 10
31.191422
 20
16.838137
 30
0.0
 11
31.204923
 21
16.838137
 31
0.0
  0
LINE
  5
105
100
AcDbEntity
  8
1
370
    15
390
0
  6
Continuous
 62
     1
100
AcDbLine
 10
31.204923
 20
17.526137
 30
0.0
 11
31.204923
 21
16.838137
 31
0.0
  0
LINE
  5
106
100
AcDbEntity
  8
1
370
    15
390
0
  6
Continuous
 62
     1
100
AcDbLine
 10
31.340814
 20
17.429189
 30
0.0
 11
31.354241
 21
17.523144
 31
0.0
  0
LINE
  5
107
100
AcDbEntity
  8
1
370
    15
390
0
  6
Continuous
 62
     1
100
AcDbLine
 10
31.354241
 20
17.523144
 30
0.0
 11
31.360957
 21
17.603677
 31
0.0
  0
LINE
  5
108
100
AcDbEntity
  8
1
370
    15
390
0
  6
Continuous
 62
     1
100
AcDbLine
 10
31.360957
 20
17.603677
 30
0.0
 11
31.360957
 21
17.697632
 31
0.0
  0
LINE
  5
109
100
AcDbEntity
  8
1
370
    15
390
0
  6
Continuous
 62
     1
100
AcDbLine
 10
31.360957
 20
17.697632
 30
0.0
 11
31.360957
 21
17.798298
 31
0.0
  0
LINE
  5
10A
100
AcDbEntity
  8
1
370
    15
390
0
  6
Continuous
 62
     1
100
AcDbLine
 10
31.360957
 20
17.798298
 30
0.0
 11
31.381101
 21
17.885542
 31
0.0
  0
LINE
  5
10B
100
AcDbEntity
  8
1
370
    15
390
0
  6
Continuous
 62
     1
100
AcDbLine
 10
31.377313
 20
17.869136
 30
0.0
 11
31.219924
 21
17.869136
 31
0.0
  0
LINE
  5
10C
100
AcDbEntity
  8
1
370
    15
390
0
  6
Continuous
 62
     1
100
AcDbLine
 10
31.357076
 20
17.557137
 30
0.0
 11
31.219924
 21
17.557137
 31
0.0
  0
LINE
  5
10D
100
AcDbEntity
  8
1
370
    15
390
0
  6
Continuous
 62
     1
100
AcDbLine
 10
31.381101
 20
17.885542
 30
0.0
 11
31.381101
 21
17.902708
 31
0.0
  0
LINE
  5
10E
100
AcDbEntity
  8
1
370
    15
390
0
  6
Continuous
 62
     1
100
AcDbLine
 10
31.381101
 20
17.902708
 30
0.0
 11
31.390979
 21
17.957965
 31
0.0
  0
LINE
  5
10F
100
AcDbEntity
  8
1
370
    15
390
0
  6
Continuous
 62
     1
100
AcDbLine
 10
31.390979
 20
17.957965
 30
0.0
 11
31.381221
 21
18.032725
 31
0.0
  0
LINE
  5
110
100
AcDbEntity
  8
1
370
    15
390
0
  6
Continuous
 62
     1
100
AcDbLine
 10
31.381221
 20
18.032725
 30
0.0
 11
31.381221
 21
18.07173
 31
0.0
  0
LINE
  5
111
100
AcDbEntity
  8
1
370
    15
390
0
  6
Continuous
 62
     1
100
AcDbLine
 10
31.381221
 20
18.07173
 30
0.0
 11
31.381221
 21
18.117237
 31
0.0
  0
LINE
  5
112
100
AcDbEntity
  8
1
370
    15
390
0
  6
Continuous
 62
     1
100
AcDbLine
 10
31.381221
 20
18.117237
 30
0.0
 11
31.387727
 21
18.156242
 31
0.0
  0
LINE
  5
113
100
AcDbEntity
  8
1
370
    15
390
0
  6
Continuous
 62
     1
100
AcDbLine
 10
31.387727
 20
18.156242
 30
0.0
 11
31.384475
 21
18.2245
 31
0.0
  0
LINE
  5
114
100
AcDbEntity
  8
1
370
    15
390
0
  6
Continuous
 62
     1
100
AcDbLine
 10
31.384475
 20
18.2245
 30
0.0
 11
31.381221
 21
18.289508
 31
0.0
  0
LINE
  5
115
100
AcDbEntity
  8
1
370
    15
390
0
  6
Continuous
 62
     1
100
AcDbLine
 10
31.381221
 20
18.289508
 30
0.0
 11
31.394231
 21
18.387022
 31
0.0
  0
LINE
  5
116
100
AcDbEntity
  8
1
370
    15
390
0
  6
Continuous
 62
     1
100
AcDbLine
 10
31.394231
 20
18.387022
 30
0.0
 11
31.426751
 21
18.442279
 31
0.0
  0
LINE
  5
117
100
AcDbEntity
  8
1
370
    15
390
0
  6
CL____X1
 62
     1
100
AcDbLine
 10
31.321424
 20
18.503156
 30
0.0
 11
31.414922
 21
18.557137
 31
0.0
  0
LINE
  5
118
100
AcDbEntity
  8
1
370
    15
390
0
  6
CL____X1
 62
     1
100
AcDbLine
 10
31.321424
 20
18.503156
 30
0.0
 11
31.321424
 21
18.220638
 31
0.0
  0
LINE
  5
119
100
AcDbEntity
  8
1
370
    15
390
0
  6
Continuous
 62
     1
100
AcDbLine
 10
31.295037
 20
18.194252
 30
0.0
 11
31.321424
 21
18.220638
 31
0.0
  0
LINE
  5
11A
100
AcDbEntity
  8
1
370
    15
390
0
  6
Continuous
 62
     1
100
AcDbLine
 10
31.27333
 20
18.172542
 30
0.0
 11
31.219924
 21
18.119136
 31
0.0
  0
LINE
  5
11B
100
AcDbEntity
  8
1
370
    15
390
0
  6
Continuous
 62
     1
100
AcDbLine
 10
31.426751
 20
18.442279
 30
0.0
 11
31.466943
 21
18.494524
 31
0.0
  0
LINE
  5
11C
100
AcDbEntity
  8
1
370
    15
390
0
  6
Continuous
 62
     1
100
AcDbLine
 10
31.466943
 20
18.494524
 30
0.0
 11
31.494088
 21
18.52708
 31
0.0
  0
LINE
  5
11D
100
AcDbEntity
  8
1
370
    15
390
0
  6
Continuous
 62
     1
100
AcDbLine
 10
31.494088
 20
18.52708
 30
0.0
 11
31.499516
 21
18.581342
 31
0.0
  0
LINE
  5
11E
100
AcDbEntity
  8
1
370
    15
390
0
  6
Continuous
 62
     1
100
AcDbLine
 10
31.499516
 20
18.581342
 30
0.0
 11
31.494088
 21
18.876712
 31
0.0
  0
LINE
  5
11F
100
AcDbEntity
  8
1
370
    15
390
0
  6
Continuous
 62
     1
100
AcDbLine
 10
31.494088
 20
18.876712
 30
0.0
 11
31.488658
 21
18.914696
 31
0.0
  0
LINE
  5
120
100
AcDbEntity
  8
1
370
    15
390
0
  6
Continuous
 62
     1
100
AcDbLine
 10
31.488658
 20
18.914696
 30
0.0
 11
31.521234
 21
18.990663
 31
0.0
  0
LINE
  5
121
100
AcDbEntity
  8
1
370
    15
390
0
  6
Continuous
 62
     1
100
AcDbLine
 10
31.521234
 20
18.990663
 30
0.0
 11
31.526662
 21
19.088335
 31
0.0
  0
LINE
  5
122
100
AcDbEntity
  8
1
370
    15
390
0
  6
Continuous
 62
     1
100
AcDbLine
 10
31.526662
 20
19.088335
 30
0.0
 11
31.526662
 21
19.131746
 31
0.0
  0
LINE
  5
123
100
AcDbEntity
  8
1
370
    15
390
0
  6
Continuous
 62
     1
100
AcDbLine
 10
31.240914
 20
17.557137
 30
0.0
 11
31.204923
 21
17.521146
 31
0.0
  0
LINE
  5
124
100
AcDbEntity
  8
1
370
    15
390
0
  6
Continuous
 62
     1
100
AcDbLine
 10
31.204923
 20
17.431051
 30
0.0
 11
31.327132
 21
17.55326
 31
0.0
  0
LINE
  5
125
100
AcDbEntity
  8
1
370
    15
390
0
  6
Continuous
 62
     1
100
AcDbLine
 10
31.349431
 20
17.48949
 30
0.0
 11
31.204923
 21
17.344983
 31
0.0
  0
LINE
  5
126
100
AcDbEntity
  8
1
370
    15
390
0
  6
Continuous
 62
     1
100
AcDbLine
 10
31.326129
 20
18.150637
 30
0.0
 11
31.219924
 21
18.044432
 31
0.0
  0
LINE
  5
127
100
AcDbEntity
  8
1
370
    15
390
0
  6
Continuous
 62
     1
100
AcDbLine
 10
31.381221
 20
18.119661
 30
0.0
 11
31.219924
 21
17.958363
 31
0.0
  0
LINE
  5
128
100
AcDbEntity
  8
1
370
    15
390
0
  6
Continuous
 62
     1
100
AcDbLine
 10
31.381221
 20
18.034249
 30
0.0
 11
31.219924
 21
17.872952
 31
0.0
  0
LINE
  5
129
100
AcDbEntity
  8
1
370
    15
390
0
  6
Continuous
 62
     1
100
AcDbLine
 10
31.39108
 20
17.957183
 30
0.0
 11
31.303033
 21
17.869136
 31
0.0
  0
ELLIPSE
  5
12A
100
AcDbEntity
  8
1
370
    15
390
0
  6
Continuous
 62
     1
100
AcDbEllipse
 10
31.190507
 20
17.958969
 30
0.0
 11
-0.0001697540283203
 21
0.042210578918457
 31
0.0
210
0.0
220
0.0
230
1.0
 40
0.687106
 41
0.0
 42
6.2831853071795862
  0
ELLIPSE
  5
12B
100
AcDbEntity
  8
1
370
    15
390
0
  6
Continuous
 62
     1
100
AcDbEllipse
 10
31.176065
 20
17.365362
 30
0.0
 11
0.000218391418457
 21
0.0372576713562012
 31
0.0
210
0.0
220
0.0
230
1.0
 40
0.765214
 41
0.0
 42
6.2831853071795862
  0
LINE
  5
12C
100
AcDbEntity
  8
1
370
    15
390
0
  6
Continuous
 62
     1
100
AcDbLine
 10
31.423312
 20
16.900362
 30
0.0
 11
31.41829
 21
16.987109
 31
0.0
  0
LINE
  5
12D
100
AcDbEntity
  8
1
370
    15
390
0
  6
Continuous
 62
     1
100
AcDbLine
 10
31.41829
 20
16.987109
 30
0.0
 11
31.394534
 21
17.044094
 31
0.0
  0
LINE
  5
12E
100
AcDbEntity
  8
1
370
    15
390
0
  6
Continuous
 62
     1
100
AcDbLine
 10
31.394534
 20
17.044094
 30
0.0
 11
31.361276
 21
17.101079
 31
0.0
  0
LINE
  5
12F
100
AcDbEntity
  8
1
370
    15
390
0
  6
Continuous
 62
     1
100
AcDbLine
 10
31.361276
 20
17.101079
 30
0.0
 11
31.356524
 21
17.181809
 31
0.0
  0
LINE
  5
130
100
AcDbEntity
  8
1
370
    15
390
0
  6
Continuous
 62
     1
100
AcDbLine
 10
31.356524
 20
17.181809
 30
0.0
 11
31.366303
 21
17.244136
 31
0.0
  0
LINE
  5
131
100
AcDbEntity
  8
1
370
    15
390
0
  6
Continuous
 62
     1
100
AcDbLine
 10
31.366303
 20
17.244136
 30
0.0
 11
31.366027
 21
17.29103
 31
0.0
  0
LINE
  5
132
100
AcDbEntity
  8
1
370
    15
390
0
  6
Continuous
 62
     1
100
AcDbLine
 10
31.366027
 20
17.29103
 30
0.0
 11
31.356524
 21
17.343267
 31
0.0
  0
LINE
  5
133
100
AcDbEntity
  8
1
370
    15
390
0
  6
Continuous
 62
     1
100
AcDbLine
 10
31.356524
 20
17.343267
 30
0.0
 11
31.337518
 21
17.423997
 31
0.0
  0
LINE
  5
134
100
AcDbEntity
  8
1
370
    15
390
0
  6
Continuous
 62
     1
100
AcDbLine
 10
31.337518
 20
17.423997
 30
0.0
 11
31.340814
 21
17.429189
 31
0.0
  0
LINE
  5
135
100
AcDbEntity
  8
1
370
    15
390
0
  6
Continuous
 62
     1
100
AcDbLine
 10
31.343583
 20
17.398233
 30
0.0
 11
31.204923
 21
17.259572
 31
0.0
  0
LINE
  5
136
100
AcDbEntity
  8
1
370
    15
390
0
  6
Continuous
 62
     1
100
AcDbLine
 10
31.386792
 20
18.150637
 30
0.0
 11
31.251424
 21
18.150637
 31
0.0
  0
LINE
  5
137
100
AcDbEntity
  8
1
370
    15
390
0
  6
Continuous
 62
     7
100
AcDbLine
 10
30.150674
 20
16.682137
 30
0.0
 11
30.150674
 21
16.818136
 31
0.0
  0
LINE
  5
138
100
AcDbEntity
  8
1
370
    15
390
0
  6
Continuous
 62
     7
100
AcDbLine
 10
30.150674
 20
16.682137
 30
0.0
 11
30.199464
 21
16.633346
 31
0.0
  0
LINE
  5
139
100
AcDbEntity
  8
1
370
    15
390
0
  6
Continuous
 62
     7
100
AcDbLine
 10
30.199464
 20
16.633346
 30
0.0
 11
30.199464
 21
15.789138
 31
0.0
  0
LINE
  5
13A
100
AcDbEntity
  8
1
370
    15
390
0
  6
CL____X1
 62
     7
100
AcDbLine
 10
30.166673
 20
16.213137
 30
0.0
 11
30.166673
 21
16.661137
 31
0.0
  0
LINE
  5
13B
100
AcDbEntity
  8
1
370
    15
390
0
  6
Continuous
 62
     7
100
AcDbLine
 10
30.199464
 20
15.789138
 30
0.0
 11
30.220082
 21
15.768519
 31
0.0
  0
ARC
  5
13C
100
AcDbEntity
  8
1
370
    15
390
0
  6
Continuous
 62
     7
100
AcDbCircle
 10
30.19816
 20
15.746599
 30
0.0
 40
0.031001
100
AcDbArc
 50
359.999611
 51
404.997415
  0
LINE
  5
13D
100
AcDbEntity
  8
1
370
    15
390
0
  6
Continuous
 62
     7
100
AcDbLine
 10
30.229161
 20
15.451439
 30
0.0
 11
30.229161
 21
15.746599
 31
0.0
  0
LINE
  5
13E
100
AcDbEntity
  8
1
370
    15
390
0
  6
Continuous
 62
     7
100
AcDbLine
 10
30.322673
 20
15.451462
 30
0.0
 11
30.229161
 21
15.451439
 31
0.0
  0
LINE
  5
13F
100
AcDbEntity
  8
1
370
    15
390
0
  6
Continuous
 62
     7
100
AcDbLine
 10
30.666673
 20
17.520473
 30
0.0
 11
30.666673
 21
17.673291
 31
0.0
  0
LINE
  5
140
100
AcDbEntity
  8
1
370
    15
390
0
  6
CL____X1
 62
     1
100
AcDbLine
 10
30.178674
 20
16.855857
 30
0.0
 11
30.155673
 21
16.869136
 31
0.0
  0
LINE
  5
141
100
AcDbEntity
  8
1
370
    15
390
0
  6
CL____X1
 62
     1
100
AcDbLine
 10
30.178674
 20
16.855857
 30
0.0
 11
30.178674
 21
16.713137
 31
0.0
  0
LINE
  5
142
100
AcDbEntity
  8
1
370
    15
390
0
  6
CL____X1
 62
     1
100
AcDbLine
 10
30.225673
 20
16.686001
 30
0.0
 11
30.178674
 21
16.713137
 31
0.0
  0
LINE
  5
143
100
AcDbEntity
  8
1
370
    15
390
0
  6
CL____X1
 62
     1
100
AcDbLine
 10
30.225673
 20
16.686001
 30
0.0
 11
30.225673
 21
15.806637
 31
0.0
  0
LINE
  5
144
100
AcDbEntity
  8
1
370
    15
390
0
  6
CL____X1
 62
     1
100
AcDbLine
 10
30.259673
 20
15.787008
 30
0.0
 11
30.225673
 21
15.806637
 31
0.0
  0
LINE
  5
145
100
AcDbEntity
  8
1
370
    15
390
0
  6
CL____X1
 62
     1
100
AcDbLine
 10
30.259673
 20
15.787008
 30
0.0
 11
30.259673
 21
15.525137
 31
0.0
  0
LINE
  5
146
100
AcDbEntity
  8
1
370
    15
390
0
  6
CL____X1
 62
     1
100
AcDbLine
 10
30.322673
 20
15.488764
 30
0.0
 11
30.322673
 21
15.055544
 31
0.0
  0
LINE
  5
147
100
AcDbEntity
  8
1
370
    15
390
0
  6
CL____X1
 62
     1
100
AcDbLine
 10
30.322673
 20
15.488764
 30
0.0
 11
30.259673
 21
15.525137
 31
0.0
  0
CIRCLE
  5
149
100
AcDbEntity
  8
1
370
    15
390
0
  6
DIVIDE
 62
     1
100
AcDbCircle
 10
30.158992
 20
16.839683
 30
0.0
 40
0.076943
  0
LINE
  5
14A
100
AcDbEntity
  8
1
370
    15
390
0
  6
CL____X1
 62
     1
100
AcDbLine
 10
30.666673
 20
14.856935
 30
0.0
 11
30.322673
 21
15.055544
 31
0.0
  0
LINE
  5
14B
100
AcDbEntity
  8
1
370
    15
390
0
  6
Continuous
 62
     7
100
AcDbLine
 10
30.126672
 20
17.526136
 30
0.0
 11
30.126672
 21
16.838137
 31
0.0
  0
LINE
  5
14C
100
AcDbEntity
  8
1
370
    15
390
0
  6
Continuous
 62
     7
100
AcDbLine
 10
30.11167
 20
17.541138
 30
0.0
 11
30.126672
 21
17.526136
 31
0.0
  0
LINE
  5
14D
100
AcDbEntity
  8
1
370
    15
390
0
  6
Continuous
 62
     7
100
AcDbLine
 10
30.11167
 20
17.541139
 30
0.0
 11
30.11167
 21
18.119136
 31
0.0
  0
LINE
  5
14E
100
AcDbEntity
  8
1
370
    15
390
0
  6
Continuous
 62
     7
100
AcDbLine
 10
30.010171
 20
18.220638
 30
0.0
 11
30.11167
 21
18.119136
 31
0.0
  0
LINE
  5
14F
100
AcDbEntity
  8
1
370
    15
390
0
  6
Continuous
 62
     7
100
AcDbLine
 10
30.140172
 20
16.838137
 30
0.0
 11
30.126672
 21
16.838137
 31
0.0
  0
LINE
  5
150
100
AcDbEntity
  8
1
370
    15
390
0
  6
Continuous
 62
     7
100
AcDbLine
 10
30.150666
 20
16.819961
 30
0.0
 11
30.140172
 21
16.838137
 31
0.0
  0
LINE
  5
151
100
AcDbEntity
  8
1
370
    15
390
0
  6
CL____X1
 62
     1
100
AcDbLine
 10
30.138673
 20
18.155113
 30
0.0
 11
30.038173
 21
18.213136
 31
0.0
  0
LINE
  5
152
100
AcDbEntity
  8
1
370
    15
390
0
  6
CL____X1
 62
     1
100
AcDbLine
 10
30.138673
 20
18.155113
 30
0.0
 11
30.138673
 21
17.650136
 31
0.0
  0
LINE
  5
153
100
AcDbEntity
  8
1
370
    15
390
0
  6
CL____X1
 62
     1
100
AcDbLine
 10
30.155673
 20
17.640321
 30
0.0
 11
30.138673
 21
17.650136
 31
0.0
  0
LINE
  5
154
100
AcDbEntity
  8
1
370
    15
390
0
  6
CL____X1
 62
     1
100
AcDbLine
 10
30.155673
 20
17.640321
 30
0.0
 11
30.155673
 21
16.869136
 31
0.0
  0
LINE
  5
155
100
AcDbEntity
  8
1
370
    15
390
0
  6
Continuous
 62
     7
100
AcDbLine
 10
30.666673
 20
16.185096
 30
0.0
 11
30.666673
 21
16.337914
 31
0.0
  0
LINE
  5
156
100
AcDbEntity
  8
1
370
    15
390
0
  6
Continuous
 62
     7
100
AcDbLine
 10
30.666673
 20
14.764512
 30
0.0
 11
30.666673
 21
16.088578
 31
0.0
  0
LINE
  5
157
100
AcDbEntity
  8
1
370
    15
390
0
  6
Continuous
 62
     7
100
AcDbLine
 10
30.666673
 20
17.423955
 30
0.0
 11
30.666673
 21
16.434432
 31
0.0
  0
LINE
  5
158
100
AcDbEntity
  8
3
370
    15
390
0
  6
Continuous
 62
     1
100
AcDbLine
 10
30.664937
 20
19.558818
 30
0.0
 11
30.425862
 21
19.558818
 31
0.0
  0
LINE
  5
159
100
AcDbEntity
  8
3
370
    15
390
0
  6
Continuous
 62
     1
100
AcDbLine
 10
30.125673
 20
16.682137
 30
0.0
 11
30.023493
 21
16.682137
 31
0.0
  0
ARC
  5
15A
100
AcDbEntity
  8
3
370
    15
390
0
  6
Continuous
 62
     1
100
AcDbCircle
 10
30.012604
 20
18.1249
 30
0.0
 40
0.378508
100
AcDbArc
 50
61.13503
 51
90.368337
  0
ARC
  5
15B
100
AcDbEntity
  8
3
370
    15
390
0
  6
Continuous
 62
     1
100
AcDbCircle
 10
30.012608
 20
18.124897
 30
0.0
 40
0.378513
100
AcDbArc
 50
124.962098
 51
152.555693
  0
LINE
  5
15C
100
AcDbEntity
  8
3
370
    15
390
0
  6
Continuous
 62
     1
100
AcDbLine
 10
29.759064
 20
18.471742
 30
0.0
 11
29.968465
 21
18.262342
 31
0.0
  0
LINE
  5
15D
100
AcDbEntity
  8
4
370
    15
390
0
  6
Continuous
 62
     7
100
AcDbLine
 10
29.562352
 20
16.673444
 30
0.0
 11
29.602364
 21
16.757612
 31
0.0
  0
LINE
  5
15E
100
AcDbEntity
  8
3
370
    15
390
0
  6
Continuous
 62
     1
100
AcDbLine
 10
29.505364
 20
16.713125
 30
0.0
 11
29.152373
 21
16.713125
 31
0.0
  0
LINE
  5
15F
100
AcDbEntity
  8
0
370
    15
390
0
  6
Continuous
 62
     1
100
AcDbLine
 10
29.785104
 20
16.822758
 30
0.0
 11
29.722095
 21
16.713125
 31
0.0
  0
LINE
  5
160
100
AcDbEntity
  8
0
370
    15
390
0
  6
Continuous
 62
     1
100
AcDbLine
 10
29.741746
 20
16.822759
 30
0.0
 11
29.785104
 21
16.822758
 31
0.0
  0
LINE
  5
161
100
AcDbEntity
  8
0
370
    15
390
0
  6
Continuous
 62
     1
100
AcDbLine
 10
29.722101
 20
16.713134
 30
0.0
 11
29.6959
 21
16.758515
 31
0.0
  0
LINE
  5
162
100
AcDbEntity
  8
3
370
    15
390
0
  6
Continuous
 62
     1
100
AcDbLine
 10
29.882618
 20
16.713125
 30
0.0
 11
29.90855
 21
16.73827
 31
0.0
  0
LINE
  5
163
100
AcDbEntity
  8
3
370
    15
390
0
  6
Continuous
 62
     1
100
AcDbLine
 10
30.150674
 20
16.73827
 30
0.0
 11
29.90855
 21
16.73827
 31
0.0
  0
LINE
  5
164
100
AcDbEntity
  8
3
370
    15
390
0
  6
Continuous
 62
     1
100
AcDbLine
 10
29.655416
 20
16.713125
 30
0.0
 11
29.882618
 21
16.713125
 31
0.0
  0
LINE
  5
165
100
AcDbEntity
  8
3
370
    15
390
0
  6
Continuous
 62
     1
100
AcDbLine
 10
30.11167
 20
17.675745
 30
0.0
 11
29.655416
 21
17.675745
 31
0.0
  0
LINE
  5
166
100
AcDbEntity
  8
4
370
    15
390
0
  6
Continuous
 62
     7
100
AcDbLine
 10
29.562352
 20
17.636064
 30
0.0
 11
29.602364
 21
17.720232
 31
0.0
  0
LINE
  5
167
100
AcDbEntity
  8
3
370
    15
390
0
  6
Continuous
 62
     1
100
AcDbLine
 10
29.505364
 20
17.675745
 30
0.0
 11
29.152373
 21
17.675745
 31
0.0
  0
LINE
  5
168
100
AcDbEntity
  8
0
370
    15
390
0
  6
Continuous
 62
     1
100
AcDbLine
 10
29.785104
 20
17.785377
 30
0.0
 11
29.722095
 21
17.675745
 31
0.0
  0
LINE
  5
169
100
AcDbEntity
  8
0
370
    15
390
0
  6
Continuous
 62
     1
100
AcDbLine
 10
29.741746
 20
17.785378
 30
0.0
 11
29.785104
 21
17.785377
 31
0.0
  0
LINE
  5
16A
100
AcDbEntity
  8
0
370
    15
390
0
  6
Continuous
 62
     1
100
AcDbLine
 10
29.722101
 20
17.675753
 30
0.0
 11
29.6959
 21
17.721135
 31
0.0
  0
LINE
  5
16B
100
AcDbEntity
  8
3
370
    15
390
0
  6
Continuous
 62
     1
100
AcDbLine
 10
30.281285
 20
16.726745
 30
0.0
 11
30.281285
 21
16.838137
 31
0.0
  0
LINE
  5
16C
100
AcDbEntity
  8
3
370
    15
390
0
  6
Continuous
 62
     1
100
AcDbLine
 10
30.621985
 20
19.787818
 30
0.0
 11
30.281285
 21
19.787818
 31
0.0
  0
LINE
  5
16D
100
AcDbEntity
  8
3
370
    15
390
0
  6
Continuous
 62
     1
100
AcDbLine
 10
30.698107
 20
19.329753
 30
0.0
 11
30.560658
 21
19.329753
 31
0.0
  0
LINE
  5
16E
100
AcDbEntity
  8
3
370
    15
390
0
  6
Continuous
 62
     1
100
AcDbLine
 10
30.165172
 20
16.838137
 30
0.0
 11
30.560658
 21
16.838137
 31
0.0
  0
LINE
  5
16F
100
AcDbEntity
  8
3
370
    15
390
0
  6
Continuous
 62
     1
100
AcDbLine
 10
30.560658
 20
19.329753
 30
0.0
 11
30.560658
 21
16.838137
 31
0.0
  0
LINE
  5
170
100
AcDbEntity
  8
3
370
    15
390
0
  6
Continuous
 62
     1
100
AcDbLine
 10
30.425862
 20
19.558818
 30
0.0
 11
30.425862
 21
16.869136
 31
0.0
  0
LINE
  5
171
100
AcDbEntity
  8
3
370
    15
390
0
  6
Continuous
 62
     1
100
AcDbLine
 10
30.180673
 20
16.869136
 30
0.0
 11
30.425862
 21
16.869136
 31
0.0
  0
LINE
  5
172
100
AcDbEntity
  8
3
370
    15
390
0
  6
Continuous
 62
     1
100
AcDbLine
 10
31.28448
 20
18.838136
 30
0.0
 11
32.353677
 21
18.838136
 31
0.0
  0
LINE
  5
173
100
AcDbEntity
  8
3
370
    15
390
0
  6
Continuous
 62
     1
100
AcDbLine
 10
31.40236
 20
17.869136
 30
0.0
 11
31.689619
 21
17.869136
 31
0.0
  0
LINE
  5
174
100
AcDbEntity
  8
3
370
    15
390
0
  6
Continuous
 62
     1
100
AcDbLine
 10
31.376344
 20
17.557137
 30
0.0
 11
31.689619
 21
17.557137
 31
0.0
  0
LINE
  5
175
100
AcDbEntity
  8
3
370
    15
390
0
  6
Continuous
 62
     1
100
AcDbLine
 10
31.627936
 20
17.869136
 30
0.0
 11
31.627936
 21
17.557137
 31
0.0
  0
LINE
  5
176
100
AcDbEntity
  8
3
370
    15
390
0
  6
Continuous
 62
     1
100
AcDbLine
 10
31.627936
 20
17.869136
 30
0.0
 11
31.627936
 21
17.949277
 31
0.0
  0
LINE
  5
177
100
AcDbEntity
  8
3
370
    15
390
0
  6
Continuous
 62
     1
100
AcDbLine
 10
31.627936
 20
17.949277
 30
0.0
 11
31.71275
 21
17.949277
 31
0.0
  0
LINE
  5
178
100
AcDbEntity
  8
3
370
    15
390
0
  6
Continuous
 62
     1
100
AcDbLine
 10
31.46445
 20
15.807137
 30
0.0
 11
31.689619
 21
15.807137
 31
0.0
  0
LINE
  5
179
100
AcDbEntity
  8
3
370
    15
390
0
  6
Continuous
 62
     1
100
AcDbLine
 10
31.50413
 20
16.431221
 30
0.0
 11
31.689619
 21
16.431221
 31
0.0
  0
LINE
  5
17A
100
AcDbEntity
  8
3
370
    15
390
0
  6
Continuous
 62
     1
100
AcDbLine
 10
31.627936
 20
16.431221
 30
0.0
 11
31.627936
 21
15.807137
 31
0.0
  0
LINE
  5
17B
100
AcDbEntity
  8
3
370
    15
390
0
  6
Continuous
 62
     1
100
AcDbLine
 10
31.627936
 20
16.431221
 30
0.0
 11
31.627936
 21
16.511363
 31
0.0
  0
LINE
  5
17C
100
AcDbEntity
  8
3
370
    15
390
0
  6
Continuous
 62
     1
100
AcDbLine
 10
31.627936
 20
16.511363
 30
0.0
 11
31.71275
 21
16.511363
 31
0.0
  0
LINE
  5
17D
100
AcDbEntity
  8
1
370
    15
390
0
  6
Continuous
 62
     1
100
AcDbLine
 10
32.414396
 20
18.150637
 30
0.0
 11
31.422608
 21
18.150637
 31
0.0
  0
LINE
  5
17E
100
AcDbEntity
  8
3
370
    15
390
0
  6
Continuous
 62
     1
100
AcDbLine
 10
31.653585
 20
19.028847
 30
0.0
 11
31.414922
 21
19.028847
 31
0.0
  0
LINE
  5
17F
100
AcDbEntity
  8
4
370
    15
390
0
  6
Continuous
 62
     7
100
AcDbLine
 10
32.067533
 20
18.988462
 30
0.0
 11
32.107545
 21
19.07263
 31
0.0
  0
LINE
  5
180
100
AcDbEntity
  8
1
370
    15
390
0
  6
Continuous
 62
     7
100
AcDbLine
 10
30.666673
 20
17.769809
 30
0.0
 11
30.666673
 21
18.919828
 31
0.0
  0
LINE
  5
181
100
AcDbEntity
  8
4
370
    15
390
0
  6
Continuous
 62
     1
100
AcDbLine
 10
29.10731
 20
16.670834
 30
0.0
 11
29.10731
 21
16.774598
 31
0.0
  0
LINE
  5
182
100
AcDbEntity
  8
4
370
    15
390
0
  6
Continuous
 62
     1
100
AcDbLine
 10
29.10731
 20
16.774598
 30
0.0
 11
29.006915
 21
16.774598
 31
0.0
  0
LINE
  5
183
100
AcDbEntity
  8
4
370
    15
390
0
  6
Continuous
 62
     1
100
AcDbLine
 10
29.006915
 20
16.774598
 30
0.0
 11
29.006915
 21
16.670388
 31
0.0
  0
LINE
  5
184
100
AcDbEntity
  8
4
370
    15
390
0
  6
Continuous
 62
     1
100
AcDbLine
 10
29.10731
 20
16.774598
 30
0.0
 11
29.006915
 21
16.774598
 31
0.0
  0
LINE
  5
185
100
AcDbEntity
  8
4
370
    15
390
0
  6
Continuous
 62
     1
100
AcDbLine
 10
29.10731
 20
16.670834
 30
0.0
 11
29.006915
 21
16.670834
 31
0.0
  0
LINE
  5
186
100
AcDbEntity
  8
4
370
    15
390
0
  6
Continuous
 62
     1
100
AcDbLine
 10
29.152373
 20
16.713125
 30
0.0
 11
29.10731
 21
16.713125
 31
0.0
  0
LINE
  5
187
100
AcDbEntity
  8
4
370
    15
390
0
  6
Continuous
 62
     1
100
AcDbLine
 10
29.152373
 20
17.675745
 30
0.0
 11
29.132434
 21
17.675745
 31
0.0
  0
LINE
  5
188
100
AcDbEntity
  8
1
370
    15
390
0
  6
Continuous
 62
     1
100
AcDbLine
 10
31.154632
 20
17.713137
 30
0.0
 11
32.359836
 21
17.713137
 31
0.0
  0
LINE
  5
189
100
AcDbEntity
  8
3
370
    15
390
0
  6
Continuous
 62
     1
100
AcDbLine
 10
31.146091
 20
17.057137
 30
0.0
 11
32.318865
 21
17.057137
 31
0.0
  0
LINE
  5
18A
100
AcDbEntity
  8
3
370
    15
390
0
  6
Continuous
 62
     1
100
AcDbLine
 10
31.317307
 20
16.119637
 30
0.0
 11
32.419016
 21
16.119637
 31
0.0
  0
LINE
  5
18B
100
AcDbEntity
  8
3
370
    15
390
0
  6
Continuous
 62
     1
100
AcDbLine
 10
30.185847
 20
15.451439
 30
0.0
 11
29.116495
 21
15.451439
 31
0.0
  0
LINE
  5
18C
100
AcDbEntity
  8
4
370
    15
390
0
  6
Continuous
 62
     1
100
AcDbLine
 10
29.116495
 20
15.451439
 30
0.0
 11
28.939261
 21
15.451439
 31
0.0
  0
LINE
  5
18D
100
AcDbEntity
  8
3
370
    15
390
0
  6
Continuous
 62
     1
100
AcDbLine
 10
30.036302
 20
15.260763
 30
0.0
 11
30.229161
 21
15.451439
 31
0.0
  0
LINE
  5
18E
100
AcDbEntity
  8
3
370
    15
390
0
  6
Continuous
 62
     1
100
AcDbLine
 10
30.869616
 20
14.613983
 30
0.0
 11
31.010673
 21
14.613983
 31
0.0
  0
LINE
  5
18F
100
AcDbEntity
  8
3
370
    15
390
0
  6
Continuous
 62
     1
100
AcDbLine
 10
30.463372
 20
14.613983
 30
0.0
 11
30.322673
 21
14.613983
 31
0.0
  0
LINE
  5
190
100
AcDbEntity
  8
3
370
    15
390
0
  6
Continuous
 62
     1
100
AcDbLine
 10
30.322673
 20
15.030544
 30
0.0
 11
30.322673
 21
14.548552
 31
0.0
  0
LINE
  5
191
100
AcDbEntity
  8
3
370
    15
390
0
  6
Continuous
 62
     1
100
AcDbLine
 10
31.010673
 20
14.918574
 30
0.0
 11
31.010673
 21
14.548552
 31
0.0
  0
LINE
  5
192
100
AcDbEntity
  8
4
370
    15
390
0
  6
Continuous
 62
     7
100
AcDbLine
 10
30.815567
 20
14.576931
 30
0.0
 11
30.855579
 21
14.661099
 31
0.0
  0
LINE
  5
193
100
AcDbEntity
  8
4
370
    15
390
0
  6
Continuous
 62
     1
100
AcDbLine
 10
30.036302
 20
15.260763
 30
0.0
 11
29.991153
 21
15.260763
 31
0.0
  0
TEXT
  5
195
100
AcDbEntity
  8
0
370
    15
390
0
  6
Continuous
 62
     7
100
AcDbText
 10
27.84336
 20
17.939794
 30
0.0
 40
0.032922
  1
LET
 50
270.0
  7
Vcadd_SIMP
100
AcDbText
  0
TEXT
  5
196
100
AcDbEntity
  8
0
370
    15
390
0
  6
Continuous
 62
     7
100
AcDbText
 10
27.84337
 20
17.386152
 30
0.0
 40
0.032922
  1
REVISION 
 50
270.0
  7
Vcadd_SIMP
100
AcDbText
  0
TEXT
  5
197
100
AcDbEntity
  8
0
370
    15
390
0
  6
Continuous
 62
     7
100
AcDbText
 10
27.842356
 20
16.585569
 30
0.0
 40
0.032922
  1
DATE 
 50
270.0
  7
Vcadd_SIMP
100
AcDbText
  0
TEXT
  5
198
100
AcDbEntity
  8
0
370
    15
390
0
  6
Continuous
 62
     7
100
AcDbText
 10
27.842439
 20
16.378558
 30
0.0
 40
0.032922
  1
DRN 
 50
270.0
  7
Vcadd_SIMP
100
AcDbText
  0
TEXT
  5
199
100
AcDbEntity
  8
0
370
    15
390
0
  6
Continuous
 62
     7
100
AcDbText
 10
27.842273
 20
16.254822
 30
0.0
 40
0.032922
  1
CHK 
 50
270.0
  7
Vcadd_SIMP
100
AcDbText
  0
TEXT
  5
19A
100
AcDbEntity
  8
0
370
    15
390
0
  6
Continuous
 62
     7
100
AcDbText
 10
27.842439
 20
16.130308
 30
0.0
 40
0.032922
  1
REL
 50
270.0
  7
Vcadd_SIMP
100
AcDbText
  0
TEXT
  5
19B
100
AcDbEntity
  8
0
370
    15
390
0
  6
Continuous
 62
     7
100
AcDbText
 10
28.454412
 20
15.86182
 30
0.0
 40
0.031
  1
UNLESS
 50
270.0
  7
Vcadd_SIMP
100
AcDbText
  0
TEXT
  5
19C
100
AcDbEntity
  8
0
370
    15
390
0
  6
Continuous
 62
     7
100
AcDbText
 10
28.402534
 20
15.907033
 30
0.0
 40
0.031
  1
OTHERWISE
 50
270.0
  7
Vcadd_SIMP
100
AcDbText
  0
TEXT
  5
19D
100
AcDbEntity
  8
0
370
    15
390
0
  6
Continuous
 62
     7
100
AcDbText
 10
28.346503
 20
15.905956
 30
0.0
 40
0.031
  1
SPECIFIED
 50
270.0
  7
Vcadd_SIMP
100
AcDbText
  0
TEXT
  5
19E
100
AcDbEntity
  8
0
370
    15
390
0
  6
Continuous
 62
     7
100
AcDbText
 10
28.448008
 20
14.000616
 30
0.0
 40
0.031
  1
REVISION
 50
270.0
  7
Vcadd_SIMP
100
AcDbText
  0
TEXT
  5
19F
100
AcDbEntity
  8
0
370
    15
390
0
  6
Continuous
 62
     7
100
AcDbText
 10
28.237937
 20
15.505468
 30
0.0
 40
0.031
  1
SCALE
 50
270.0
  7
Vcadd_SIMP
100
AcDbText
  0
TEXT
  5
1A0
100
AcDbEntity
  8
0
370
    15
390
0
  6
Continuous
 62
     7
100
AcDbText
 10
28.237937
 20
15.505468
 30
0.0
 40
0.031
  1
      REF.                
 50
270.0
  7
Vcadd_SIMP
100
AcDbText
  0
TEXT
  5
1A1
100
AcDbEntity
  8
0
370
    15
390
0
  6
Continuous
 62
     7
100
AcDbText
 10
28.237937
 20
14.688579
 30
0.0
 40
0.031
  1
MATERIAL
 50
270.0
  7
Vcadd_SIMP
100
AcDbText
  0
TEXT
  5
1A2
100
AcDbEntity
  8
0
370
    15
390
0
  6
Continuous
 62
     7
100
AcDbText
 10
28.05426
 20
15.502935
 30
0.0
 40
0.031
  1
DRAWN    
 50
270.0
  7
Vcadd_SIMP
100
AcDbText
  0
TEXT
  5
1A3
100
AcDbEntity
  8
0
370
    15
390
0
  6
Continuous
 62
     7
100
AcDbText
 10
28.05426
 20
15.235091
 30
0.0
 40
0.031
  1
CHECK 
 50
270.0
  7
Vcadd_SIMP
100
AcDbText
  0
TEXT
  5
1A4
100
AcDbEntity
  8
0
370
    15
390
0
  6
Continuous
 62
     7
100
AcDbText
 10
28.05426
 20
14.964714
 30
0.0
 40
0.031
  1
RELEASE
 50
270.0
  7
Vcadd_SIMP
100
AcDbText
  0
TEXT
  5
1A5
100
AcDbEntity
  8
0
370
    15
390
0
  6
Continuous
 62
     7
100
AcDbText
 10
27.90965
 20
15.49992
 30
0.0
 40
0.031
  1
DATE     
 50
270.0
  7
Vcadd_SIMP
100
AcDbText
  0
TEXT
  5
1A6
100
AcDbEntity
  8
0
370
    15
390
0
  6
Continuous
 62
     7
100
AcDbText
 10
27.90965
 20
15.232075
 30
0.0
 40
0.031
  1
DATE  
 50
270.0
  7
Vcadd_SIMP
100
AcDbText
  0
TEXT
  5
1A7
100
AcDbEntity
  8
0
370
    15
390
0
  6
Continuous
 62
     7
100
AcDbText
 10
27.90965
 20
14.961699
 30
0.0
 40
0.031
  1
DATE
 50
270.0
  7
Vcadd_SIMP
100
AcDbText
  0
TEXT
  5
1A8
100
AcDbEntity
  8
0
370
    15
390
0
  6
Continuous
 62
     7
100
AcDbText
 10
28.05426
 20
14.69021
 30
0.0
 40
0.031
  1
HEAT TREAT & FINISH
 50
270.0
  7
Vcadd_SIMP
100
AcDbText
  0
TEXT
  5
1A9
100
AcDbEntity
  8
0
370
    15
390
0
  6
Continuous
 62
     7
100
AcDbText
 10
28.448008
 20
13.907616
 30
0.0
 40
0.031
  1
      PART NO.
 50
270.0
  7
Vcadd_SIMP
100
AcDbText
  0
TEXT
  5
1AA
100
AcDbEntity
  8
0
370
    15
390
0
  6
Continuous
 62
     7
100
AcDbText
 10
32.762532
 20
14.006843
 30
0.0
 40
0.031
  1
REVISION PART NO.
 50
270.0
  7
Vcadd_SIMP
100
AcDbText
  0
TEXT
  5
1AB
100
AcDbEntity
  8
0
370
    15
390
0
  6
Continuous
 62
     7
100
AcDbText
 10
28.447993
 20
15.50121
 30
0.0
 40
0.031
  1
TITLE
 50
270.0
  7
Vcadd_SIMP
100
AcDbText
  0
TEXT
  5
1AC
100
AcDbEntity
  8
0
370
    15
390
0
  6
Continuous
 62
     7
100
AcDbText
 10
28.131935
 20
15.488207
 30
0.0
 40
0.047
  1
2:1
 50
270.0
  7
Vcadd_SIMP
100
AcDbText
  0
TEXT
  5
1AD
100
AcDbEntity
  8
0
370
    15
390
0
  6
Continuous
 62
     7
100
AcDbText
 10
27.980828
 20
15.485126
 30
0.0
 40
0.047
  1
D
 50
270.0
  7
Vcadd_SIMP
100
AcDbText
  0
TEXT
  5
1AE
100
AcDbEntity
  8
0
370
    15
390
0
  6
Continuous
 62
     7
100
AcDbText
 10
27.980828
 20
15.391126
 30
0.0
 40
0.047
  1
S   
 50
270.0
  7
Vcadd_SIMP
100
AcDbText
  0
TEXT
  5
1AF
100
AcDbEntity
  8
0
370
    15
390
0
  6
Continuous
 62
     7
100
AcDbText
 10
27.838972
 20
15.485125
 30
0.0
 40
0.0325
  1
1-12-87 
 50
270.0
  7
Vcadd_SIMP
100
AcDbText
  0
TEXT
  5
1B0
100
AcDbEntity
  8
0
370
    15
390
0
  6
Continuous
 62
     7
100
AcDbText
 10
27.980828
 20
15.438126
 30
0.0
 40
0.047
  1
A
 50
270.0
  7
Vcadd_SIMP
100
AcDbText
  0
TEXT
  5
1B1
100
AcDbEntity
  8
4
370
    15
390
0
  6
Continuous
 62
     7
100
AcDbText
 10
28.924818
 20
16.848619
 30
0.0
 40
0.071
  1
L
  7
Vcadd_SIMP
100
AcDbText
  0
TEXT
  5
1B2
100
AcDbEntity
  8
4
370
    15
390
0
  6
Continuous
 62
     7
100
AcDbText
 10
28.995817
 20
16.848619
 30
0.0
 40
0.071
  1
.S.
  7
Vcadd_SIMP
100
AcDbText
  0
TEXT
  5
1B3
100
AcDbEntity
  8
4
370
    15
390
0
  6
Continuous
 62
     7
100
AcDbText
 10
29.551368
 20
16.681028
 30
0.0
 40
0.081375
  1
O
  7
Vcadd_SIMP
100
AcDbText
  0
TEXT
  5
1B4
100
AcDbEntity
  8
4
370
    15
390
0
  6
Continuous
 62
     7
100
AcDbText
 10
29.551368
 20
17.643647
 30
0.0
 40
0.081375
  1
O
  7
Vcadd_SIMP
100
AcDbText
  0
TEXT
  5
1B5
100
AcDbEntity
  8
4
370
    15
390
0
  6
Continuous
 62
     7
100
AcDbText
 10
32.056548
 20
18.996046
 30
0.0
 40
0.081375
  1
O
  7
Vcadd_SIMP
100
AcDbText
  0
TEXT
  5
1B6
100
AcDbEntity
  8
4
370
    15
390
0
  6
Continuous
 62
     7
100
AcDbText
 10
29.15083
 20
17.682038
 30
0.0
 40
0.071
  1
28,14
  7
Vcadd_SIMP
100
AcDbText
  0
TEXT
  5
1B7
100
AcDbEntity
  8
4
370
    15
390
0
  6
Continuous
 62
     7
100
AcDbText
 10
29.15083
 20
17.593288
 30
0.0
 40
0.071
  1
28,19
  7
Vcadd_SIMP
100
AcDbText
  0
TEXT
  5
1B8
100
AcDbEntity
  8
4
370
    15
390
0
  6
Continuous
 62
     7
100
AcDbText
 10
29.154254
 20
16.630685
 30
0.0
 40
0.071
  1
26,24
  7
Vcadd_SIMP
100
AcDbText
  0
TEXT
  5
1B9
100
AcDbEntity
  8
4
370
    15
390
0
  6
Continuous
 62
     7
100
AcDbText
 10
29.028129
 20
16.68956
 30
0.0
 40
0.071
  1
A
  7
Vcadd_SIMP
100
AcDbText
  0
TEXT
  5
1BA
100
AcDbEntity
  8
4
370
    15
390
0
  6
Continuous
 62
     7
100
AcDbText
 10
31.685823
 20
19.00356
 30
0.0
 40
0.071
  1
38,10
  7
Vcadd_SIMP
100
AcDbText
  0
TEXT
  5
1BB
100
AcDbEntity
  8
4
370
    15
390
0
  6
Continuous
 62
     7
100
AcDbText
 10
32.443135
 20
18.11278
 30
0.0
 40
0.071
  1
33,32
  7
Vcadd_SIMP
100
AcDbText
  0
TEXT
  5
1BC
100
AcDbEntity
  8
4
370
    15
390
0
  6
Continuous
 62
     7
100
AcDbText
 10
32.437225
 20
16.084444
 30
0.0
 40
0.071
  1
18,26
  7
Vcadd_SIMP
100
AcDbText
  0
TEXT
  5
1BD
100
AcDbEntity
  8
4
370
    15
390
0
  6
Continuous
 62
     7
100
AcDbText
 10
30.440048
 20
14.58358
 30
0.0
 40
0.071
  1
17,48
  7
Vcadd_SIMP
100
AcDbText
  0
TEXT
  5
1BE
100
AcDbEntity
  8
4
370
    15
390
0
  6
Continuous
 62
     7
100
AcDbText
 10
30.804583
 20
14.584514
 30
0.0
 40
0.081375
  1
O
  7
Vcadd_SIMP
100
AcDbText
  0
LINE
  5
1BF
100
AcDbEntity
  8
4
370
    15
390
0
  6
Continuous
 62
     7
100
AcDbLine
 10
28.507732
 20
12.645383
 30
0.0
 11
28.507732
 21
12.645383
 31
0.0
  0
TEXT
  5
1C0
100
AcDbEntity
  8
0
370
    15
390
0
  6
Continuous
 62
     7
100
AcDbText
 10
28.138721
 20
15.263661
 30
0.0
 40
0.06016
  1
SERIES 2
 50
270.0
  7
Vcadd_SIMP
100
AcDbText
  0
TEXT
  5
1C1
100
AcDbEntity
  8
4
370
    15
390
0
  6
Continuous
 62
     7
100
AcDbText
 10
31.749824
 20
17.916417
 30
0.0
 40
0.071
  1
7,92
  7
Vcadd_SIMP
100
AcDbText
  0
TEXT
  5
1C2
100
AcDbEntity
  8
4
370
    15
390
0
  6
Continuous
 62
     7
100
AcDbText
 10
31.772585
 20
16.488905
 30
0.0
 40
0.071
  1
15,88
  7
Vcadd_SIMP
100
AcDbText
  0
LINE
  5
1C3
100
AcDbEntity
  8
4
370
    15
390
0
  6
Continuous
 62
     1
100
AcDbLine
 10
31.703812
 20
19.479847
 30
0.0
 11
31.638384
 21
19.479847
 31
0.0
  0
LINE
  5
1C4
100
AcDbEntity
  8
4
370
    15
390
0
  6
Continuous
 62
     1
100
AcDbLine
 10
31.638384
 20
19.479847
 30
0.0
 11
31.638384
 21
19.162257
 31
0.0
  0
LINE
  5
1C5
100
AcDbEntity
  8
4
370
    15
390
0
  6
Continuous
 62
     1
100
AcDbLine
 10
31.638384
 20
19.162257
 30
0.0
 11
32.221576
 21
19.162257
 31
0.0
  0
LINE
  5
1C6
100
AcDbEntity
  8
4
370
    15
390
0
  6
Continuous
 62
     1
100
AcDbLine
 10
32.221576
 20
19.162257
 30
0.0
 11
32.221576
 21
19.028847
 31
0.0
  0
LINE
  5
1C7
100
AcDbEntity
  8
4
370
    15
390
0
  6
Continuous
 62
     1
100
AcDbLine
 10
32.156148
 20
19.028847
 30
0.0
 11
32.221576
 21
19.028847
 31
0.0
  0
LINE
  5
1C8
100
AcDbEntity
  8
4
370
    15
390
0
  6
Continuous
 62
     1
100
AcDbLine
 10
31.834313
 20
18.557137
 30
0.0
 11
31.7993
 21
18.45705
 31
0.0
  0
LINE
  5
1C9
100
AcDbEntity
  8
4
370
    15
390
0
  6
Continuous
 62
     1
100
AcDbLine
 10
31.473221
 20
18.557137
 30
0.0
 11
31.834313
 21
18.557137
 31
0.0
  0
LINE
  5
1CA
100
AcDbEntity
  8
4
370
    15
390
0
  6
Continuous
 62
     1
100
AcDbLine
 10
31.7993
 20
18.45705
 30
0.0
 11
32.352077
 21
18.45705
 31
0.0
  0
TEXT
  5
1CB
100
AcDbEntity
  8
4
370
    15
390
0
  6
Continuous
 62
     7
100
AcDbText
 10
32.402316
 20
18.810767
 30
0.0
 40
0.071
  1
50,80
  7
Vcadd_SIMP
100
AcDbText
  0
TEXT
  5
1CC
100
AcDbEntity
  8
4
370
    15
390
0
  6
Continuous
 62
     7
100
AcDbText
 10
32.364809
 20
18.431232
 30
0.0
 40
0.071
  1
43,66*
  7
Vcadd_SIMP
100
AcDbText
  0
TEXT
  5
1CD
100
AcDbEntity
  8
4
370
    15
390
0
  6
Continuous
 62
     7
100
AcDbText
 10
32.364809
 20
18.324732
 30
0.0
 40
0.071
  1
 REF
  7
Vcadd_SIMP
100
AcDbText
  0
LINE
  5
1CE
100
AcDbEntity
  8
3
370
    15
390
0
  6
Continuous
 62
     1
100
AcDbLine
 10
30.11167
 20
18.119136
 30
0.0
 11
29.91869
 21
17.964158
 31
0.0
  0
LINE
  5
1CF
100
AcDbEntity
  8
3
370
    15
390
0
  6
Continuous
 62
     1
100
AcDbLine
 10
29.91869
 20
17.964158
 30
0.0
 11
29.800129
 21
17.964158
 31
0.0
  0
LINE
  5
1D1
100
AcDbEntity
  8
4
370
    15
390
0
  6
TYPE___8
 62
     1
100
AcDbLine
 10
30.174758
 20
16.916317
 30
0.0
 11
29.414693
 21
17.089387
 31
0.0
  0
LINE
  5
1D2
100
AcDbEntity
  8
1
370
    15
390
0
  6
Continuous
 62
     7
100
AcDbLine
 10
28.689698
 20
17.109602
 30
0.0
 11
28.757302
 21
17.109602
 31
0.0
  0
LINE
  5
1D3
100
AcDbEntity
  8
1
370
    15
390
0
  6
Continuous
 62
     7
100
AcDbLine
 10
28.8145
 20
17.010529
 30
0.0
 11
28.757302
 21
17.109602
 31
0.0
  0
CIRCLE
  5
1D4
100
AcDbEntity
  8
1
370
    15
390
0
  6
Continuous
 62
     1
100
AcDbCircle
 10
28.754319
 20
17.07922
 30
0.0
 40
0.138354
  0
LINE
  5
1D5
100
AcDbEntity
  8
1
370
    15
390
0
  6
Continuous
 62
     7
100
AcDbLine
 10
28.689698
 20
17.109602
 30
0.0
 11
28.689698
 21
17.202593
 31
0.0
  0
LINE
  5
1D6
100
AcDbEntity
  8
1
370
    15
390
0
  6
Continuous
 62
     7
100
AcDbLine
 10
28.8145
 20
16.954638
 30
0.0
 11
28.8145
 21
17.010529
 31
0.0
  0
LINE
  5
1D7
100
AcDbEntity
  8
1
370
    15
390
0
  6
Continuous
 62
     1
100
AcDbLine
 10
28.757302
 20
17.127096
 30
0.0
 11
28.757302
 21
17.388762
 31
0.0
  0
LINE
  5
1D8
100
AcDbEntity
  8
1
370
    15
390
0
  6
Continuous
 62
     1
100
AcDbLine
 10
28.616765
 20
17.35302
 30
0.0
 11
28.748727
 21
17.124454
 31
0.0
  0
INSERT
  5
1E6
100
AcDbEntity
  8
3
370
    60
390
0
  6
Continuous
 62
     1
100
AcDbBlockReference
  2
MAU
 10
28.757302
 20
17.3461
 30
0.0
 41
0.5
 42
-0.5
 50
270.0
  0
LINE
  5
1E7
100
AcDbEntity
  8
3
370
    15
390
0
  6
Continuous
 62
     1
100
AcDbLine
 10
28.883641
 20
17.3461
 30
0.0
 11
28.757302
 21
17.3461
 31
0.0
  0
INSERT
  5
1F5
100
AcDbEntity
  8
3
370
    70
390
0
  6
Continuous
 62
     1
100
AcDbBlockReference
  2
MAL
 10
28.639302
 20
17.313984
 30
0.0
 41
0.5
 42
-0.5
 50
205.0
  0
LINE
  5
1F6
100
AcDbEntity
  8
3
370
    15
390
0
  6
Continuous
 62
     1
100
AcDbLine
 10
28.532517
 20
17.25874
 30
0.0
 11
28.639302
 21
17.313984
 31
0.0
  0
INSERT
  5
1F7
100
AcDbEntity
  8
3
370
    60
390
0
  6
Continuous
 62
     1
100
AcDbBlockReference
  2
MAU
 10
28.757302
 20
17.166914
 30
0.0
 41
0.5
 42
-0.5
 50
270.0
  0
LINE
  5
1F8
100
AcDbEntity
  8
3
370
    15
390
0
  6
Continuous
 62
     1
100
AcDbLine
 10
28.757302
 20
17.166914
 30
0.0
 11
29.258253
 21
17.166914
 31
0.0
  0
LINE
  5
1F9
100
AcDbEntity
  8
4
370
    15
390
0
  6
Continuous
 62
     7
100
AcDbLine
 10
29.289127
 20
17.117624
 30
0.0
 11
29.329139
 21
17.201792
 31
0.0
  0
TEXT
  5
1FA
100
AcDbEntity
  8
4
370
    15
390
0
  6
Continuous
 62
     7
100
AcDbText
 10
29.278143
 20
17.125208
 30
0.0
 40
0.081375
  1
O
  7
Vcadd_SIMP
100
AcDbText
  0
LINE
  5
1FB
100
AcDbEntity
  8
4
370
    15
390
0
  6
TYPE___8
 62
     1
100
AcDbLine
 10
28.755102
 20
16.940689
 30
0.0
 11
29.531135
 21
16.902697
 31
0.0
  0
LINE
  5
1FC
100
AcDbEntity
  8
3
370
    15
390
0
  6
Continuous
 62
     1
100
AcDbLine
 10
29.933887
 20
17.455039
 30
0.0
 11
29.712431
 21
17.455039
 31
0.0
  0
LINE
  5
1FD
100
AcDbEntity
  8
4
370
    15
390
0
  6
Continuous
 62
     1
100
AcDbLine
 10
29.933887
 20
17.455039
 30
0.0
 11
30.126671
 21
17.526136
 31
0.0
  0
TEXT
  5
1FE
100
AcDbEntity
  8
4
370
    15
390
0
  6
Continuous
 62
     7
100
AcDbText
 10
29.80988
 20
18.567115
 30
0.0
 40
0.071
  1
45^  
  7
Vcadd_SIMP
100
AcDbText
  0
TEXT
  5
1FF
100
AcDbEntity
  8
4
370
    15
390
0
  6
Continuous
 62
     7
100
AcDbText
 10
29.80988
 20
18.460615
 30
0.0
 40
0.071
  1
**
  7
Vcadd_SIMP
100
AcDbText
  0
ARC
  5
200
100
AcDbEntity
  8
4
370
    15
390
0
  6
Continuous
 62
     1
100
AcDbCircle
 10
30.126671
 20
17.404336
 30
0.0
 40
0.365962
100
AcDbArc
 50
248.456372
 51
270.0
  0
ARC
  5
201
100
AcDbEntity
  8
4
370
    15
390
0
  6
Continuous
 62
     1
100
AcDbCircle
 10
30.212797
 20
17.440011
 30
0.0
 40
0.365962
100
AcDbArc
 50
315.0
 51
334.186528
  0
LINE
  5
202
100
AcDbEntity
  8
4
370
    15
390
0
  6
Continuous
 62
     1
100
AcDbLine
 10
30.166459
 20
17.486348
 30
0.0
 11
30.517267
 21
17.13554
 31
0.0
  0
TEXT
  5
203
100
AcDbEntity
  8
4
370
    15
390
0
  6
Continuous
 62
     7
100
AcDbText
 10
30.205052
 20
17.119338
 30
0.0
 40
0.071
  1
45^  
  7
Vcadd_SIMP
100
AcDbText
  0
TEXT
  5
204
100
AcDbEntity
  8
4
370
    15
390
0
  6
Continuous
 62
     7
100
AcDbText
 10
30.205052
 20
17.030588
 30
0.0
 40
0.071
  1
**
  7
Vcadd_SIMP
100
AcDbText
  0
LINE
  5
205
100
AcDbEntity
  8
4
370
    15
390
0
  6
TYPE___8
 62
     1
100
AcDbLine
 10
29.531135
 20
16.902697
 30
0.0
 11
30.146086
 21
16.765121
 31
0.0
  0
LINE
  5
206
100
AcDbEntity
  8
4
370
    15
390
0
  6
Continuous
 62
     7
100
AcDbLine
 10
29.85946
 20
17.175106
 30
0.0
 11
29.899473
 21
17.259274
 31
0.0
  0
LINE
  5
207
100
AcDbEntity
  8
3
370
    15
390
0
  6
Continuous
 62
     1
100
AcDbLine
 10
29.802473
 20
17.214787
 30
0.0
 11
29.449481
 21
17.214787
 31
0.0
  0
LINE
  5
208
100
AcDbEntity
  8
0
370
    15
390
0
  6
Continuous
 62
     1
100
AcDbLine
 10
30.082212
 20
17.32442
 30
0.0
 11
30.019204
 21
17.214787
 31
0.0
  0
LINE
  5
209
100
AcDbEntity
  8
0
370
    15
390
0
  6
Continuous
 62
     1
100
AcDbLine
 10
30.038854
 20
17.324421
 30
0.0
 11
30.082212
 21
17.32442
 31
0.0
  0
LINE
  5
20A
100
AcDbEntity
  8
0
370
    15
390
0
  6
Continuous
 62
     1
100
AcDbLine
 10
30.01921
 20
17.214796
 30
0.0
 11
29.993008
 21
17.260178
 31
0.0
  0
TEXT
  5
20B
100
AcDbEntity
  8
4
370
    15
390
0
  6
Continuous
 62
     7
100
AcDbText
 10
29.848476
 20
17.18269
 30
0.0
 40
0.081375
  1
O
  7
Vcadd_SIMP
100
AcDbText
  0
LINE
  5
20C
100
AcDbEntity
  8
3
370
    15
390
0
  6
Continuous
 62
     1
100
AcDbLine
 10
29.944742
 20
17.214787
 30
0.0
 11
30.03066
 21
17.214787
 31
0.0
  0
LINE
  5
20D
100
AcDbEntity
  8
4
370
    15
390
0
  6
Continuous
 62
     1
100
AcDbLine
 10
30.03066
 20
17.214787
 30
0.0
 11
30.008994
 21
17.131275
 31
0.0
  0
LINE
  5
20E
100
AcDbEntity
  8
3
370
    15
390
0
  6
Continuous
 62
     1
100
AcDbLine
 10
30.008994
 20
17.131275
 30
0.0
 11
30.126672
 21
17.131275
 31
0.0
  0
LINE
  5
20F
100
AcDbEntity
  8
4
370
    15
390
0
  6
TYPE___8
 62
     1
100
AcDbLine
 10
28.885943
 20
17.187075
 30
0.0
 11
28.816227
 21
17.20295
 31
0.0
  0
TEXT
  5
210
100
AcDbEntity
  8
4
370
    15
390
0
  6
Continuous
 62
     7
100
AcDbText
 10
28.919734
 20
17.17766
 30
0.0
 40
0.071
  1
26,67
  7
Vcadd_SIMP
100
AcDbText
  0
TEXT
  5
211
100
AcDbEntity
  8
4
370
    15
390
0
  6
Continuous
 62
     7
100
AcDbText
 10
29.454775
 20
17.226434
 30
0.0
 40
0.071
  1
27,38
  7
Vcadd_SIMP
100
AcDbText
  0
TEXT
  5
212
100
AcDbEntity
  8
4
370
    15
390
0
  6
Continuous
 62
     7
100
AcDbText
 10
29.454775
 20
17.137684
 30
0.0
 40
0.071
  1
27,43
  7
Vcadd_SIMP
100
AcDbText
  0
CIRCLE
  5
213
100
AcDbEntity
  8
1
370
    15
390
0
  6
DIVIDE
 62
     1
100
AcDbCircle
 10
30.217495
 20
15.777463
 30
0.0
 40
0.076943
  0
ARC
  5
214
100
AcDbEntity
  8
4
370
    15
390
0
  6
Continuous
 62
     1
100
AcDbCircle
 10
30.199463
 20
16.633346
 30
0.0
 40
0.365962
100
AcDbArc
 50
315.0
 51
334.186528
  0
ARC
  5
215
100
AcDbEntity
  8
4
370
    15
390
0
  6
Continuous
 62
     1
100
AcDbCircle
 10
30.199463
 20
16.633346
 30
0.0
 40
0.365962
100
AcDbArc
 50
248.456372
 51
270.0
  0
LINE
  5
216
100
AcDbEntity
  8
4
370
    15
390
0
  6
Continuous
 62
     1
100
AcDbLine
 10
30.251174
 20
16.581635
 30
0.0
 11
30.515718
 21
16.317092
 31
0.0
  0
TEXT
  5
217
100
AcDbEntity
  8
4
370
    15
390
0
  6
Continuous
 62
     7
100
AcDbText
 10
28.553707
 20
16.540953
 30
0.0
 40
0.071
  1
3,96
  7
Vcadd_SIMP
100
AcDbText
  0
LINE
  5
218
100
AcDbEntity
  8
3
370
    15
390
0
  6
Continuous
 62
     1
100
AcDbLine
 10
29.907582
 20
16.564076
 30
0.0
 11
28.828306
 21
16.564076
 31
0.0
  0
LINE
  5
219
100
AcDbEntity
  8
3
370
    15
390
0
  6
Continuous
 62
     1
100
AcDbLine
 10
30.023493
 20
16.682137
 30
0.0
 11
29.907582
 21
16.564076
 31
0.0
  0
TEXT
  5
21A
100
AcDbEntity
  8
4
370
    15
390
0
  6
Continuous
 62
     7
100
AcDbText
 10
29.154254
 20
16.733033
 30
0.0
 40
0.071
  1
26,19
  7
Vcadd_SIMP
100
AcDbText
  0
LINE
  5
21B
100
AcDbEntity
  8
3
370
    15
390
0
  6
Continuous
 62
     1
100
AcDbLine
 10
29.915331
 20
15.636861
 30
0.0
 11
30.229161
 21
15.636861
 31
0.0
  0
LINE
  5
21C
100
AcDbEntity
  8
4
370
    15
390
0
  6
Continuous
 62
     7
100
AcDbLine
 10
29.830021
 20
15.59718
 30
0.0
 11
29.870034
 21
15.681348
 31
0.0
  0
LINE
  5
21D
100
AcDbEntity
  8
0
370
    15
390
0
  6
Continuous
 62
     1
100
AcDbLine
 10
30.052773
 20
15.746494
 30
0.0
 11
29.989765
 21
15.636861
 31
0.0
  0
LINE
  5
21E
100
AcDbEntity
  8
0
370
    15
390
0
  6
Continuous
 62
     1
100
AcDbLine
 10
30.009415
 20
15.746495
 30
0.0
 11
30.052773
 21
15.746494
 31
0.0
  0
LINE
  5
21F
100
AcDbEntity
  8
0
370
    15
390
0
  6
Continuous
 62
     1
100
AcDbLine
 10
29.989771
 20
15.63687
 30
0.0
 11
29.963569
 21
15.682251
 31
0.0
  0
LINE
  5
220
100
AcDbEntity
  8
3
370
    15
390
0
  6
Continuous
 62
     1
100
AcDbLine
 10
29.773034
 20
15.636861
 30
0.0
 11
29.459493
 21
15.636861
 31
0.0
  0
TEXT
  5
221
100
AcDbEntity
  8
4
370
    15
390
0
  6
Continuous
 62
     7
100
AcDbText
 10
29.819037
 20
15.604764
 30
0.0
 40
0.081375
  1
O
  7
Vcadd_SIMP
100
AcDbText
  0
TEXT
  5
222
100
AcDbEntity
  8
4
370
    15
390
0
  6
Continuous
 62
     7
100
AcDbText
 10
29.465132
 20
15.645716
 30
0.0
 40
0.071
  1
22,23
  7
Vcadd_SIMP
100
AcDbText
  0
TEXT
  5
223
100
AcDbEntity
  8
4
370
    15
390
0
  6
Continuous
 62
     7
100
AcDbText
 10
29.465132
 20
15.556966
 30
0.0
 40
0.071
  1
22,28
  7
Vcadd_SIMP
100
AcDbText
  0
LINE
  5
224
100
AcDbEntity
  8
3
370
    15
390
0
  6
Continuous
 62
     1
100
AcDbLine
 10
29.915331
 20
16.0608
 30
0.0
 11
30.199464
 21
16.0608
 31
0.0
  0
LINE
  5
225
100
AcDbEntity
  8
4
370
    15
390
0
  6
Continuous
 62
     7
100
AcDbLine
 10
29.830021
 20
16.02112
 30
0.0
 11
29.870034
 21
16.105287
 31
0.0
  0
LINE
  5
226
100
AcDbEntity
  8
3
370
    15
390
0
  6
Continuous
 62
     1
100
AcDbLine
 10
29.773034
 20
16.0608
 30
0.0
 11
29.459493
 21
16.0608
 31
0.0
  0
TEXT
  5
227
100
AcDbEntity
  8
4
370
    15
390
0
  6
Continuous
 62
     7
100
AcDbText
 10
29.819037
 20
16.028703
 30
0.0
 40
0.081375
  1
O
  7
Vcadd_SIMP
100
AcDbText
  0
TEXT
  5
228
100
AcDbEntity
  8
4
370
    15
390
0
  6
Continuous
 62
     7
100
AcDbText
 10
29.453703
 20
16.073371
 30
0.0
 40
0.071
  1
23,70
  7
Vcadd_SIMP
100
AcDbText
  0
TEXT
  5
229
100
AcDbEntity
  8
4
370
    15
390
0
  6
Continuous
 62
     7
100
AcDbText
 10
29.453703
 20
15.984621
 30
0.0
 40
0.071
  1
23,80
  7
Vcadd_SIMP
100
AcDbText
  0
LINE
  5
22A
100
AcDbEntity
  8
4
370
    15
390
0
  6
Continuous
 62
     1
100
AcDbLine
 10
29.340451
 20
15.789138
 30
0.0
 11
29.377065
 21
15.661783
 31
0.0
  0
LINE
  5
22B
100
AcDbEntity
  8
3
370
    15
390
0
  6
Continuous
 62
     1
100
AcDbLine
 10
30.161294
 20
15.789138
 30
0.0
 11
29.340451
 21
15.789138
 31
0.0
  0
TEXT
  5
22C
100
AcDbEntity
  8
4
370
    15
390
0
  6
Continuous
 62
     7
100
AcDbText
 10
28.540742
 20
15.62914
 30
0.0
 40
0.071
  1
26,59
  7
Vcadd_SIMP
100
AcDbText
  0
LINE
  5
22D
100
AcDbEntity
  8
3
370
    15
390
0
  6
Continuous
 62
     1
100
AcDbLine
 10
29.377065
 20
15.661783
 30
0.0
 11
28.923597
 21
15.661783
 31
0.0
  0
LINE
  5
22E
100
AcDbEntity
  8
1
370
    15
390
0
  6
Continuous
 62
     7
100
AcDbLine
 10
29.12201
 20
16.024063
 30
0.0
 11
29.154297
 21
15.99179
 31
0.0
  0
ARC
  5
22F
100
AcDbEntity
  8
1
370
    15
390
0
  6
Continuous
 62
     7
100
AcDbCircle
 10
29.125914
 20
15.963461
 30
0.0
 40
0.040103
100
AcDbArc
 50
0.057109
 51
44.945426
  0
CIRCLE
  5
231
100
AcDbEntity
  8
3
370
    15
390
0
  6
PHANTOM
 62
     1
100
AcDbCircle
 10
29.138054
 20
15.999478
 30
0.0
 40
0.157549
  0
LINE
  5
232
100
AcDbEntity
  8
1
370
    15
390
0
  6
Continuous
 62
     7
100
AcDbLine
 10
29.12201
 20
16.024063
 30
0.0
 11
29.12201
 21
16.156208
 31
0.0
  0
LINE
  5
233
100
AcDbEntity
  8
1
370
    15
390
0
  6
Continuous
 62
     7
100
AcDbLine
 10
29.166016
 20
15.963501
 30
0.0
 11
29.166016
 21
15.84443
 31
0.0
  0
LINE
  5
234
100
AcDbEntity
  8
3
370
    15
390
0
  6
Continuous
 62
     1
100
AcDbLine
 10
29.162964
 20
15.978805
 30
0.0
 11
28.994301
 21
15.888214
 31
0.0
  0
LINE
  5
235
100
AcDbEntity
  8
3
370
    15
390
0
  6
Continuous
 62
     1
100
AcDbLine
 10
28.994301
 20
15.888214
 30
0.0
 11
28.948016
 21
15.888214
 31
0.0
  0
LINE
  5
236
100
AcDbEntity
  8
3
370
    15
390
0
  6
Continuous
 62
     1
100
AcDbLine
 10
29.104132
 20
16.041932
 30
0.0
 11
28.938223
 21
16.207762
 31
0.0
  0
LINE
  5
237
100
AcDbEntity
  8
3
370
    15
390
0
  6
Continuous
 62
     1
100
AcDbLine
 10
29.12201
 20
16.185553
 30
0.0
 11
29.12201
 21
16.284777
 31
0.0
  0
ARC
  5
238
100
AcDbEntity
  8
3
370
    15
390
0
  6
Continuous
 62
     1
100
AcDbCircle
 10
29.12201
 20
16.024063
 30
0.0
 40
0.230205
100
AcDbArc
 50
65.863881
 51
90.0
  0
ARC
  5
239
100
AcDbEntity
  8
3
370
    15
390
0
  6
Continuous
 62
     1
100
AcDbCircle
 10
29.12201
 20
16.024063
 30
0.0
 40
0.230205
100
AcDbArc
 50
135.013542
 51
163.25445
  0
TEXT
  5
23A
100
AcDbEntity
  8
4
370
    15
390
0
  6
Continuous
 62
     7
100
AcDbText
 10
29.229674
 20
16.21484
 30
0.0
 40
0.071
  1
45^  
  7
Vcadd_SIMP
100
AcDbText
  0
TEXT
  5
23B
100
AcDbEntity
  8
4
370
    15
390
0
  6
Continuous
 62
     7
100
AcDbText
 10
29.229674
 20
16.12609
 30
0.0
 40
0.071
  1
**
  7
Vcadd_SIMP
100
AcDbText
  0
LINE
  5
23C
100
AcDbEntity
  8
4
370
    15
390
0
  6
TYPE___8
 62
     1
100
AcDbLine
 10
30.243045
 20
15.849505
 30
0.0
 11
29.800757
 21
15.974731
 31
0.0
  0
LINE
  5
23D
100
AcDbEntity
  8
4
370
    15
390
0
  6
TYPE___8
 62
     1
100
AcDbLine
 10
29.402215
 20
16.087571
 30
0.0
 11
29.184026
 21
16.149347
 31
0.0
  0
LINE
  5
23E
100
AcDbEntity
  8
3
370
    15
390
0
  6
Continuous
 62
     1
100
AcDbLine
 10
30.281285
 20
16.869136
 30
0.0
 11
30.281285
 21
17.014206
 31
0.0
  0
LINE
  5
23F
100
AcDbEntity
  8
3
370
    15
390
0
  6
Continuous
 62
     1
100
AcDbLine
 10
30.281285
 20
17.221712
 30
0.0
 11
30.281285
 21
19.787818
 31
0.0
  0
LINE
  5
240
100
AcDbEntity
  8
4
370
    15
390
0
  6
TYPE___8
 62
     1
100
AcDbLine
 10
29.411685
 20
15.807394
 30
0.0
 11
29.106909
 21
15.846338
 31
0.0
  0
LINE
  5
241
100
AcDbEntity
  8
4
370
    15
390
0
  6
TYPE___8
 62
     1
100
AcDbLine
 10
30.202393
 20
15.706355
 30
0.0
 11
30.112456
 21
15.717847
 31
0.0
  0
TEXT
  5
242
100
AcDbEntity
  8
4
370
    15
390
0
  6
Continuous
 62
     7
100
AcDbText
 10
28.530554
 20
15.851274
 30
0.0
 40
0.071
  1
0,80 R
  7
Vcadd_SIMP
100
AcDbText
  0
TEXT
  5
243
100
AcDbEntity
  8
4
370
    15
390
0
  6
Continuous
 62
     7
100
AcDbText
 10
28.530554
 20
15.762524
 30
0.0
 40
0.071
  1
 **
  7
Vcadd_SIMP
100
AcDbText
  0
LINE
  5
244
100
AcDbEntity
  8
3
370
    15
390
0
  6
Continuous
 62
     1
100
AcDbLine
 10
31.536519
 20
15.697146
 30
0.0
 11
31.754513
 21
15.697146
 31
0.0
  0
LINE
  5
245
100
AcDbEntity
  8
3
370
    15
390
0
  6
Continuous
 62
     1
100
AcDbLine
 10
31.135995
 20
15.451439
 30
0.0
 11
31.58193
 21
15.451439
 31
0.0
  0
LINE
  5
246
100
AcDbEntity
  8
4
370
    15
390
0
  6
Continuous
 62
     1
100
AcDbLine
 10
31.536519
 20
15.697146
 30
0.0
 11
31.58193
 21
15.451439
 31
0.0
  0
LINE
  5
247
100
AcDbEntity
  8
14
370
    15
390
0
  6
Continuous
 62
     7
100
AcDbLine
 10
29.075192
 20
13.09519
 30
0.0
 11
29.419192
 21
13.09519
 31
0.0
  0
LINE
  5
248
100
AcDbEntity
  8
14
370
    15
390
0
  6
Continuous
 62
     7
100
AcDbLine
 10
29.247192
 20
12.995885
 30
0.0
 11
29.419192
 21
13.09519
 31
0.0
  0
LINE
  5
249
100
AcDbEntity
  8
14
370
    15
390
0
  6
Continuous
 62
     7
100
AcDbLine
 10
29.247192
 20
12.995886
 30
0.0
 11
29.075192
 21
13.09519
 31
0.0
  0
LINE
  5
24A
100
AcDbEntity
  8
14
370
    15
390
0
  6
Continuous
 62
     7
100
AcDbLine
 10
29.075192
 20
13.29319
 30
0.0
 11
29.075192
 21
13.09519
 31
0.0
  0
LINE
  5
24B
100
AcDbEntity
  8
14
370
    15
390
0
  6
Continuous
 62
     7
100
AcDbLine
 10
29.419192
 20
13.29319
 30
0.0
 11
29.419192
 21
13.09519
 31
0.0
  0
LINE
  5
24C
100
AcDbEntity
  8
14
370
    15
390
0
  6
Continuous
 62
     7
100
AcDbLine
 10
29.466192
 20
13.29319
 30
0.0
 11
29.028192
 21
13.29319
 31
0.0
  0
LINE
  5
24D
100
AcDbEntity
  8
14
370
    15
390
0
  6
Continuous
 62
     7
100
AcDbLine
 10
29.481004
 20
13.883503
 30
0.0
 11
29.505192
 21
13.90769
 31
0.0
  0
LINE
  5
24E
100
AcDbEntity
  8
14
370
    15
390
0
  6
Continuous
 62
     7
100
AcDbLine
 10
28.989192
 20
13.90769
 30
0.0
 11
29.505192
 21
13.90769
 31
0.0
  0
LINE
  5
24F
100
AcDbEntity
  8
14
370
    15
390
0
  6
Continuous
 62
     7
100
AcDbLine
 10
29.01338
 20
13.883503
 30
0.0
 11
28.989192
 21
13.90769
 31
0.0
  0
LINE
  5
250
100
AcDbEntity
  8
14
370
    15
390
0
  6
Continuous
 62
     7
100
AcDbLine
 10
29.01338
 20
13.883504
 30
0.0
 11
29.481004
 21
13.883503
 31
0.0
  0
LINE
  5
251
100
AcDbEntity
  8
14
370
    15
390
0
  6
Continuous
 62
     7
100
AcDbLine
 10
29.516942
 20
14.32969
 30
0.0
 11
29.516942
 21
13.98569
 31
0.0
  0
LINE
  5
252
100
AcDbEntity
  8
14
370
    15
390
0
  6
Continuous
 62
     7
100
AcDbLine
 10
29.516942
 20
14.32969
 30
0.0
 11
28.977442
 21
14.32969
 31
0.0
  0
LINE
  5
253
100
AcDbEntity
  8
14
370
    15
390
0
  6
Continuous
 62
     7
100
AcDbLine
 10
29.524442
 20
14.337191
 30
0.0
 11
29.516942
 21
14.32969
 31
0.0
  0
LINE
  5
254
100
AcDbEntity
  8
14
370
    15
390
0
  6
Continuous
 62
     7
100
AcDbLine
 10
29.524442
 20
14.337191
 30
0.0
 11
29.524442
 21
14.62619
 31
0.0
  0
LINE
  5
255
100
AcDbEntity
  8
14
370
    15
390
0
  6
Continuous
 62
     7
100
AcDbLine
 10
28.969942
 20
14.337191
 30
0.0
 11
28.977442
 21
14.32969
 31
0.0
  0
LINE
  5
256
100
AcDbEntity
  8
14
370
    15
390
0
  6
Continuous
 62
     7
100
AcDbLine
 10
28.969942
 20
14.337191
 30
0.0
 11
28.969942
 21
14.62619
 31
0.0
  0
LINE
  5
257
100
AcDbEntity
  8
14
370
    15
390
0
  6
Continuous
 62
     7
100
AcDbLine
 10
28.969942
 20
14.337191
 30
0.0
 11
29.524442
 21
14.337191
 31
0.0
  0
LINE
  5
258
100
AcDbEntity
  8
14
370
    15
390
0
  6
Continuous
 62
     7
100
AcDbLine
 10
29.575192
 20
14.67694
 30
0.0
 11
29.524442
 21
14.62619
 31
0.0
  0
LINE
  5
259
100
AcDbEntity
  8
14
370
    15
390
0
  6
Continuous
 62
     7
100
AcDbLine
 10
28.919192
 20
14.67694
 30
0.0
 11
28.969942
 21
14.62619
 31
0.0
  0
LINE
  5
25A
100
AcDbEntity
  8
14
370
    15
390
0
  6
Continuous
 62
     7
100
AcDbLine
 10
28.969942
 20
14.62619
 30
0.0
 11
29.524442
 21
14.62619
 31
0.0
  0
LINE
  5
25B
100
AcDbEntity
  8
14
370
    15
390
0
  6
Continuous
 62
     7
100
AcDbLine
 10
28.919192
 20
14.67694
 30
0.0
 11
29.575192
 21
14.67694
 31
0.0
  0
LINE
  5
25C
100
AcDbEntity
  8
14
370
    15
390
0
  6
Continuous
 62
     7
100
AcDbLine
 10
28.977442
 20
13.98569
 30
0.0
 11
29.516942
 21
13.98569
 31
0.0
  0
LINE
  5
25D
100
AcDbEntity
  8
14
370
    15
390
0
  6
Continuous
 62
     7
100
AcDbLine
 10
29.247192
 20
14.492264
 30
0.0
 11
29.247192
 21
14.436993
 31
0.0
  0
LINE
  5
25E
100
AcDbEntity
  8
14
370
    15
390
0
  6
Continuous
 62
     7
100
AcDbLine
 10
29.247192
 20
14.409357
 30
0.0
 11
29.247192
 21
14.008639
 31
0.0
  0
LINE
  5
25F
100
AcDbEntity
  8
14
370
    15
390
0
  6
Continuous
 62
     7
100
AcDbLine
 10
29.247192
 20
13.974094
 30
0.0
 11
29.247192
 21
13.925732
 31
0.0
  0
LINE
  5
260
100
AcDbEntity
  8
14
370
    15
390
0
  6
Continuous
 62
     7
100
AcDbLine
 10
29.247192
 20
13.891187
 30
0.0
 11
29.247192
 21
13.227929
 31
0.0
  0
LINE
  5
261
100
AcDbEntity
  8
14
370
    15
390
0
  6
Continuous
 62
     7
100
AcDbLine
 10
29.247192
 20
13.188043
 30
0.0
 11
29.247192
 21
13.137268
 31
0.0
  0
LINE
  5
262
100
AcDbEntity
  8
14
370
    15
390
0
  6
Continuous
 62
     7
100
AcDbLine
 10
29.247192
 20
12.948398
 30
0.0
 11
29.247192
 21
13.093746
 31
0.0
  0
LINE
  5
263
100
AcDbEntity
  8
14
370
    15
390
0
  6
Continuous
 62
     7
100
AcDbLine
 10
28.989192
 20
13.977032
 30
0.0
 11
28.989192
 21
13.90769
 31
0.0
  0
LINE
  5
264
100
AcDbEntity
  8
14
370
    15
390
0
  6
Continuous
 62
     7
100
AcDbLine
 10
28.989192
 20
13.977032
 30
0.0
 11
28.984192
 21
13.98569
 31
0.0
  0
LINE
  5
265
100
AcDbEntity
  8
14
370
    15
390
0
  6
Continuous
 62
     7
100
AcDbLine
 10
29.505192
 20
13.977032
 30
0.0
 11
29.510192
 21
13.98569
 31
0.0
  0
LINE
  5
266
100
AcDbEntity
  8
14
370
    15
390
0
  6
Continuous
 62
     7
100
AcDbLine
 10
29.505192
 20
13.977031
 30
0.0
 11
29.505192
 21
13.90769
 31
0.0
  0
LINE
  5
267
100
AcDbEntity
  8
14
370
    15
390
0
  6
Continuous
 62
     7
100
AcDbLine
 10
29.505192
 20
13.977031
 30
0.0
 11
28.989192
 21
13.977032
 31
0.0
  0
POINT
  5
268
100
AcDbEntity
  8
100
370
    15
390
0
  6
Continuous
 62
     7
100
AcDbPoint
 10
29.247192
 20
13.98569
 30
0.0
  0
LINE
  5
269
100
AcDbEntity
  8
14
370
    15
390
0
  6
Continuous
 62
     7
100
AcDbLine
 10
29.481005
 20
13.462003
 30
0.0
 11
29.466192
 21
13.44719
 31
0.0
  0
LINE
  5
26A
100
AcDbEntity
  8
14
370
    15
390
0
  6
Continuous
 62
     7
100
AcDbLine
 10
29.013379
 20
13.462003
 30
0.0
 11
29.028192
 21
13.44719
 31
0.0
  0
LINE
  5
26B
100
AcDbEntity
  8
14
370
    15
390
0
  6
Continuous
 62
     7
100
AcDbLine
 10
29.01338
 20
13.462003
 30
0.0
 11
29.481004
 21
13.462002
 31
0.0
  0
LINE
  5
26C
100
AcDbEntity
  8
14
370
    15
390
0
  6
Continuous
 62
     7
100
AcDbLine
 10
29.028193
 20
13.44719
 30
0.0
 11
29.466192
 21
13.44719
 31
0.0
  0
LINE
  5
26D
100
AcDbEntity
  8
1
370
    15
390
0
  6
Continuous
 62
     7
100
AcDbLine
 10
29.01338
 20
13.883504
 30
0.0
 11
29.01338
 21
13.462003
 31
0.0
  0
LINE
  5
26E
100
AcDbEntity
  8
1
370
    15
390
0
  6
Continuous
 62
     7
100
AcDbLine
 10
29.481004
 20
13.883503
 30
0.0
 11
29.481004
 21
13.462002
 31
0.0
  0
LINE
  5
26F
100
AcDbEntity
  8
1
370
    15
390
0
  6
Continuous
 62
     7
100
AcDbLine
 10
29.028192
 20
13.44719
 30
0.0
 11
29.028192
 21
13.29319
 31
0.0
  0
LINE
  5
270
100
AcDbEntity
  8
1
370
    15
390
0
  6
Continuous
 62
     7
100
AcDbLine
 10
29.466192
 20
13.44719
 30
0.0
 11
29.466192
 21
13.29319
 31
0.0
  0
LINE
  5
271
100
AcDbEntity
  8
1
370
    15
390
0
  6
Continuous
 62
     7
100
AcDbLine
 10
28.977442
 20
14.32969
 30
0.0
 11
28.977442
 21
13.98569
 31
0.0
  0
LINE
  5
272
100
AcDbEntity
  8
14
370
    15
390
0
  6
CL____X1
 62
     7
100
AcDbLine
 10
28.997192
 20
13.883503
 30
0.0
 11
28.997192
 21
13.649004
 31
0.0
  0
LINE
  5
273
100
AcDbEntity
  8
14
370
    15
390
0
  6
CL____X1
 62
     7
100
AcDbLine
 10
29.497192
 20
13.883503
 30
0.0
 11
29.497192
 21
13.649004
 31
0.0
  0
LINE
  5
274
100
AcDbEntity
  8
14
370
    15
390
0
  6
Continuous
 62
     7
100
AcDbLine
 10
28.872192
 20
14.84519
 30
0.0
 11
28.872192
 21
14.921387
 31
0.0
  0
LINE
  5
275
100
AcDbEntity
  8
14
370
    15
390
0
  6
Continuous
 62
     7
100
AcDbLine
 10
29.622192
 20
14.84519
 30
0.0
 11
29.622192
 21
14.921387
 31
0.0
  0
LINE
  5
276
100
AcDbEntity
  8
14
370
    15
390
0
  6
Continuous
 62
     7
100
AcDbLine
 10
28.872192
 20
14.84519
 30
0.0
 11
29.622192
 21
14.84519
 31
0.0
  0
LINE
  5
277
100
AcDbEntity
  8
14
370
    15
390
0
  6
Continuous
 62
     7
100
AcDbLine
 10
29.247192
 20
14.947107
 30
0.0
 11
29.247192
 21
14.512991
 31
0.0
  0
LINE
  5
278
100
AcDbEntity
  8
14
370
    15
390
0
  6
Continuous
 62
     7
100
AcDbLine
 10
28.872192
 20
14.84519
 30
0.0
 11
28.919192
 21
14.818055
 31
0.0
  0
LINE
  5
279
100
AcDbEntity
  8
14
370
    15
390
0
  6
Continuous
 62
     7
100
AcDbLine
 10
29.622192
 20
14.84519
 30
0.0
 11
29.575192
 21
14.818055
 31
0.0
  0
LINE
  5
27A
100
AcDbEntity
  8
14
370
    15
390
0
  6
Continuous
 62
     7
100
AcDbLine
 10
29.575192
 20
14.818055
 30
0.0
 11
29.575192
 21
14.67694
 31
0.0
  0
LINE
  5
27B
100
AcDbEntity
  8
14
370
    15
390
0
  6
Continuous
 62
     7
100
AcDbLine
 10
28.919192
 20
14.818055
 30
0.0
 11
28.919192
 21
14.676941
 31
0.0
  0
LINE
  5
27C
100
AcDbEntity
  8
14
370
    15
390
0
  6
Continuous
 62
     7
100
AcDbLine
 10
28.919192
 20
14.818055
 30
0.0
 11
29.575192
 21
14.818055
 31
0.0
  0
TEXT
  5
27D
100
AcDbEntity
  8
4
370
    15
390
0
  6
Continuous
 62
     7
100
AcDbText
 10
28.975222
 20
15.231978
 30
0.0
 40
0.071
  1
0,30 x 45^  MAX
  7
Vcadd_SIMP
100
AcDbText
  0
TEXT
  5
27E
100
AcDbEntity
  8
4
370
    15
390
0
  6
Continuous
 62
     7
100
AcDbText
 10
29.583952
 20
17.746407
 30
0.0
 40
0.051546
  1
1,6
  7
Vcadd_SIMP
100
AcDbText
  0
TEXT
  5
27F
100
AcDbEntity
  8
4
370
    15
390
0
  6
Continuous
 62
     7
100
AcDbText
 10
29.880046
 20
17.287067
 30
0.0
 40
0.0515
  1
1,6
  7
Vcadd_SIMP
100
AcDbText
  0
TEXT
  5
280
100
AcDbEntity
  8
4
370
    15
390
0
  6
Continuous
 62
     7
100
AcDbText
 10
29.578648
 20
16.776939
 30
0.0
 40
0.051546
  1
1,6
  7
Vcadd_SIMP
100
AcDbText
  0
TEXT
  5
281
100
AcDbEntity
  8
4
370
    15
390
0
  6
Continuous
 62
     7
100
AcDbText
 10
29.848125
 20
15.710063
 30
0.0
 40
0.051546
  1
1,6
  7
Vcadd_SIMP
100
AcDbText
  0
TEXT
  5
282
100
AcDbEntity
  8
4
370
    15
390
0
  6
Continuous
 62
     7
100
AcDbText
 10
29.40113
 20
17.936316
 30
0.0
 40
0.064
  1
0,80 R
  7
Vcadd_SIMP
100
AcDbText
  0
TEXT
  5
283
100
AcDbEntity
  8
4
370
    15
390
0
  6
Continuous
 62
     7
100
AcDbText
 10
29.40113
 20
17.840316
 30
0.0
 40
0.064
  1
 **
  7
Vcadd_SIMP
100
AcDbText
  0
TEXT
  5
284
100
AcDbEntity
  8
4
370
    15
390
0
  6
Continuous
 62
     7
100
AcDbText
 10
29.313432
 20
17.427197
 30
0.0
 40
0.064
  1
0,80 R
  7
Vcadd_SIMP
100
AcDbText
  0
TEXT
  5
285
100
AcDbEntity
  8
4
370
    15
390
0
  6
Continuous
 62
     7
100
AcDbText
 10
29.313432
 20
17.331197
 30
0.0
 40
0.064
  1
 **
  7
Vcadd_SIMP
100
AcDbText
  0
TEXT
  5
286
100
AcDbEntity
  8
4
370
    15
390
0
  6
Continuous
 62
     7
100
AcDbText
 10
28.546543
 20
15.020363
 30
0.0
 40
0.071
  1
45,24
  7
Vcadd_SIMP
100
AcDbText
  0
LINE
  5
287
100
AcDbEntity
  8
4
370
    15
390
0
  6
Continuous
 62
     1
100
AcDbLine
 10
30.291444
 20
15.055544
 30
0.0
 11
28.911712
 21
15.055544
 31
0.0
  0
TEXT
  5
288
100
AcDbEntity
  8
4
370
    15
390
0
  6
Continuous
 62
     7
100
AcDbText
 10
28.906217
 20
17.311734
 30
0.0
 40
0.071
  1
30^ **
  7
Vcadd_SIMP
100
AcDbText
  0
TEXT
  5
289
100
AcDbEntity
  8
4
370
    15
390
0
  6
Continuous
 62
     7
100
AcDbText
 10
28.580018
 20
16.808021
 30
0.0
 40
0.071
  1
0,00
  7
Vcadd_SIMP
100
AcDbText
  0
TEXT
  5
28A
100
AcDbEntity
  8
4
370
    15
390
0
  6
Continuous
 62
     7
100
AcDbText
 10
32.44933
 20
16.808366
 30
0.0
 40
0.071
  1
0,00
  7
Vcadd_SIMP
100
AcDbText
  0
TEXT
  5
28B
100
AcDbEntity
  8
4
370
    15
390
0
  6
Continuous
 62
     7
100
AcDbText
 10
32.453655
 20
17.021843
 30
0.0
 40
0.071
  1
5,56
  7
Vcadd_SIMP
100
AcDbText
  0
TEXT
  5
28C
100
AcDbEntity
  8
4
370
    15
390
0
  6
Continuous
 62
     7
100
AcDbText
 10
32.378766
 20
17.678499
 30
0.0
 40
0.071
  1
22,23
  7
Vcadd_SIMP
100
AcDbText
  0
LINE
  5
28D
100
AcDbEntity
  8
4
370
    15
390
0
  6
Continuous
 62
     1
100
AcDbLine
 10
32.318865
 20
17.057137
 30
0.0
 11
32.435321
 21
17.057137
 31
0.0
  0
LINE
  5
28E
100
AcDbEntity
  8
1
370
    15
390
0
  6
Continuous
 62
     1
100
AcDbLine
 10
30.11167
 20
18.119136
 30
0.0
 11
30.206832
 21
18.119136
 31
0.0
  0
LINE
  5
28F
100
AcDbEntity
  8
1
370
    15
390
0
  6
Continuous
 62
     1
100
AcDbLine
 10
30.010171
 20
18.220638
 30
0.0
 11
30.206832
 21
18.220638
 31
0.0
  0
LINE
  5
290
100
AcDbEntity
  8
1
370
    15
390
0
  6
Continuous
 62
     1
100
AcDbLine
 10
30.126672
 20
17.526136
 30
0.0
 11
30.206832
 21
17.526136
 31
0.0
  0
LINE
  5
291
100
AcDbEntity
  8
1
370
    15
390
0
  6
Continuous
 62
     1
100
AcDbLine
 10
30.11167
 20
17.541138
 30
0.0
 11
30.206832
 21
17.541138
 31
0.0
  0
LINE
  5
292
100
AcDbEntity
  8
1
370
    15
390
0
  6
Continuous
 62
     1
100
AcDbLine
 10
30.150674
 20
16.682137
 30
0.0
 11
30.303181
 21
16.682137
 31
0.0
  0
LINE
  5
293
100
AcDbEntity
  8
1
370
    15
390
0
  6
Continuous
 62
     1
100
AcDbLine
 10
30.199464
 20
16.633346
 30
0.0
 11
30.303181
 21
16.633346
 31
0.0
  0
LINE
  5
294
100
AcDbEntity
  8
1
370
    15
390
0
  6
Continuous
 62
     1
100
AcDbLine
 10
30.199464
 20
15.789138
 30
0.0
 11
30.303181
 21
15.789138
 31
0.0
  0
LINE
  5
295
100
AcDbEntity
  8
1
370
    15
390
0
  6
Continuous
 62
     1
100
AcDbLine
 10
30.229161
 20
15.746599
 30
0.0
 11
30.303181
 21
15.746599
 31
0.0
  0
TEXT
  5
296
100
AcDbEntity
  8
4
370
    15
390
0
  6
Continuous
 62
     7
100
AcDbText
 10
30.245788
 20
16.316136
 30
0.0
 40
0.071
  1
45^  
  7
Vcadd_SIMP
100
AcDbText
  0
LINE
  5
297
100
AcDbEntity
  8
4
370
    15
390
0
  6
Continuous
 62
     1
100
AcDbLine
 10
28.830124
 20
17.109602
 30
0.0
 11
28.991899
 21
17.009664
 31
0.0
  0
LINE
  5
298
100
AcDbEntity
  8
4
370
    15
390
0
  6
Continuous
 62
     1
100
AcDbLine
 10
28.991899
 20
17.009664
 30
0.0
 11
29.063926
 21
17.009664
 31
0.0
  0
LINE
  5
299
100
AcDbEntity
  8
4
370
    15
390
0
  6
Continuous
 62
     1
100
AcDbLine
 10
28.798541
 20
17.109602
 30
0.0
 11
28.830124
 21
17.109602
 31
0.0
  0
TEXT
  5
29A
100
AcDbEntity
  8
4
370
    15
390
0
  6
Continuous
 62
     7
100
AcDbText
 10
29.090022
 20
16.98224
 30
0.0
 40
0.071
  1
L
  7
Vcadd_SIMP
100
AcDbText
  0
TEXT
  5
29B
100
AcDbEntity
  8
4
370
    15
390
0
  6
Continuous
 62
     7
100
AcDbText
 10
29.161021
 20
16.98224
 30
0.0
 40
0.071
  1
.S.
  7
Vcadd_SIMP
100
AcDbText
  0
INSERT
  5
2A4
100
AcDbEntity
  8
3
370
    40
390
0
  6
Continuous
 62
     7
100
AcDbBlockReference
  2
ARROW
 10
29.795707
 20
18.4351
 30
0.0
 41
0.5
 42
0.5
 50
43.785431
  0
INSERT
  5
2A5
100
AcDbEntity
  8
3
370
    40
390
0
  6
Continuous
 62
     7
100
AcDbBlockReference
  2
ARROW
 10
30.010171
 20
18.5034
 30
0.0
 41
0.5
 42
0.5
 50
172.25415
  0
INSERT
  5
2A6
100
AcDbEntity
  8
3
370
    40
390
0
  6
Continuous
 62
     7
100
AcDbBlockReference
  2
ARROW
 10
30.229161
 20
15.451439
 30
0.0
 41
0.5
 42
0.5
 50
44.673851
  0
INSERT
  5
2A7
100
AcDbEntity
  8
3
370
    40
390
0
  6
Continuous
 62
     7
100
AcDbBlockReference
  2
ARROW
 10
30.281285
 20
16.838137
 30
0.0
 41
0.5
 42
0.5
 50
90.0
  0
INSERT
  5
2A8
100
AcDbEntity
  8
3
370
    40
390
0
  6
Continuous
 62
     7
100
AcDbBlockReference
  2
ARROW
 10
30.281285
 20
16.869136
 30
0.0
 41
-0.5
 42
0.5
 50
90.0
  0
INSERT
  5
2A9
100
AcDbEntity
  8
3
370
    40
390
0
  6
Continuous
 62
     7
100
AcDbBlockReference
  2
ARROW
 10
31.627936
 20
17.557137
 30
0.0
 41
0.5
 42
0.5
 50
270.0
  0
INSERT
  5
2AA
100
AcDbEntity
  8
3
370
    40
390
0
  6
Continuous
 62
     7
100
AcDbBlockReference
  2
ARROW
 10
31.627936
 20
17.869136
 30
0.0
 41
0.5
 42
0.5
 50
90.0
  0
INSERT
  5
2AB
100
AcDbEntity
  8
3
370
    40
390
0
  6
Continuous
 62
     7
100
AcDbBlockReference
  2
ARROW
 10
31.627936
 20
16.431221
 30
0.0
 41
0.5
 42
0.5
 50
90.0
  0
INSERT
  5
2AC
100
AcDbEntity
  8
3
370
    40
390
0
  6
Continuous
 62
     7
100
AcDbBlockReference
  2
ARROW
 10
31.627936
 20
15.807137
 30
0.0
 41
0.5
 42
0.5
 50
270.0
  0
INSERT
  5
2AD
100
AcDbEntity
  8
3
370
    40
390
0
  6
Continuous
 62
     7
100
AcDbBlockReference
  2
ARROW
 10
31.414922
 20
19.028847
 30
0.0
 41
0.5
 42
0.5
 50
180.0
  0
INSERT
  5
2AE
100
AcDbEntity
  8
4
370
    40
390
0
  6
Continuous
 62
     7
100
AcDbBlockReference
  2
ARROW
 10
30.11167
 20
17.675745
 30
0.0
 41
0.5
 42
0.5
  0
INSERT
  5
2AF
100
AcDbEntity
  8
4
370
    40
390
0
  6
Continuous
 62
     7
100
AcDbBlockReference
  2
ARROW
 10
30.150674
 20
16.73827
 30
0.0
 41
0.5
 42
0.5
  0
INSERT
  5
2B0
100
AcDbEntity
  8
4
370
    40
390
0
  6
Continuous
 62
     7
100
AcDbBlockReference
  2
ARROW
 10
30.229161
 20
15.636861
 30
0.0
 41
0.5
 42
0.5
  0
INSERT
  5
2B1
100
AcDbEntity
  8
3
370
    40
390
0
  6
Continuous
 62
     7
100
AcDbBlockReference
  2
ARROW
 10
31.010673
 20
14.613983
 30
0.0
 41
0.5
 42
0.5
  0
INSERT
  5
2B2
100
AcDbEntity
  8
3
370
    40
390
0
  6
Continuous
 62
     7
100
AcDbBlockReference
  2
ARROW
 10
30.322673
 20
14.613983
 30
0.0
 41
0.5
 42
0.5
 50
180.0
  0
INSERT
  5
2B3
100
AcDbEntity
  8
3
370
    40
390
0
  6
Continuous
 62
     7
100
AcDbBlockReference
  2
ARROW
 10
30.11167
 20
18.119136
 30
0.0
 41
0.5
 42
0.5
 50
38.767292
  0
INSERT
  5
2B4
100
AcDbEntity
  8
4
370
     0
390
0
  6
Continuous
 62
     1
100
AcDbBlockReference
  2
ARROW
 10
30.126671
 20
17.526136
 30
0.0
 41
0.5
 42
0.5
 50
20.243595
  0
INSERT
  5
2B5
100
AcDbEntity
  8
4
370
     0
390
0
  6
Continuous
 62
     1
100
AcDbBlockReference
  2
ARROW
 10
30.126671
 20
17.038375
 30
0.0
 41
0.5
 42
0.5
 50
352.34741
  0
INSERT
  5
2B6
100
AcDbEntity
  8
4
370
     0
390
0
  6
Continuous
 62
     1
100
AcDbBlockReference
  2
ARROW
 10
30.471571
 20
17.181237
 30
0.0
 41
0.5
 42
0.5
 50
231.917248
  0
INSERT
  5
2B7
100
AcDbEntity
  8
4
370
    40
390
0
  6
Continuous
 62
     7
100
AcDbBlockReference
  2
ARROW
 10
30.126672
 20
17.131275
 30
0.0
 41
0.5
 42
0.5
  0
INSERT
  5
2B8
100
AcDbEntity
  8
4
370
     0
390
0
  6
Continuous
 62
     1
100
AcDbBlockReference
  2
ARROW
 10
30.199463
 20
16.267384
 30
0.0
 41
0.5
 42
0.5
 50
352.34741
  0
INSERT
  5
2B9
100
AcDbEntity
  8
4
370
     0
390
0
  6
Continuous
 62
     1
100
AcDbBlockReference
  2
ARROW
 10
30.458237
 20
16.374572
 30
0.0
 41
0.5
 42
0.5
 50
231.917248
  0
INSERT
  5
2BA
100
AcDbEntity
  8
4
370
    40
390
0
  6
Continuous
 62
     7
100
AcDbBlockReference
  2
ARROW
 10
30.199464
 20
16.0608
 30
0.0
 41
0.5
 42
0.5
  0
INSERT
  5
2BB
100
AcDbEntity
  8
3
370
    15
390
0
  6
Continuous
 62
     7
100
AcDbBlockReference
  2
ARROW
 10
29.162964
 20
15.978805
 30
0.0
 41
0.5
 42
0.5
 50
28.240833
  0
INSERT
  5
2BC
100
AcDbEntity
  8
3
370
    15
390
0
  6
Continuous
 62
     7
100
AcDbBlockReference
  2
ARROW
 10
28.959192
 20
16.186803
 30
0.0
 41
0.5
 42
0.5
 50
55.0
  0
INSERT
  5
2BD
100
AcDbEntity
  8
3
370
    15
390
0
  6
Continuous
 62
     7
100
AcDbBlockReference
  2
ARROW
 10
29.12201
 20
16.254267
 30
0.0
 41
0.5
 42
0.5
 50
165.0
  0
LINE
  5
2BE
100
AcDbEntity
  8
4
370
    15
390
0
  6
Continuous
 62
     1
100
AcDbLine
 10
31.264221
 20
19.076033
 30
0.0
 11
31.351829
 21
19.076033
 31
0.0
  0
LINE
  5
2BF
100
AcDbEntity
  8
4
370
    15
390
0
  6
Continuous
 62
     1
100
AcDbLine
 10
31.351829
 20
19.076033
 30
0.0
 11
31.245897
 21
18.827471
 31
0.0
  0
INSERT
  5
2C0
100
AcDbEntity
  8
4
370
     0
390
0
  6
Continuous
 62
     1
100
AcDbBlockReference
  2
ARROW
 10
31.245897
 20
18.827471
 30
0.0
 41
0.5
 42
0.5
 50
246.917242
  0
LINE
  5
2C1
100
AcDbEntity
  8
1
370
    15
390
0
  6
Continuous
 62
     1
100
AcDbLine
 10
31.392604
 20
17.213136
 30
0.0
 11
31.689619
 21
17.213136
 31
0.0
  0
LINE
  5
2C2
100
AcDbEntity
  8
3
370
    15
390
0
  6
Continuous
 62
     1
100
AcDbLine
 10
31.627936
 20
17.213136
 30
0.0
 11
31.627936
 21
17.293277
 31
0.0
  0
LINE
  5
2C3
100
AcDbEntity
  8
3
370
    15
390
0
  6
Continuous
 62
     1
100
AcDbLine
 10
31.627936
 20
17.293277
 30
0.0
 11
31.71275
 21
17.293277
 31
0.0
  0
INSERT
  5
2C4
100
AcDbEntity
  8
3
370
    40
390
0
  6
Continuous
 62
     7
100
AcDbBlockReference
  2
ARROW
 10
31.627936
 20
17.213136
 30
0.0
 41
0.5
 42
0.5
 50
90.0
  0
TEXT
  5
2C5
100
AcDbEntity
  8
4
370
    15
390
0
  6
Continuous
 62
     7
100
AcDbText
 10
31.740719
 20
17.257312
 30
0.0
 40
0.071
  1
7,92
  7
Vcadd_SIMP
100
AcDbText
  0
LINE
  5
2C6
100
AcDbEntity
  8
3
370
    15
390
0
  6
Continuous
 62
     1
100
AcDbLine
 10
31.475305
 20
16.900136
 30
0.0
 11
31.689619
 21
16.900136
 31
0.0
  0
INSERT
  5
2C7
100
AcDbEntity
  8
3
370
    40
390
0
  6
Continuous
 62
     7
100
AcDbBlockReference
  2
ARROW
 10
31.627936
 20
16.900136
 30
0.0
 41
0.5
 42
0.5
 50
270.0
  0
LINE
  5
2C8
100
AcDbEntity
  8
3
370
    15
390
0
  6
Continuous
 62
     1
100
AcDbLine
 10
31.627936
 20
17.213136
 30
0.0
 11
31.627936
 21
16.900136
 31
0.0
  0
LINE
  5
2C9
100
AcDbEntity
  8
1
370
    15
390
0
  6
Continuous
 62
     1
100
AcDbLine
 10
31.36144
 20
17.213136
 30
0.0
 11
31.204923
 21
17.213136
 31
0.0
  0
LINE
  5
2CA
100
AcDbEntity
  8
1
370
    15
390
0
  6
Continuous
 62
     1
100
AcDbLine
 10
31.35945
 20
17.327176
 30
0.0
 11
31.245412
 21
17.213136
 31
0.0
  0
LINE
  5
2CB
100
AcDbEntity
  8
1
370
    15
390
0
  6
Continuous
 62
     1
100
AcDbLine
 10
31.182672
 20
16.805366
 30
0.0
 11
31.277443
 21
16.900136
 31
0.0
  0
LINE
  5
2CC
100
AcDbEntity
  8
1
370
    15
390
0
  6
Continuous
 62
     1
100
AcDbLine
 10
31.182672
 20
16.716978
 30
0.0
 11
31.365829
 21
16.900136
 31
0.0
  0
LINE
  5
2CD
100
AcDbEntity
  8
1
370
    15
390
0
  6
Continuous
 62
     1
100
AcDbLine
 10
31.133882
 20
16.579799
 30
0.0
 11
31.426591
 21
16.872508
 31
0.0
  0
LINE
  5
2CE
100
AcDbEntity
  8
1
370
    15
390
0
  6
Continuous
 62
     1
100
AcDbLine
 10
31.423325
 20
16.900136
 30
0.0
 11
31.204923
 21
16.900136
 31
0.0
  0
TEXT
  5
2CF
100
AcDbEntity
  8
0
370
    15
390
0
  6
Continuous
 62
     7
100
AcDbText
 10
31.505578
 20
14.829596
 30
0.0
 40
0.05
  1
Wichtige Bemerkung:
  7
Vcadd_SIMP
100
AcDbText
  0
TEXT
  5
2D0
100
AcDbEntity
  8
0
370
    15
390
0
  6
Continuous
 62
     7
100
AcDbText
 10
31.505578
 20
14.754596
 30
0.0
 40
0.05
  1
Diese Zeichnung beschreibt ein
  7
Vcadd_SIMP
100
AcDbText
  0
TEXT
  5
2D1
100
AcDbEntity
  8
0
370
    15
390
0
  6
Continuous
 62
     7
100
AcDbText
 10
31.505578
 20
14.679596
 30
0.0
 40
0.05
  1
Produkt der Firma SUN Hydraulik
  7
Vcadd_SIMP
100
AcDbText
  0
TEXT
  5
2D2
100
AcDbEntity
  8
0
370
    15
390
0
  6
Continuous
 62
     7
100
AcDbText
 10
31.505578
 20
14.604596
 30
0.0
 40
0.05
  1
und darf nicht ohne Genehmigung
  7
Vcadd_SIMP
100
AcDbText
  0
TEXT
  5
2D3
100
AcDbEntity
  8
0
370
    15
390
0
  6
Continuous
 62
     7
100
AcDbText
 10
31.505578
 20
14.529596
 30
0.0
 40
0.05
  1
vervielfδltigt oder an Dritte wei-
  7
Vcadd_SIMP
100
AcDbText
  0
TEXT
  5
2D4
100
AcDbEntity
  8
0
370
    15
390
0
  6
Continuous
 62
     7
100
AcDbText
 10
31.505578
 20
14.454596
 30
0.0
 40
0.05
  1
tergegeben werden. 
  7
Vcadd_SIMP
100
AcDbText
  0
TEXT
  5
2D5
100
AcDbEntity
  8
4
370
    15
390
0
  6
Continuous
 62
     7
100
AcDbText
 10
28.99031
 20
12.808478
 30
0.0
 40
0.06
  1
Komplettansicht
  7
Vcadd_SIMP
100
AcDbText
  0
LINE
  5
2D6
100
AcDbEntity
  8
4
370
    15
390
0
  6
Continuous
 62
   134
100
AcDbLine
 10
28.979745
 20
12.78792
 30
0.0
 11
29.57139
 21
12.78792
 31
0.0
  0
LINE
  5
2D7
100
AcDbEntity
  8
4
370
    15
390
0
  6
Continuous
 62
   134
100
AcDbLine
 10
28.979745
 20
12.771473
 30
0.0
 11
29.571691
 21
12.771473
 31
0.0
  0
LINE
  5
2D8
100
AcDbEntity
  8
4
370
    15
390
0
  6
Continuous
 62
     7
100
AcDbLine
 10
29.695852
 20
14.113616
 30
0.0
 11
29.879585
 21
14.113616
 31
0.0
  0
LINE
  5
2D9
100
AcDbEntity
  8
4
370
    15
390
0
  6
Continuous
 62
     7
100
AcDbLine
 10
29.879585
 20
14.113616
 30
0.0
 11
29.879585
 21
14.27941
 31
0.0
  0
LINE
  5
2DA
100
AcDbEntity
  8
4
370
    15
390
0
  6
Continuous
 62
     7
100
AcDbLine
 10
29.879585
 20
14.27941
 30
0.0
 11
29.695852
 21
14.27941
 31
0.0
  0
LINE
  5
2DB
100
AcDbEntity
  8
4
370
    15
390
0
  6
Continuous
 62
     7
100
AcDbLine
 10
29.695852
 20
14.27941
 30
0.0
 11
29.695852
 21
14.113616
 31
0.0
  0
CIRCLE
  5
2DC
100
AcDbEntity
  8
4
370
    15
390
0
  6
Continuous
 62
     7
100
AcDbCircle
 10
29.787719
 20
14.196513
 30
0.0
 40
0.064668
  0
CIRCLE
  5
2DD
100
AcDbEntity
  8
4
370
    15
390
0
  6
Continuous
 62
     7
100
AcDbCircle
 10
29.787719
 20
14.196513
 30
0.0
 40
0.0285
  0
HATCH
  5
2DE
100
AcDbEntity
  8
4
370
     0
390
0
  6
Continuous
 62
     7
100
AcDbHatch
 10
0.0
 20
0.0
 30
0.0
210
0.0
220
0.0
230
1.0
  2
SOLID
 70
     1
 71
     0
 91
        1
 92
        1
 93
        1
 72
     2
 10
29.787718801765639
 20
14.196513255833697
 40
0.0285002973369259
 50
0.0
 51
359.999994
 73
     1
 97
        0
 75
     0
 76
     1
 98
        1
 10
0.0
 20
0.0
  0
LINE
  5
2DF
100
AcDbEntity
  8
4
370
    15
390
0
  6
Continuous
 62
     7
100
AcDbLine
 10
29.879585
 20
14.27941
 30
0.0
 11
30.371378
 21
14.27941
 31
0.0
  0
LINE
  5
2E0
100
AcDbEntity
  8
4
370
    15
390
0
  6
Continuous
 62
     7
100
AcDbLine
 10
29.879585
 20
14.113616
 30
0.0
 11
30.371378
 21
14.113616
 31
0.0
  0
LINE
  5
2E1
100
AcDbEntity
  8
4
370
    15
390
0
  6
Continuous
 62
     7
100
AcDbLine
 10
30.371378
 20
14.27941
 30
0.0
 11
30.371378
 21
14.113616
 31
0.0
  0
LINE
  5
2E2
100
AcDbEntity
  8
4
370
    15
390
0
  6
Continuous
 62
     7
100
AcDbLine
 10
30.371378
 20
14.113616
 30
0.0
 11
30.555111
 21
14.113616
 31
0.0
  0
LINE
  5
2E3
100
AcDbEntity
  8
4
370
    15
390
0
  6
Continuous
 62
     7
100
AcDbLine
 10
30.555111
 20
14.113616
 30
0.0
 11
30.555111
 21
14.27941
 31
0.0
  0
LINE
  5
2E4
100
AcDbEntity
  8
4
370
    15
390
0
  6
Continuous
 62
     7
100
AcDbLine
 10
30.555111
 20
14.27941
 30
0.0
 11
30.371378
 21
14.27941
 31
0.0
  0
TEXT
  5
2E5
100
AcDbEntity
  8
4
370
    15
390
0
  6
Continuous
 62
     7
100
AcDbText
 10
30.394684
 20
14.132719
 30
0.0
 40
0.12
  1
A
  7
Vcadd_SIMP
 72
     1
 11
30.463684
 21
14.132719
 31
0.0
100
AcDbText
  0
TEXT
  5
2E6
100
AcDbEntity
  8
4
370
    15
390
0
  6
Continuous
 62
     7
100
AcDbText
 10
29.836158
 20
14.137045
 30
0.0
 40
0.12
  1
0,05
  7
Vcadd_SIMP
 72
     1
 11
30.112158
 21
14.137045
 31
0.0
100
AcDbText
  0
TEXT
  5
2E7
100
AcDbEntity
  8
4
370
    15
390
0
  6
Continuous
 62
     7
100
AcDbText
 10
30.52336
 20
13.808526
 30
0.0
 40
0.066
  1
Freiraum fόr Sechskantnuss
  7
Vcadd_SIMP
100
AcDbText
  0
TEXT
  5
2E8
100
AcDbEntity
  8
4
370
    15
390
0
  6
Continuous
 62
     7
100
AcDbText
 10
30.52336
 20
13.709526
 30
0.0
 40
0.066
  1
Max. empfohlene Tiefe bis zum LS-Anschlag
  7
Vcadd_SIMP
100
AcDbText
  0
TEXT
  5
2E9
100
AcDbEntity
  8
4
370
    15
390
0
  6
Continuous
 62
     7
100
AcDbText
 10
30.52336
 20
13.610526
 30
0.0
 40
0.066
  1
ohne Freiraum fόr Sechskantnuss
  7
Vcadd_SIMP
100
AcDbText
  0
TEXT
  5
2EA
100
AcDbEntity
  8
4
370
    15
390
0
  6
Continuous
 62
     7
100
AcDbText
 10
30.52336
 20
13.511526
 30
0.0
 40
0.066
  1
Min. Abstand von der Mittellinie bis zur End-
  7
Vcadd_SIMP
100
AcDbText
  0
TEXT
  5
2EB
100
AcDbEntity
  8
4
370
    15
390
0
  6
Continuous
 62
     7
100
AcDbText
 10
30.52336
 20
13.412526
 30
0.0
 40
0.066
  1
kante des Ventilkφrpers
  7
Vcadd_SIMP
100
AcDbText
  0
TEXT
  5
2EC
100
AcDbEntity
  8
4
370
    15
390
0
  6
Continuous
 62
     7
100
AcDbText
 10
30.52336
 20
13.313526
 30
0.0
 40
0.066
  1
Min. Abstand von der Mittellinie bis zur Mittel-
  7
Vcadd_SIMP
100
AcDbText
  0
TEXT
  5
2ED
100
AcDbEntity
  8
4
370
    15
390
0
  6
Continuous
 62
     7
100
AcDbText
 10
30.52336
 20
13.214526
 30
0.0
 40
0.066
  1
linie bei gleicher Einschraubbohrung
  7
Vcadd_SIMP
100
AcDbText
  0
CIRCLE
  5
2EE
100
AcDbEntity
  8
0
370
    15
390
0
  6
Continuous
 62
     1
100
AcDbCircle
 10
31.540058
 20
14.353259
 30
0.0
 40
0.034254
  0
TEXT
  5
2EF
100
AcDbEntity
  8
0
370
    15
390
0
  6
Continuous
 62
     7
100
AcDbText
 10
31.522754
 20
14.333541
 30
0.0
 40
0.045
  1
C
  7
Vcadd_SIMP
100
AcDbText
  0
TEXT
  5
2F0
100
AcDbEntity
  8
0
370
    15
390
0
  6
Continuous
 62
     7
100
AcDbText
 10
31.613731
 20
14.330074
 30
0.0
 40
0.05
  1
SUN HYDRAULICS CORPORATION
  7
Vcadd_SIMP
100
AcDbText
  0
TEXT
  5
2F1
100
AcDbEntity
  8
4
370
    15
390
0
  6
Continuous
 62
     7
100
AcDbText
 10
30.279749
 20
13.077294
 30
0.0
 40
0.066
  1
Name in Bohrtabelle: SUN STD T-22A CAVITY
  7
Vcadd_SIMP
100
AcDbText
  0
TEXT
  5
2F2
100
AcDbEntity
  8
4
370
    15
390
0
  6
Continuous
 62
     7
100
AcDbText
 10
30.279749
 20
12.978294
 30
0.0
 40
0.066
  1
Code in Bohrtabelle: T22A
  7
Vcadd_SIMP
100
AcDbText
  0
TEXT
  5
2F3
100
AcDbEntity
  8
0
370
    15
390
0
  6
Continuous
 62
     7
100
AcDbText
 10
32.405629
 20
13.076761
 30
0.0
 40
0.06
  1
T-22A Metrisch
 50
270.0
  7
Vcadd_SIMP
 72
     1
 11
32.735646
 21
13.076761
 31
0.0
100
AcDbText
  0
TEXT
  5
2F4
100
AcDbEntity
  8
0
370
    15
390
0
  6
Continuous
 62
     7
100
AcDbText
 10
32.359438
 20
13.076761
 30
0.0
 40
0.06
  1
Blatt 3 von 3
 50
270.0
  7
Vcadd_SIMP
 72
     1
 11
32.657646
 21
13.076761
 31
0.0
100
AcDbText
  0
TEXT
  5
2F5
100
AcDbEntity
  8
4
370
    15
390
0
  6
Continuous
 62
     7
100
AcDbText
 10
30.624976
 20
14.203293
 30
0.0
 40
0.06
  1
Gewinde und alle
  7
Vcadd_SIMP
100
AcDbText
  0
TEXT
  5
2F6
100
AcDbEntity
  8
4
370
    15
390
0
  6
Continuous
 62
     7
100
AcDbText
 10
30.624976
 20
14.125293
 30
0.0
 40
0.06
  1
Durchmesser
  7
Vcadd_SIMP
100
AcDbText
  0
TEXT
  5
2F7
100
AcDbEntity
  8
4
370
    15
390
0
  6
Continuous
 62
     7
100
AcDbText
 10
30.383501
 20
14.411852
 30
0.0
 40
0.07
  1
Anschluss #1
  7
Vcadd_SIMP
100
AcDbText
  0
TEXT
  5
2F8
100
AcDbEntity
  8
4
370
    15
390
0
  6
Continuous
 62
     7
100
AcDbText
 10
31.70168
 20
16.238961
 30
0.0
 40
0.07
  1
Anschluss #2
  7
Vcadd_SIMP
100
AcDbText
  0
LINE
  5
2F9
100
AcDbEntity
  8
4
370
    15
390
0
  6
Continuous
 62
     1
100
AcDbLine
 10
31.667737
 20
15.359983
 30
0.0
 11
31.566894
 21
15.359983
 31
0.0
  0
LINE
  5
2FA
100
AcDbEntity
  8
1
370
    15
390
0
  6
Continuous
 62
     1
100
AcDbLine
 10
31.048226
 20
15.088137
 30
0.0
 11
31.665106
 21
15.088137
 31
0.0
  0
LINE
  5
2FB
100
AcDbEntity
  8
4
370
    15
390
0
  6
Continuous
 62
     1
100
AcDbLine
 10
31.566894
 20
15.359983
 30
0.0
 11
31.665106
 21
15.088137
 31
0.0
  0
TEXT
  5
2FC
100
AcDbEntity
  8
4
370
    15
390
0
  6
Continuous
 62
     7
100
AcDbText
 10
31.718524
 20
15.328636
 30
0.0
 40
0.071
  1
44,4
  7
Vcadd_SIMP
100
AcDbText
  0
TEXT
  5
2FD
100
AcDbEntity
  8
4
370
    15
390
0
  6
Continuous
 62
     7
100
AcDbText
 10
31.822418
 20
15.705406
 30
0.0
 40
0.06
  1
Abstόtzung
  7
Vcadd_SIMP
100
AcDbText
  0
TEXT
  5
2FE
100
AcDbEntity
  8
4
370
    15
390
0
  6
Continuous
 62
     7
100
AcDbText
 10
31.822418
 20
15.615406
 30
0.0
 40
0.06
  1
(fόr Ventilbuchse)
  7
Vcadd_SIMP
100
AcDbText
  0
TEXT
  5
2FF
100
AcDbEntity
  8
4
370
    15
390
0
  6
Continuous
 62
     7
100
AcDbText
 10
31.713907
 20
17.113546
 30
0.0
 40
0.07
  1
Anschluss #3
  7
Vcadd_SIMP
100
AcDbText
  0
TEXT
  5
300
100
AcDbEntity
  8
4
370
    15
390
0
  6
Continuous
 62
     7
100
AcDbText
 10
31.707794
 20
17.756971
 30
0.0
 40
0.07
  1
Anschluss #4
  7
Vcadd_SIMP
100
AcDbText
  0
TEXT
  5
301
100
AcDbEntity
  8
4
370
    15
390
0
  6
Continuous
 62
     7
100
AcDbText
 10
31.833656
 20
16.859674
 30
0.0
 40
0.06
  1
LS-Anschlag
  7
Vcadd_SIMP
 72
     1
 11
32.096563
 21
16.859674
 31
0.0
100
AcDbText
  0
TEXT
  5
302
100
AcDbEntity
  8
4
370
    15
390
0
  6
Continuous
 62
     7
100
AcDbText
 10
31.738283
 20
16.769674
 30
0.0
 40
0.06
  1
(Maίbezugskante)
  7
Vcadd_SIMP
 72
     1
 11
32.096563
 21
16.769674
 31
0.0
100
AcDbText
  0
TEXT
  5
303
100
AcDbEntity
  8
4
370
    15
390
0
  6
Continuous
 62
     7
100
AcDbText
 10
31.835409
 20
18.162187
 30
0.0
 40
0.06
  1
Mindestabstand
  7
Vcadd_SIMP
100
AcDbText
  0
TEXT
  5
304
100
AcDbEntity
  8
4
370
    15
390
0
  6
Continuous
 62
     7
100
AcDbText
 10
31.835409
 20
18.072187
 30
0.0
 40
0.06
  1
von Oberflδche
  7
Vcadd_SIMP
100
AcDbText
  0
TEXT
  5
305
100
AcDbEntity
  8
4
370
    15
390
0
  6
Continuous
 62
     7
100
AcDbText
 10
31.701681
 20
18.856046
 30
0.0
 40
0.06
  1
Min. Abstand des
  7
Vcadd_SIMP
100
AcDbText
  0
TEXT
  5
306
100
AcDbEntity
  8
4
370
    15
390
0
  6
Continuous
 62
     7
100
AcDbText
 10
31.701681
 20
18.766046
 30
0.0
 40
0.06
  1
Sechskant
  7
Vcadd_SIMP
100
AcDbText
  0
TEXT
  5
307
100
AcDbEntity
  8
4
370
    15
390
0
  6
Continuous
 62
     7
100
AcDbText
 10
31.758992
 20
19.442159
 30
0.0
 40
0.06
  1
Freiraum fόr
  7
Vcadd_SIMP
100
AcDbText
  0
TEXT
  5
308
100
AcDbEntity
  8
4
370
    15
390
0
  6
Continuous
 62
     7
100
AcDbText
 10
31.758992
 20
19.352159
 30
0.0
 40
0.06
  1
Sechskantnuss
  7
Vcadd_SIMP
100
AcDbText
  0
TEXT
  5
309
100
AcDbEntity
  8
4
370
    15
390
0
  6
Continuous
 62
     7
100
AcDbText
 10
30.816017
 20
19.046493
 30
0.0
 40
0.071
  1
SW 28,40
  7
Vcadd_SIMP
100
AcDbText
  0
TEXT
  5
30A
100
AcDbEntity
  8
4
370
    15
390
0
  6
Continuous
 62
     7
100
AcDbText
 10
29.347332
 20
20.451835
 30
0.0
 40
0.06
  1
T-
  7
Vcadd_SIMP
100
AcDbText
  0
TEXT
  5
30B
100
AcDbEntity
  8
4
370
    15
390
0
  6
Continuous
 62
     7
100
AcDbText
 10
29.702333
 20
20.451835
 30
0.0
 40
0.06
  1
Einschraubventilbohrung
  7
Vcadd_SIMP
100
AcDbText
  0
LINE
  5
30C
100
AcDbEntity
  8
3
370
    15
390
0
  6
Continuous
 62
     1
100
AcDbLine
 10
29.320898
 20
20.423488
 30
0.0
 11
31.12951
 21
20.423488
 31
0.0
  0
TEXT
  5
30D
100
AcDbEntity
  8
4
370
    15
390
0
  6
Continuous
 62
     7
100
AcDbText
 10
29.244326
 20
20.326289
 30
0.0
 40
0.06
  1
(alle Abmessungen in Millimeter)
  7
Vcadd_SIMP
100
AcDbText
  0
TEXT
  5
30E
100
AcDbEntity
  8
4
370
    15
390
0
  6
Continuous
 62
     7
100
AcDbText
 10
29.479958
 20
20.449126
 30
0.0
 40
0.06
  1
22A
  7
Vcadd_SIMP
100
AcDbText
  0
TEXT
  5
30F
100
AcDbEntity
  8
4
370
    15
390
0
  6
Continuous
 62
     7
100
AcDbText
 10
29.648747
 20
20.203478
 30
0.0
 40
0.06
  1
1.00-14 UNS-2B Gewinde
  7
Vcadd_SIMP
100
AcDbText
  0
LINE
  5
310
100
AcDbEntity
  8
4
370
    15
390
0
  6
Continuous
 62
     7
100
AcDbLine
 10
29.510064
 20
20.20833
 30
0.0
 11
29.546349
 21
20.271177
 31
0.0
  0
LINE
  5
311
100
AcDbEntity
  8
4
370
    15
390
0
  6
Continuous
 62
     7
100
AcDbLine
 10
29.582634
 20
20.20833
 30
0.0
 11
29.546349
 21
20.271177
 31
0.0
  0
LINE
  5
312
100
AcDbEntity
  8
4
370
    15
390
0
  6
Continuous
 62
     7
100
AcDbLine
 10
29.510064
 20
20.20833
 30
0.0
 11
29.582634
 21
20.20833
 31
0.0
  0
TEXT
  5
313
100
AcDbEntity
  8
4
370
    15
390
0
  6
Continuous
 62
     7
100
AcDbText
 10
29.490138
 20
20.106002
 30
0.0
 40
0.06
  1
24,22/24,41 PITCH DIA.
  7
Vcadd_SIMP
 72
     1
 11
30.249138
 21
20.106002
 31
0.0
100
AcDbText
  0
TEXT
  5
314
100
AcDbEntity
  8
4
370
    15
390
0
  6
Continuous
 62
     7
100
AcDbText
 10
28.558905
 20
16.386194
 30
0.0
 40
0.071
  1
15,88
  7
Vcadd_SIMP
100
AcDbText
  0
CIRCLE
  5
315
100
AcDbEntity
  8
0
370
    15
390
0
  6
Continuous
 62
     7
100
AcDbCircle
 10
28.182778
 20
12.814891
 30
0.0
 40
0.027193
  0
CIRCLE
  5
316
100
AcDbEntity
  8
0
370
    15
390
0
  6
Continuous
 62
     2
100
AcDbCircle
 10
28.093657
 20
13.71275
 30
0.0
 40
0.156
  0
LINE
  5
317
100
AcDbEntity
  8
0
370
    15
390
0
  6
Continuous
 62
     7
100
AcDbLine
 10
28.126161
 20
13.771644
 30
0.0
 11
28.153394
 21
13.771644
 31
0.0
  0
LINE
  5
318
100
AcDbEntity
  8
0
370
    15
390
0
  6
Continuous
 62
     7
100
AcDbLine
 10
28.126161
 20
13.818219
 30
0.0
 11
28.126161
 21
13.771644
 31
0.0
  0
LINE
  5
319
100
AcDbEntity
  8
0
370
    15
390
0
  6
Continuous
 62
     7
100
AcDbLine
 10
28.107408
 20
13.818219
 30
0.0
 11
28.126161
 21
13.818219
 31
0.0
  0
LINE
  5
31A
100
AcDbEntity
  8
0
370
    15
390
0
  6
Continuous
 62
     7
100
AcDbLine
 10
28.107408
 20
13.771644
 30
0.0
 11
28.107408
 21
13.818219
 31
0.0
  0
LINE
  5
31B
100
AcDbEntity
  8
0
370
    15
390
0
  6
Continuous
 62
     7
100
AcDbLine
 10
28.033919
 20
13.771644
 30
0.0
 11
28.107408
 21
13.771644
 31
0.0
  0
LINE
  5
31C
100
AcDbEntity
  8
0
370
    15
390
0
  6
Continuous
 62
     7
100
AcDbLine
 10
28.033919
 20
13.845719
 30
0.0
 11
28.033919
 21
13.771644
 31
0.0
  0
LINE
  5
31D
100
AcDbEntity
  8
0
370
    15
390
0
  6
Continuous
 62
     7
100
AcDbLine
 10
28.06144
 20
13.845719
 30
0.0
 11
28.033919
 21
13.845719
 31
0.0
  0
LINE
  5
31E
100
AcDbEntity
  8
0
370
    15
390
0
  6
Continuous
 62
     7
100
AcDbLine
 10
28.06144
 20
13.799144
 30
0.0
 11
28.06144
 21
13.845719
 31
0.0
  0
LINE
  5
31F
100
AcDbEntity
  8
0
370
    15
390
0
  6
Continuous
 62
     7
100
AcDbLine
 10
28.079716
 20
13.799144
 30
0.0
 11
28.06144
 21
13.799144
 31
0.0
  0
LINE
  5
320
100
AcDbEntity
  8
0
370
    15
390
0
  6
Continuous
 62
     7
100
AcDbLine
 10
28.079716
 20
13.845719
 30
0.0
 11
28.079716
 21
13.799144
 31
0.0
  0
LINE
  5
321
100
AcDbEntity
  8
0
370
    15
390
0
  6
Continuous
 62
     7
100
AcDbLine
 10
28.153394
 20
13.845719
 30
0.0
 11
28.079716
 21
13.845719
 31
0.0
  0
LINE
  5
322
100
AcDbEntity
  8
0
370
    15
390
0
  6
Continuous
 62
     7
100
AcDbLine
 10
28.153394
 20
13.845719
 30
0.0
 11
28.153394
 21
13.771644
 31
0.0
  0
LINE
  5
323
100
AcDbEntity
  8
0
370
    15
390
0
  6
Continuous
 62
     7
100
AcDbLine
 10
28.153394
 20
13.675714
 30
0.0
 11
28.153394
 21
13.703567
 31
0.0
  0
LINE
  5
324
100
AcDbEntity
  8
0
370
    15
390
0
  6
Continuous
 62
     7
100
AcDbLine
 10
28.033919
 20
13.675714
 30
0.0
 11
28.153394
 21
13.675714
 31
0.0
  0
LINE
  5
325
100
AcDbEntity
  8
0
370
    15
390
0
  6
Continuous
 62
     7
100
AcDbLine
 10
28.033919
 20
13.749789
 30
0.0
 11
28.033919
 21
13.675714
 31
0.0
  0
LINE
  5
326
100
AcDbEntity
  8
0
370
    15
390
0
  6
Continuous
 62
     7
100
AcDbLine
 10
28.153394
 20
13.749789
 30
0.0
 11
28.033919
 21
13.749789
 31
0.0
  0
LINE
  5
327
100
AcDbEntity
  8
0
370
    15
390
0
  6
Continuous
 62
     7
100
AcDbLine
 10
28.153394
 20
13.722329
 30
0.0
 11
28.153394
 21
13.749789
 31
0.0
  0
LINE
  5
328
100
AcDbEntity
  8
0
370
    15
390
0
  6
Continuous
 62
     7
100
AcDbLine
 10
28.061419
 20
13.722329
 30
0.0
 11
28.153394
 21
13.722329
 31
0.0
  0
LINE
  5
329
100
AcDbEntity
  8
0
370
    15
390
0
  6
Continuous
 62
     7
100
AcDbLine
 10
28.061419
 20
13.703567
 30
0.0
 11
28.061419
 21
13.722329
 31
0.0
  0
LINE
  5
32A
100
AcDbEntity
  8
0
370
    15
390
0
  6
Continuous
 62
     7
100
AcDbLine
 10
28.061419
 20
13.703567
 30
0.0
 11
28.153394
 21
13.703567
 31
0.0
  0
LINE
  5
32B
100
AcDbEntity
  8
0
370
    15
390
0
  6
Continuous
 62
     7
100
AcDbLine
 10
28.033919
 20
13.624925
 30
0.0
 11
28.033919
 21
13.652778
 31
0.0
  0
LINE
  5
32C
100
AcDbEntity
  8
0
370
    15
390
0
  6
Continuous
 62
     7
100
AcDbLine
 10
28.125894
 20
13.624925
 30
0.0
 11
28.033919
 21
13.624925
 31
0.0
  0
LINE
  5
32D
100
AcDbEntity
  8
0
370
    15
390
0
  6
Continuous
 62
     7
100
AcDbLine
 10
28.125894
 20
13.606162
 30
0.0
 11
28.125894
 21
13.624925
 31
0.0
  0
LINE
  5
32E
100
AcDbEntity
  8
0
370
    15
390
0
  6
Continuous
 62
     7
100
AcDbLine
 10
28.033919
 20
13.606162
 30
0.0
 11
28.125894
 21
13.606162
 31
0.0
  0
LINE
  5
32F
100
AcDbEntity
  8
0
370
    15
390
0
  6
Continuous
 62
     7
100
AcDbLine
 10
28.033919
 20
13.578702
 30
0.0
 11
28.033919
 21
13.606162
 31
0.0
  0
LINE
  5
330
100
AcDbEntity
  8
0
370
    15
390
0
  6
Continuous
 62
     7
100
AcDbLine
 10
28.153394
 20
13.578702
 30
0.0
 11
28.033919
 21
13.578702
 31
0.0
  0
LINE
  5
331
100
AcDbEntity
  8
0
370
    15
390
0
  6
Continuous
 62
     7
100
AcDbLine
 10
28.153394
 20
13.652778
 30
0.0
 11
28.153394
 21
13.578702
 31
0.0
  0
LINE
  5
332
100
AcDbEntity
  8
0
370
    15
390
0
  6
Continuous
 62
     7
100
AcDbLine
 10
28.153394
 20
13.652778
 30
0.0
 11
28.033919
 21
13.652778
 31
0.0
  0
LINE
  5
333
100
AcDbEntity
  8
0
370
    15
390
0
  6
Continuous
 62
     7
100
AcDbLine
 10
28.141657
 20
13.470622
 30
0.0
 11
28.174998
 21
13.470622
 31
0.0
  0
LINE
  5
334
100
AcDbEntity
  8
0
370
    15
390
0
  6
Continuous
 62
     7
100
AcDbLine
 10
28.141657
 20
13.430442
 30
0.0
 11
28.141657
 21
13.470622
 31
0.0
  0
LINE
  5
335
100
AcDbEntity
  8
0
370
    15
390
0
  6
Continuous
 62
     7
100
AcDbLine
 10
28.043656
 20
13.430442
 30
0.0
 11
28.141657
 21
13.430442
 31
0.0
  0
LINE
  5
336
100
AcDbEntity
  8
0
370
    15
390
0
  6
Continuous
 62
     7
100
AcDbLine
 10
28.043656
 20
13.450532
 30
0.0
 11
28.043656
 21
13.430442
 31
0.0
  0
LINE
  5
337
100
AcDbEntity
  8
0
370
    15
390
0
  6
Continuous
 62
     7
100
AcDbLine
 10
28.121567
 20
13.450532
 30
0.0
 11
28.043656
 21
13.450532
 31
0.0
  0
LINE
  5
338
100
AcDbEntity
  8
0
370
    15
390
0
  6
Continuous
 62
     7
100
AcDbLine
 10
28.121567
 20
13.470622
 30
0.0
 11
28.121567
 21
13.450532
 31
0.0
  0
LINE
  5
339
100
AcDbEntity
  8
0
370
    15
390
0
  6
Continuous
 62
     7
100
AcDbLine
 10
28.043656
 20
13.470622
 30
0.0
 11
28.121567
 21
13.470622
 31
0.0
  0
LINE
  5
33A
100
AcDbEntity
  8
0
370
    15
390
0
  6
Continuous
 62
     7
100
AcDbLine
 10
28.043656
 20
13.490712
 30
0.0
 11
28.043656
 21
13.470622
 31
0.0
  0
LINE
  5
33B
100
AcDbEntity
  8
0
370
    15
390
0
  6
Continuous
 62
     7
100
AcDbLine
 10
28.174998
 20
13.490712
 30
0.0
 11
28.043656
 21
13.490712
 31
0.0
  0
LINE
  5
33C
100
AcDbEntity
  8
0
370
    15
390
0
  6
Continuous
 62
     7
100
AcDbLine
 10
28.174998
 20
13.490712
 30
0.0
 11
28.174998
 21
13.470622
 31
0.0
  0
LINE
  5
33D
100
AcDbEntity
  8
0
370
    15
390
0
  6
Continuous
 62
     7
100
AcDbLine
 10
28.063746
 20
13.390262
 30
0.0
 11
28.141657
 21
13.390262
 31
0.0
  0
LINE
  5
33E
100
AcDbEntity
  8
0
370
    15
390
0
  6
Continuous
 62
     7
100
AcDbLine
 10
28.063746
 20
13.370172
 30
0.0
 11
28.063746
 21
13.390262
 31
0.0
  0
LINE
  5
33F
100
AcDbEntity
  8
0
370
    15
390
0
  6
Continuous
 62
     7
100
AcDbLine
 10
28.141657
 20
13.370172
 30
0.0
 11
28.063746
 21
13.370172
 31
0.0
  0
LINE
  5
340
100
AcDbEntity
  8
0
370
    15
390
0
  6
Continuous
 62
     7
100
AcDbLine
 10
28.141657
 20
13.350081
 30
0.0
 11
28.141657
 21
13.370172
 31
0.0
  0
LINE
  5
341
100
AcDbEntity
  8
0
370
    15
390
0
  6
Continuous
 62
     7
100
AcDbLine
 10
28.003827
 20
13.350081
 30
0.0
 11
28.141657
 21
13.350081
 31
0.0
  0
LINE
  5
342
100
AcDbEntity
  8
0
370
    15
390
0
  6
Continuous
 62
     7
100
AcDbLine
 10
28.003476
 20
13.389041
 30
0.0
 11
28.003827
 21
13.350081
 31
0.0
  0
LINE
  5
343
100
AcDbEntity
  8
0
370
    15
390
0
  6
Continuous
 62
     7
100
AcDbLine
 10
28.023566
 20
13.389041
 30
0.0
 11
28.003476
 21
13.389041
 31
0.0
  0
LINE
  5
344
100
AcDbEntity
  8
0
370
    15
390
0
  6
Continuous
 62
     7
100
AcDbLine
 10
28.023566
 20
13.370172
 30
0.0
 11
28.023566
 21
13.389041
 31
0.0
  0
LINE
  5
345
100
AcDbEntity
  8
0
370
    15
390
0
  6
Continuous
 62
     7
100
AcDbLine
 10
28.043656
 20
13.370172
 30
0.0
 11
28.023566
 21
13.370172
 31
0.0
  0
LINE
  5
346
100
AcDbEntity
  8
0
370
    15
390
0
  6
Continuous
 62
     7
100
AcDbLine
 10
28.043656
 20
13.410352
 30
0.0
 11
28.043656
 21
13.370172
 31
0.0
  0
LINE
  5
347
100
AcDbEntity
  8
0
370
    15
390
0
  6
Continuous
 62
     7
100
AcDbLine
 10
28.141657
 20
13.410352
 30
0.0
 11
28.043656
 21
13.410352
 31
0.0
  0
LINE
  5
348
100
AcDbEntity
  8
0
370
    15
390
0
  6
Continuous
 62
     7
100
AcDbLine
 10
28.141657
 20
13.410352
 30
0.0
 11
28.141657
 21
13.390262
 31
0.0
  0
LINE
  5
349
100
AcDbEntity
  8
0
370
    15
390
0
  6
Continuous
 62
     7
100
AcDbLine
 10
28.174998
 20
13.289054
 30
0.0
 11
28.141657
 21
13.289054
 31
0.0
  0
LINE
  5
34A
100
AcDbEntity
  8
0
370
    15
390
0
  6
Continuous
 62
     7
100
AcDbLine
 10
28.174998
 20
13.268962
 30
0.0
 11
28.174998
 21
13.289054
 31
0.0
  0
LINE
  5
34B
100
AcDbEntity
  8
0
370
    15
390
0
  6
Continuous
 62
     7
100
AcDbLine
 10
28.043656
 20
13.268962
 30
0.0
 11
28.174998
 21
13.268962
 31
0.0
  0
LINE
  5
34C
100
AcDbEntity
  8
0
370
    15
390
0
  6
Continuous
 62
     7
100
AcDbLine
 10
28.043656
 20
13.329234
 30
0.0
 11
28.043656
 21
13.268962
 31
0.0
  0
LINE
  5
34D
100
AcDbEntity
  8
0
370
    15
390
0
  6
Continuous
 62
     7
100
AcDbLine
 10
28.141657
 20
13.329234
 30
0.0
 11
28.043656
 21
13.329234
 31
0.0
  0
LINE
  5
34E
100
AcDbEntity
  8
0
370
    15
390
0
  6
Continuous
 62
     7
100
AcDbLine
 10
28.141657
 20
13.329234
 30
0.0
 11
28.141657
 21
13.289054
 31
0.0
  0
LINE
  5
34F
100
AcDbEntity
  8
0
370
    15
390
0
  6
Continuous
 62
     7
100
AcDbLine
 10
28.121567
 20
13.289054
 30
0.0
 11
28.063746
 21
13.289054
 31
0.0
  0
LINE
  5
350
100
AcDbEntity
  8
0
370
    15
390
0
  6
Continuous
 62
     7
100
AcDbLine
 10
28.063746
 20
13.309142
 30
0.0
 11
28.063746
 21
13.289054
 31
0.0
  0
LINE
  5
351
100
AcDbEntity
  8
0
370
    15
390
0
  6
Continuous
 62
     7
100
AcDbLine
 10
28.121567
 20
13.309142
 30
0.0
 11
28.063746
 21
13.309142
 31
0.0
  0
LINE
  5
352
100
AcDbEntity
  8
0
370
    15
390
0
  6
Continuous
 62
     7
100
AcDbLine
 10
28.121567
 20
13.309142
 30
0.0
 11
28.121567
 21
13.289054
 31
0.0
  0
LINE
  5
353
100
AcDbEntity
  8
0
370
    15
390
0
  6
Continuous
 62
     7
100
AcDbLine
 10
28.121567
 20
13.208693
 30
0.0
 11
28.141657
 21
13.208693
 31
0.0
  0
LINE
  5
354
100
AcDbEntity
  8
0
370
    15
390
0
  6
Continuous
 62
     7
100
AcDbLine
 10
28.121567
 20
13.228784
 30
0.0
 11
28.121567
 21
13.208693
 31
0.0
  0
LINE
  5
355
100
AcDbEntity
  8
0
370
    15
390
0
  6
Continuous
 62
     7
100
AcDbLine
 10
28.043656
 20
13.228784
 30
0.0
 11
28.121567
 21
13.228784
 31
0.0
  0
LINE
  5
356
100
AcDbEntity
  8
0
370
    15
390
0
  6
Continuous
 62
     7
100
AcDbLine
 10
28.043656
 20
13.248874
 30
0.0
 11
28.043656
 21
13.228784
 31
0.0
  0
LINE
  5
357
100
AcDbEntity
  8
0
370
    15
390
0
  6
Continuous
 62
     7
100
AcDbLine
 10
28.141657
 20
13.248874
 30
0.0
 11
28.043656
 21
13.248874
 31
0.0
  0
LINE
  5
358
100
AcDbEntity
  8
0
370
    15
390
0
  6
Continuous
 62
     7
100
AcDbLine
 10
28.141657
 20
13.248874
 30
0.0
 11
28.141657
 21
13.208693
 31
0.0
  0
LINE
  5
359
100
AcDbEntity
  8
0
370
    15
390
0
  6
Continuous
 62
     7
100
AcDbLine
 10
28.063746
 20
13.088153
 30
0.0
 11
28.141657
 21
13.088153
 31
0.0
  0
LINE
  5
35A
100
AcDbEntity
  8
0
370
    15
390
0
  6
Continuous
 62
     7
100
AcDbLine
 10
28.063746
 20
13.068063
 30
0.0
 11
28.063746
 21
13.088153
 31
0.0
  0
LINE
  5
35B
100
AcDbEntity
  8
0
370
    15
390
0
  6
Continuous
 62
     7
100
AcDbLine
 10
28.141657
 20
13.068063
 30
0.0
 11
28.063746
 21
13.068063
 31
0.0
  0
LINE
  5
35C
100
AcDbEntity
  8
0
370
    15
390
0
  6
Continuous
 62
     7
100
AcDbLine
 10
28.141657
 20
13.047973
 30
0.0
 11
28.141657
 21
13.068063
 31
0.0
  0
LINE
  5
35D
100
AcDbEntity
  8
0
370
    15
390
0
  6
Continuous
 62
     7
100
AcDbLine
 10
28.043656
 20
13.047973
 30
0.0
 11
28.141657
 21
13.047973
 31
0.0
  0
LINE
  5
35E
100
AcDbEntity
  8
0
370
    15
390
0
  6
Continuous
 62
     7
100
AcDbLine
 10
28.043656
 20
13.108243
 30
0.0
 11
28.043656
 21
13.047973
 31
0.0
  0
LINE
  5
35F
100
AcDbEntity
  8
0
370
    15
390
0
  6
Continuous
 62
     7
100
AcDbLine
 10
28.141657
 20
13.108243
 30
0.0
 11
28.043656
 21
13.108243
 31
0.0
  0
LINE
  5
360
100
AcDbEntity
  8
0
370
    15
390
0
  6
Continuous
 62
     7
100
AcDbLine
 10
28.141657
 20
13.108243
 30
0.0
 11
28.141657
 21
13.088153
 31
0.0
  0
LINE
  5
361
100
AcDbEntity
  8
0
370
    15
390
0
  6
Continuous
 62
     7
100
AcDbLine
 10
28.043656
 20
13.007792
 30
0.0
 11
28.174998
 21
13.007792
 31
0.0
  0
LINE
  5
362
100
AcDbEntity
  8
0
370
    15
390
0
  6
Continuous
 62
     7
100
AcDbLine
 10
28.043656
 20
13.027883
 30
0.0
 11
28.043656
 21
13.007792
 31
0.0
  0
LINE
  5
363
100
AcDbEntity
  8
0
370
    15
390
0
  6
Continuous
 62
     7
100
AcDbLine
 10
28.174998
 20
13.027883
 30
0.0
 11
28.043656
 21
13.027883
 31
0.0
  0
LINE
  5
364
100
AcDbEntity
  8
0
370
    15
390
0
  6
Continuous
 62
     7
100
AcDbLine
 10
28.174998
 20
13.027883
 30
0.0
 11
28.174998
 21
13.007792
 31
0.0
  0
LINE
  5
365
100
AcDbEntity
  8
0
370
    15
390
0
  6
Continuous
 62
     7
100
AcDbLine
 10
28.154908
 20
12.967612
 30
0.0
 11
28.174998
 21
12.967612
 31
0.0
  0
LINE
  5
366
100
AcDbEntity
  8
0
370
    15
390
0
  6
Continuous
 62
     7
100
AcDbLine
 10
28.154908
 20
12.987702
 30
0.0
 11
28.154908
 21
12.967612
 31
0.0
  0
LINE
  5
367
100
AcDbEntity
  8
0
370
    15
390
0
  6
Continuous
 62
     7
100
AcDbLine
 10
28.174998
 20
12.987702
 30
0.0
 11
28.154908
 21
12.987702
 31
0.0
  0
LINE
  5
368
100
AcDbEntity
  8
0
370
    15
390
0
  6
Continuous
 62
     7
100
AcDbLine
 10
28.174998
 20
12.987702
 30
0.0
 11
28.174998
 21
12.967612
 31
0.0
  0
LINE
  5
369
100
AcDbEntity
  8
0
370
    15
390
0
  6
Continuous
 62
     7
100
AcDbLine
 10
28.043656
 20
12.967612
 30
0.0
 11
28.141657
 21
12.967612
 31
0.0
  0
LINE
  5
36A
100
AcDbEntity
  8
0
370
    15
390
0
  6
Continuous
 62
     7
100
AcDbLine
 10
28.043656
 20
12.987702
 30
0.0
 11
28.043656
 21
12.967612
 31
0.0
  0
LINE
  5
36B
100
AcDbEntity
  8
0
370
    15
390
0
  6
Continuous
 62
     7
100
AcDbLine
 10
28.141657
 20
12.987702
 30
0.0
 11
28.043656
 21
12.987702
 31
0.0
  0
LINE
  5
36C
100
AcDbEntity
  8
0
370
    15
390
0
  6
Continuous
 62
     7
100
AcDbLine
 10
28.141657
 20
12.987702
 30
0.0
 11
28.141657
 21
12.967612
 31
0.0
  0
LINE
  5
36D
100
AcDbEntity
  8
0
370
    15
390
0
  6
Continuous
 62
     7
100
AcDbLine
 10
28.121567
 20
12.889651
 30
0.0
 11
28.141657
 21
12.889651
 31
0.0
  0
LINE
  5
36E
100
AcDbEntity
  8
0
370
    15
390
0
  6
Continuous
 62
     7
100
AcDbLine
 10
28.121567
 20
12.927432
 30
0.0
 11
28.121567
 21
12.889651
 31
0.0
  0
LINE
  5
36F
100
AcDbEntity
  8
0
370
    15
390
0
  6
Continuous
 62
     7
100
AcDbLine
 10
28.063746
 20
12.927432
 30
0.0
 11
28.121567
 21
12.927432
 31
0.0
  0
LINE
  5
370
100
AcDbEntity
  8
0
370
    15
390
0
  6
Continuous
 62
     7
100
AcDbLine
 10
28.063746
 20
12.889651
 30
0.0
 11
28.063746
 21
12.927432
 31
0.0
  0
LINE
  5
371
100
AcDbEntity
  8
0
370
    15
390
0
  6
Continuous
 62
     7
100
AcDbLine
 10
28.043656
 20
12.889651
 30
0.0
 11
28.063746
 21
12.889651
 31
0.0
  0
LINE
  5
372
100
AcDbEntity
  8
0
370
    15
390
0
  6
Continuous
 62
     7
100
AcDbLine
 10
28.043656
 20
12.947522
 30
0.0
 11
28.043656
 21
12.889651
 31
0.0
  0
LINE
  5
373
100
AcDbEntity
  8
0
370
    15
390
0
  6
Continuous
 62
     7
100
AcDbLine
 10
28.141657
 20
12.947522
 30
0.0
 11
28.043656
 21
12.947522
 31
0.0
  0
LINE
  5
374
100
AcDbEntity
  8
0
370
    15
390
0
  6
Continuous
 62
     7
100
AcDbLine
 10
28.141657
 20
12.947522
 30
0.0
 11
28.141657
 21
12.889651
 31
0.0
  0
LINE
  5
375
100
AcDbEntity
  8
0
370
    15
390
0
  6
Continuous
 62
     7
100
AcDbLine
 10
28.121567
 20
12.805921
 30
0.0
 11
28.141657
 21
12.805921
 31
0.0
  0
LINE
  5
376
100
AcDbEntity
  8
0
370
    15
390
0
  6
Continuous
 62
     7
100
AcDbLine
 10
28.121567
 20
12.849471
 30
0.0
 11
28.121567
 21
12.805921
 31
0.0
  0
LINE
  5
377
100
AcDbEntity
  8
0
370
    15
390
0
  6
Continuous
 62
     7
100
AcDbLine
 10
28.102702
 20
12.849471
 30
0.0
 11
28.121567
 21
12.849471
 31
0.0
  0
LINE
  5
378
100
AcDbEntity
  8
0
370
    15
390
0
  6
Continuous
 62
     7
100
AcDbLine
 10
28.102702
 20
12.805921
 30
0.0
 11
28.102702
 21
12.849471
 31
0.0
  0
LINE
  5
379
100
AcDbEntity
  8
0
370
    15
390
0
  6
Continuous
 62
     7
100
AcDbLine
 10
28.043656
 20
12.805921
 30
0.0
 11
28.102702
 21
12.805921
 31
0.0
  0
LINE
  5
37A
100
AcDbEntity
  8
0
370
    15
390
0
  6
Continuous
 62
     7
100
AcDbLine
 10
28.043656
 20
12.869561
 30
0.0
 11
28.043656
 21
12.805921
 31
0.0
  0
LINE
  5
37B
100
AcDbEntity
  8
0
370
    15
390
0
  6
Continuous
 62
     7
100
AcDbLine
 10
28.063746
 20
12.869561
 30
0.0
 11
28.043656
 21
12.869561
 31
0.0
  0
LINE
  5
37C
100
AcDbEntity
  8
0
370
    15
390
0
  6
Continuous
 62
     7
100
AcDbLine
 10
28.063746
 20
12.826011
 30
0.0
 11
28.063746
 21
12.869561
 31
0.0
  0
LINE
  5
37D
100
AcDbEntity
  8
0
370
    15
390
0
  6
Continuous
 62
     7
100
AcDbLine
 10
28.082612
 20
12.826011
 30
0.0
 11
28.063746
 21
12.826011
 31
0.0
  0
LINE
  5
37E
100
AcDbEntity
  8
0
370
    15
390
0
  6
Continuous
 62
     7
100
AcDbLine
 10
28.082612
 20
12.869561
 30
0.0
 11
28.082612
 21
12.826011
 31
0.0
  0
LINE
  5
37F
100
AcDbEntity
  8
0
370
    15
390
0
  6
Continuous
 62
     7
100
AcDbLine
 10
28.141657
 20
12.869561
 30
0.0
 11
28.082612
 21
12.869561
 31
0.0
  0
LINE
  5
380
100
AcDbEntity
  8
0
370
    15
390
0
  6
Continuous
 62
     7
100
AcDbLine
 10
28.141657
 20
12.869561
 30
0.0
 11
28.141657
 21
12.805921
 31
0.0
  0
LINE
  5
381
100
AcDbEntity
  8
0
370
    15
390
0
  6
Continuous
 62
     7
100
AcDbLine
 10
28.043656
 20
13.128333
 30
0.0
 11
28.141657
 21
13.128333
 31
0.0
  0
LINE
  5
382
100
AcDbEntity
  8
0
370
    15
390
0
  6
Continuous
 62
     7
100
AcDbLine
 10
28.043656
 20
13.188603
 30
0.0
 11
28.043656
 21
13.128333
 31
0.0
  0
LINE
  5
383
100
AcDbEntity
  8
0
370
    15
390
0
  6
Continuous
 62
     7
100
AcDbLine
 10
28.103927
 20
13.188603
 30
0.0
 11
28.043656
 21
13.188603
 31
0.0
  0
LINE
  5
384
100
AcDbEntity
  8
0
370
    15
390
0
  6
Continuous
 62
     7
100
AcDbLine
 10
28.103927
 20
13.148423
 30
0.0
 11
28.103927
 21
13.188603
 31
0.0
  0
LINE
  5
385
100
AcDbEntity
  8
0
370
    15
390
0
  6
Continuous
 62
     7
100
AcDbLine
 10
28.121567
 20
13.148423
 30
0.0
 11
28.103927
 21
13.148423
 31
0.0
  0
LINE
  5
386
100
AcDbEntity
  8
0
370
    15
390
0
  6
Continuous
 62
     7
100
AcDbLine
 10
28.121567
 20
13.179715
 30
0.0
 11
28.121567
 21
13.148423
 31
0.0
  0
LINE
  5
387
100
AcDbEntity
  8
0
370
    15
390
0
  6
Continuous
 62
     7
100
AcDbLine
 10
28.141657
 20
13.179715
 30
0.0
 11
28.121567
 21
13.179715
 31
0.0
  0
LINE
  5
388
100
AcDbEntity
  8
0
370
    15
390
0
  6
Continuous
 62
     7
100
AcDbLine
 10
28.141657
 20
13.179715
 30
0.0
 11
28.141657
 21
13.128333
 31
0.0
  0
LINE
  5
389
100
AcDbEntity
  8
0
370
    15
390
0
  6
Continuous
 62
     7
100
AcDbLine
 10
28.063746
 20
13.148423
 30
0.0
 11
28.083837
 21
13.148423
 31
0.0
  0
LINE
  5
38A
100
AcDbEntity
  8
0
370
    15
390
0
  6
Continuous
 62
     7
100
AcDbLine
 10
28.063746
 20
13.168513
 30
0.0
 11
28.063746
 21
13.148423
 31
0.0
  0
LINE
  5
38B
100
AcDbEntity
  8
0
370
    15
390
0
  6
Continuous
 62
     7
100
AcDbLine
 10
28.083837
 20
13.168513
 30
0.0
 11
28.063746
 21
13.168513
 31
0.0
  0
LINE
  5
38C
100
AcDbEntity
  8
0
370
    15
390
0
  6
Continuous
 62
     7
100
AcDbLine
 10
28.083837
 20
13.168513
 30
0.0
 11
28.083837
 21
13.148423
 31
0.0
  0
HATCH
  5
38D
100
AcDbEntity
  8
0
370
    15
390
0
  6
Continuous
 62
   174
100
AcDbHatch
 10
0.0
 20
0.0
 30
0.0
210
0.0
220
0.0
230
1.0
  2
SOLID
 70
     1
 71
     0
 91
        4
 92
        1
 93
        1
 72
     2
 10
28.09365749755856
 20
13.712750418628222
 40
0.1560001373291016
 50
0.0
 51
359.999994
 73
     1
 97
        0
 92
        1
 93
       12
 72
     1
 10
28.126160625610318
 20
13.771643622363573
 11
28.153393749389615
 21
13.771643622363573
 72
     1
 10
28.153393749389615
 20
13.771643622363573
 11
28.153393749389615
 21
13.845719321216112
 72
     1
 10
28.153393749389615
 20
13.845719321216112
 11
28.079715732727017
 21
13.845719321216112
 72
     1
 10
28.079715732727017
 20
13.845719321216112
 11
28.079715732727017
 21
13.799143774951464
 72
     1
 10
28.079715732727017
 20
13.799143774951464
 11
28.061440471801724
 21
13.799143774951464
 72
     1
 10
28.061440471801724
 20
13.799143774951464
 11
28.061440471801724
 21
13.845719321216112
 72
     1
 10
28.061440471801724
 20
13.845719321216112
 11
28.033919338378873
 21
13.845719321216112
 72
     1
 10
28.033919338378873
 20
13.845719321216112
 11
28.033919338378873
 21
13.771643622363573
 72
     1
 10
28.033919338378873
 20
13.771643622363573
 11
28.107407573852505
 21
13.771643622363573
 72
     1
 10
28.107407573852505
 20
13.771643622363573
 11
28.107407573852505
 21
13.818219168628222
 72
     1
 10
28.107407573852505
 20
13.818219168628222
 11
28.126160625610318
 21
13.818219168628222
 72
     1
 10
28.126160625610318
 20
13.818219168628222
 11
28.126160625610318
 21
13.771643622363573
 97
        0
 92
        1
 93
        8
 72
     1
 10
28.153393749389615
 20
13.675713522876269
 11
28.153393749389615
 21
13.703566534961229
 72
     1
 10
28.153393749389615
 20
13.703566534961229
 11
28.061419490966763
 21
13.703566534961229
 72
     1
 10
28.061419490966763
 20
13.703566534961229
 11
28.061419490966763
 21
13.722329123462206
 72
     1
 10
28.061419490966763
 20
13.722329123462206
 11
28.153393749389615
 21
13.722329123462206
 72
     1
 10
28.153393749389615
 20
13.722329123462206
 11
28.153393749389615
 21
13.749789221728808
 72
     1
 10
28.153393749389615
 20
13.749789221728808
 11
28.033919338378873
 21
13.749789221728808
 72
     1
 10
28.033919338378873
 20
13.749789221728808
 11
28.033919338378873
 21
13.675713522876269
 72
     1
 10
28.033919338378873
 20
13.675713522876269
 11
28.153393749389615
 21
13.675713522876269
 97
        0
 92
        1
 93
        8
 72
     1
 10
28.033919338378873
 20
13.624924643481737
 11
28.033919338378873
 21
13.652777655566698
 72
     1
 10
28.033919338378873
 20
13.652777655566698
 11
28.153393749389615
 21
13.652777655566698
 72
     1
 10
28.153393749389615
 20
13.652777655566698
 11
28.153393749389615
 21
13.578701956714159
 72
     1
 10
28.153393749389615
 20
13.578701956714159
 11
28.033919338378873
 21
13.578701956714159
 72
     1
 10
28.033919338378873
 20
13.578701956714159
 11
28.033919338378873
 21
13.606162054980761
 72
     1
 10
28.033919338378873
 20
13.606162054980761
 11
28.125893596801724
 21
13.606162054980761
 72
     1
 10
28.125893596801724
 20
13.606162054980761
 11
28.125893596801724
 21
13.624924643481737
 72
     1
 10
28.125893596801724
 20
13.624924643481737
 11
28.033919338378873
 21
13.624924643481737
 97
        0
 75
     0
 76
     1
 98
        1
 10
0.0
 20
0.0
  0
HATCH
  5
38E
100
AcDbEntity
  8
0
370
    15
390
0
  6
Continuous
 62
   174
100
AcDbHatch
 10
0.0
 20
0.0
 30
0.0
210
0.0
220
0.0
230
1.0
  2
SOLID
 70
     1
 71
     0
 91
        4
 92
        1
 93
       10
 72
     1
 10
28.141656879577603
 20
13.470622046435839
 11
28.174998287353482
 21
13.470622046435839
 72
     1
 10
28.174998287353482
 20
13.470622046435839
 11
28.174998287353482
 21
13.490712149585253
 72
     1
 10
28.174998287353482
 20
13.490712149585253
 11
28.04365635314938
 21
13.490712149585253
 72
     1
 10
28.04365635314938
 20
13.490712149585253
 11
28.04365635314938
 21
13.470622046435839
 72
     1
 10
28.04365635314938
 20
13.470622046435839
 11
28.121566776428189
 21
13.470622046435839
 72
     1
 10
28.121566776428189
 20
13.470622046435839
 11
28.121566776428189
 21
13.450531943286425
 72
     1
 10
28.121566776428189
 20
13.450531943286425
 11
28.04365635314938
 21
13.450531943286425
 72
     1
 10
28.04365635314938
 20
13.450531943286425
 11
28.04365635314938
 21
13.430441840137011
 72
     1
 10
28.04365635314938
 20
13.430441840137011
 11
28.141656879577603
 21
13.430441840137011
 72
     1
 10
28.141656879577603
 20
13.430441840137011
 11
28.141656879577603
 21
13.470622046435839
 97
        0
 92
        1
 93
       12
 72
     1
 10
28.063746456298794
 20
13.390261633838183
 11
28.141656879577603
 21
13.390261633838183
 72
     1
 10
28.141656879577603
 20
13.390261633838183
 11
28.141656879577603
 21
13.410351736987597
 72
     1
 10
28.141656879577603
 20
13.410351736987597
 11
28.04365635314938
 21
13.410351736987597
 72
     1
 10
28.04365635314938
 20
13.410351736987597
 11
28.04365635314938
 21
13.370171530688769
 72
     1
 10
28.04365635314938
 20
13.370171530688769
 11
28.023566249999966
 21
13.370171530688769
 72
     1
 10
28.023566249999966
 20
13.370171530688769
 11
28.023566249999966
 21
13.389040930713183
 72
     1
 10
28.023566249999966
 20
13.389040930713183
 11
28.003476146850552
 21
13.389040930713183
 72
     1
 10
28.003476146850552
 20
13.389040930713183
 11
28.00382709899899
 21
13.350081427539354
 72
     1
 10
28.00382709899899
 20
13.350081427539354
 11
28.141656879577603
 21
13.350081427539354
 72
     1
 10
28.141656879577603
 20
13.350081427539354
 11
28.141656879577603
 21
13.370171530688769
 72
     1
 10
28.141656879577603
 20
13.370171530688769
 11
28.063746456298794
 21
13.370171530688769
 72
     1
 10
28.063746456298794
 20
13.370171530688769
 11
28.063746456298794
 21
13.390261633838183
 97
        0
 92
        1
 93
        6
 72
     1
 10
28.174998287353482
 20
13.289053900683886
 11
28.141656879577603
 21
13.289053900683886
 72
     1
 10
28.141656879577603
 20
13.289053900683886
 11
28.141656879577603
 21
13.329234106982714
 72
     1
 10
28.141656879577603
 20
13.329234106982714
 11
28.04365635314938
 21
13.329234106982714
 72
     1
 10
28.04365635314938
 20
13.329234106982714
 11
28.04365635314938
 21
13.268961890185839
 72
     1
 10
28.04365635314938
 20
13.268961890185839
 11
28.174998287353482
 21
13.268961890185839
 72
     1
 10
28.174998287353482
 20
13.268961890185839
 11
28.174998287353482
 21
13.289053900683886
 97
        0
 92
        1
 93
        4
 72
     1
 10
28.121566776428189
 20
13.289053900683886
 11
28.063746456298794
 21
13.289053900683886
 72
     1
 10
28.063746456298794
 20
13.289053900683886
 11
28.063746456298794
 21
13.309142096484667
 72
     1
 10
28.063746456298794
 20
13.309142096484667
 11
28.121566776428189
 21
13.309142096484667
 72
     1
 10
28.121566776428189
 20
13.309142096484667
 11
28.121566776428189
 21
13.289053900683886
 97
        0
 75
     0
 76
     1
 98
        1
 10
0.0
 20
0.0
  0
HATCH
  5
38F
100
AcDbEntity
  8
0
370
    15
390
0
  6
Continuous
 62
   174
100
AcDbHatch
 10
0.0
 20
0.0
 30
0.0
210
0.0
220
0.0
230
1.0
  2
SOLID
 70
     1
 71
     0
 91
        8
 92
        1
 93
        6
 72
     1
 10
28.121566776428189
 20
13.208693488086229
 11
28.141656879577603
 21
13.208693488086229
 72
     1
 10
28.141656879577603
 20
13.208693488086229
 11
28.141656879577603
 21
13.248873694385058
 72
     1
 10
28.141656879577603
 20
13.248873694385058
 11
28.04365635314938
 21
13.248873694385058
 72
     1
 10
28.04365635314938
 20
13.248873694385058
 11
28.04365635314938
 21
13.228783591235644
 72
     1
 10
28.04365635314938
 20
13.228783591235644
 11
28.121566776428189
 21
13.228783591235644
 72
     1
 10
28.121566776428189
 20
13.228783591235644
 11
28.121566776428189
 21
13.208693488086229
 97
        0
 92
        1
 93
        8
 72
     1
 10
28.063746456298794
 20
13.088152869189745
 11
28.141656879577603
 21
13.088152869189745
 72
     1
 10
28.141656879577603
 20
13.088152869189745
 11
28.141656879577603
 21
13.108242972339159
 72
     1
 10
28.141656879577603
 20
13.108242972339159
 11
28.04365635314938
 21
13.108242972339159
 72
     1
 10
28.04365635314938
 20
13.108242972339159
 11
28.04365635314938
 21
13.047972662890917
 72
     1
 10
28.04365635314938
 20
13.047972662890917
 11
28.141656879577603
 21
13.047972662890917
 72
     1
 10
28.141656879577603
 20
13.047972662890917
 11
28.141656879577603
 21
13.068062766040331
 72
     1
 10
28.141656879577603
 20
13.068062766040331
 11
28.063746456298794
 21
13.068062766040331
 72
     1
 10
28.063746456298794
 20
13.068062766040331
 11
28.063746456298794
 21
13.088152869189745
 97
        0
 92
        1
 93
        4
 72
     1
 10
28.04365635314938
 20
13.007792456592089
 11
28.174998287353482
 21
13.007792456592089
 72
     1
 10
28.174998287353482
 20
13.007792456592089
 11
28.174998287353482
 21
13.027882559741503
 72
     1
 10
28.174998287353482
 20
13.027882559741503
 11
28.04365635314938
 21
13.027882559741503
 72
     1
 10
28.04365635314938
 20
13.027882559741503
 11
28.04365635314938
 21
13.007792456592089
 97
        0
 92
        1
 93
        4
 72
     1
 10
28.154908184204068
 20
12.967612250293261
 11
28.174998287353482
 21
12.967612250293261
 72
     1
 10
28.174998287353482
 20
12.967612250293261
 11
28.174998287353482
 21
12.987702353442675
 72
     1
 10
28.174998287353482
 20
12.987702353442675
 11
28.154908184204068
 21
12.987702353442675
 72
     1
 10
28.154908184204068
 20
12.987702353442675
 11
28.154908184204068
 21
12.967612250293261
 97
        0
 92
        1
 93
        4
 72
     1
 10
28.04365635314938
 20
12.967612250293261
 11
28.141656879577603
 21
12.967612250293261
 72
     1
 10
28.141656879577603
 20
12.967612250293261
 11
28.141656879577603
 21
12.987702353442675
 72
     1
 10
28.141656879577603
 20
12.987702353442675
 11
28.04365635314938
 21
12.987702353442675
 72
     1
 10
28.04365635314938
 20
12.987702353442675
 11
28.04365635314938
 21
12.967612250293261
 97
        0
 92
        1
 93
        8
 72
     1
 10
28.121566776428189
 20
12.889651282275683
 11
28.141656879577603
 21
12.889651282275683
 72
     1
 10
28.141656879577603
 20
12.889651282275683
 11
28.141656879577603
 21
12.947522147143847
 72
     1
 10
28.141656879577603
 20
12.947522147143847
 11
28.04365635314938
 21
12.947522147143847
 72
     1
 10
28.04365635314938
 20
12.947522147143847
 11
28.04365635314938
 21
12.889651282275683
 72
     1
 10
28.04365635314938
 20
12.889651282275683
 11
28.063746456298794
 21
12.889651282275683
 72
     1
 10
28.063746456298794
 20
12.889651282275683
 11
28.063746456298794
 21
12.927432043994433
 72
     1
 10
28.063746456298794
 20
12.927432043994433
 11
28.121566776428189
 21
12.927432043994433
 72
     1
 10
28.121566776428189
 20
12.927432043994433
 11
28.121566776428189
 21
12.889651282275683
 97
        0
 92
        1
 93
        8
 72
     1
 10
28.04365635314938
 20
13.128333075488573
 11
28.141656879577603
 21
13.128333075488573
 72
     1
 10
28.141656879577603
 20
13.128333075488573
 11
28.141656879577603
 21
13.179715140307909
 72
     1
 10
28.141656879577603
 20
13.179715140307909
 11
28.121566776428189
 21
13.179715140307909
 72
     1
 10
28.121566776428189
 20
13.179715140307909
 11
28.121566776428189
 21
13.148423178637987
 72
     1
 10
28.121566776428189
 20
13.148423178637987
 11
28.103926662597623
 21
13.148423178637987
 72
     1
 10
28.103926662597623
 20
13.148423178637987
 11
28.103926662597623
 21
13.188603384936815
 72
     1
 10
28.103926662597623
 20
13.188603384936815
 11
28.04365635314938
 21
13.188603384936815
 72
     1
 10
28.04365635314938
 20
13.188603384936815
 11
28.04365635314938
 21
13.128333075488573
 97
        0
 92
        1
 93
        4
 72
     1
 10
28.063746456298794
 20
13.148423178637987
 11
28.083836559448208
 21
13.148423178637987
 72
     1
 10
28.083836559448208
 20
13.148423178637987
 11
28.083836559448208
 21
13.168513281787401
 72
     1
 10
28.083836559448208
 20
13.168513281787401
 11
28.063746456298794
 21
13.168513281787401
 72
     1
 10
28.063746456298794
 20
13.168513281787401
 11
28.063746456298794
 21
13.148423178637987
 97
        0
 75
     0
 76
     1
 98
        1
 10
0.0
 20
0.0
  0
HATCH
  5
390
100
AcDbEntity
  8
0
370
    15
390
0
  6
Continuous
 62
   174
100
AcDbHatch
 10
0.0
 20
0.0
 30
0.0
210
0.0
220
0.0
230
1.0
  2
SOLID
 70
     1
 71
     0
 91
        1
 92
        1
 93
       12
 72
     1
 10
28.121566776428189
 20
12.805920584643847
 11
28.141656879577603
 21
12.805920584643847
 72
     1
 10
28.141656879577603
 20
12.805920584643847
 11
28.141656879577603
 21
12.869561179126269
 72
     1
 10
28.141656879577603
 20
12.869561179126269
 11
28.082612041625943
 21
12.869561179126269
 72
     1
 10
28.082612041625943
 20
12.869561179126269
 11
28.082612041625943
 21
12.826010687793261
 72
     1
 10
28.082612041625943
 20
12.826010687793261
 11
28.063746456298794
 21
12.826010687793261
 72
     1
 10
28.063746456298794
 20
12.826010687793261
 11
28.063746456298794
 21
12.869561179126269
 72
     1
 10
28.063746456298794
 20
12.869561179126269
 11
28.04365635314938
 21
12.869561179126269
 72
     1
 10
28.04365635314938
 20
12.869561179126269
 11
28.04365635314938
 21
12.805920584643847
 72
     1
 10
28.04365635314938
 20
12.805920584643847
 11
28.102702144775357
 21
12.805920584643847
 72
     1
 10
28.102702144775357
 20
12.805920584643847
 11
28.102702144775357
 21
12.849471075976854
 72
     1
 10
28.102702144775357
 20
12.849471075976854
 11
28.121566776428189
 21
12.849471075976854
 72
     1
 10
28.121566776428189
 20
12.849471075976854
 11
28.121566776428189
 21
12.805920584643847
 97
        0
 75
     0
 76
     1
 98
        1
 10
0.0
 20
0.0
  0
TEXT
  5
391
100
AcDbEntity
  8
0
370
    15
390
0
  6
Continuous
 62
     7
100
AcDbText
 10
28.171108
 20
12.823863
 30
0.0
 40
0.02303
  1
R
 50
270.0
 41
1.125
  7
Vcadd_SIMP
100
AcDbText
  0
TEXT
  5
392
100
AcDbEntity
  8
0
370
    15
390
0
  6
Continuous
 62
     7
100
AcDbText
 10
27.994449
 20
13.144237
 30
0.0
 40
0.031
  1
CORPORATION
 50
270.0
  7
Vcadd_SIMP
100
AcDbText
  0
TEXT
  5
393
100
AcDbEntity
  8
0
370
    15
390
0
  6
Continuous
 62
     7
100
AcDbText
 10
27.948625
 20
13.528395
 30
0.0
 40
0.031
  1
1500 WEST UNIVERSITY PKWY
 50
270.0
  7
Vcadd_SIMP
100
AcDbText
  0
TEXT
  5
394
100
AcDbEntity
  8
0
370
    15
390
0
  6
Continuous
 62
     7
100
AcDbText
 10
27.902125
 20
13.528395
 30
0.0
 40
0.031
  1
SARASOTA, FLORIDA 34243, USA
 50
270.0
  7
Vcadd_SIMP
100
AcDbText
  0
TEXT
  5
395
100
AcDbEntity
  8
0
370
    15
390
0
  6
Continuous
 62
     7
100
AcDbText
 10
27.855625
 20
13.528395
 30
0.0
 40
0.031
  1
TELEPHONE (941) 355-2983
 50
270.0
  7
Vcadd_SIMP
100
AcDbText
  0
TEXT
  5
396
100
AcDbEntity
  8
4
370
    15
390
0
  6
Continuous
 62
     7
100
AcDbText
 10
28.312623
 20
15.420782
 30
0.0
 40
0.06
  1
Abmessungen,Werkzeuge,Anschlόsse
 50
270.0
  7
Vcadd_SIMP
100
AcDbText
  0
TEXT
  5
397
100
AcDbEntity
  8
4
370
    15
390
0
  6
Continuous
 62
     7
100
AcDbText
 10
28.405947
 20
15.282427
 30
0.0
 40
0.07
  1
T-22A Einschraubbohrung
 50
270.0
  7
Vcadd_SIMP
100
AcDbText
  0
TEXT
  5
398
100
AcDbEntity
  8
0
370
    15
390
0
  6
Continuous
 62
     7
100
AcDbText
 10
28.106825
 20
13.070994
 30
0.0
 40
0.055
  1
T-22A Metrisch
 50
270.0
  7
Vcadd_SIMP
 72
     1
 11
28.40934
 21
13.070994
 31
0.0
100
AcDbText
  0
TEXT
  5
399
100
AcDbEntity
  8
0
370
    15
390
0
  6
Continuous
 62
     7
100
AcDbText
 10
28.064483
 20
13.070994
 30
0.0
 40
0.055
  1
Blatt 3 von 3
 50
270.0
  7
Vcadd_SIMP
 72
     1
 11
28.33784
 21
13.070994
 31
0.0
100
AcDbText
  0
TEXT
  5
39A
100
AcDbEntity
  8
4
370
    15
390
0
  6
Continuous
 62
     7
100
AcDbText
 10
30.266972
 20
13.80598
 30
0.0
 40
0.066
  1
38,10
  7
Vcadd_SIMP
100
AcDbText
  0
TEXT
  5
39B
100
AcDbEntity
  8
4
370
    15
390
0
  6
Continuous
 62
     7
100
AcDbText
 10
30.266972
 20
13.70698
 30
0.0
 40
0.066
  1
43,66
  7
Vcadd_SIMP
100
AcDbText
  0
TEXT
  5
39C
100
AcDbEntity
  8
4
370
    15
390
0
  6
Continuous
 62
     7
100
AcDbText
 10
30.266972
 20
13.60798
 30
0.0
 40
0.066
  1
19,46
  7
Vcadd_SIMP
100
AcDbText
  0
TEXT
  5
39D
100
AcDbEntity
  8
4
370
    15
390
0
  6
Continuous
 62
     7
100
AcDbText
 10
30.266972
 20
13.50898
 30
0.0
 40
0.066
  1
34,92
  7
Vcadd_SIMP
100
AcDbText
  0
TEXT
  5
39E
100
AcDbEntity
  8
4
370
    15
390
0
  6
Continuous
 62
     7
100
AcDbText
 10
30.281623
 20
13.95915
 30
0.0
 40
0.066
  1
Freiraum fόr Sechskant-Steckschlόssel
  7
Vcadd_SIMP
100
AcDbText
  0
TEXT
  5
39F
100
AcDbEntity
  8
4
370
    15
390
0
  6
Continuous
 62
     7
100
AcDbText
 10
30.268303
 20
12.809929
 30
0.0
 40
0.066
  1
Alle O-Ring-Einfόhrungsschrδgen mόssen
  7
Vcadd_SIMP
100
AcDbText
  0
TEXT
  5
3A0
100
AcDbEntity
  8
4
370
    15
390
0
  6
Continuous
 62
     7
100
AcDbText
 10
30.268303
 20
12.710929
 30
0.0
 40
0.066
  1
glatt und frei von Kerben und Kanten sein.
  7
Vcadd_SIMP
100
AcDbText
  0
TEXT
  5
3A1
100
AcDbEntity
  8
4
370
    15
390
0
  6
Continuous
 62
     7
100
AcDbText
 10
30.084854
 20
13.951493
 30
0.0
 40
0.066
  1
*
  7
Vcadd_SIMP
100
AcDbText
  0
TEXT
  5
3A2
100
AcDbEntity
  8
4
370
    15
390
0
  6
Continuous
 62
     7
100
AcDbText
 10
30.084854
 20
12.809972
 30
0.0
 40
0.066
  1
**
  7
Vcadd_SIMP
100
AcDbText
  0
TEXT
  5
3A3
100
AcDbEntity
  8
4
370
    15
390
0
  6
Continuous
 62
     7
100
AcDbText
 10
32.053934
 20
15.337477
 30
0.0
 40
0.05
  1
Min. Tiefe von
  7
Vcadd_SIMP
100
AcDbText
  0
TEXT
  5
3A4
100
AcDbEntity
  8
4
370
    15
390
0
  6
Continuous
 62
     7
100
AcDbText
 10
32.053934
 20
15.262477
 30
0.0
 40
0.05
  1
17,48 %%c (Ventil-
  7
Vcadd_SIMP
100
AcDbText
  0
TEXT
  5
3A5
100
AcDbEntity
  8
4
370
    15
390
0
  6
Continuous
 62
     7
100
AcDbText
 10
32.053934
 20
15.187477
 30
0.0
 40
0.05
  1
arbeitsbereich)
  7
Vcadd_SIMP
100
AcDbText
  0
LINE
  5
3A6
100
AcDbEntity
  8
4
370
    15
390
0
  6
Continuous
 62
     7
100
AcDbLine
 10
30.027915
 20
16.331811
 30
0.0
 11
30.0642
 21
16.394658
 31
0.0
  0
LINE
  5
3A7
100
AcDbEntity
  8
4
370
    15
390
0
  6
Continuous
 62
     7
100
AcDbLine
 10
30.100484
 20
16.331811
 30
0.0
 11
30.0642
 21
16.394658
 31
0.0
  0
LINE
  5
3A8
100
AcDbEntity
  8
4
370
    15
390
0
  6
Continuous
 62
     7
100
AcDbLine
 10
30.027915
 20
16.331811
 30
0.0
 11
30.100484
 21
16.331811
 31
0.0
  0
LINE
  5
3A9
100
AcDbEntity
  8
3
370
    15
390
0
  6
Continuous
 62
     1
100
AcDbLine
 10
30.136741
 20
16.213137
 30
0.0
 11
29.9973
 21
16.213137
 31
0.0
  0
LINE
  5
3AA
100
AcDbEntity
  8
4
370
    15
390
0
  6
Continuous
 62
     1
100
AcDbLine
 10
30.031556
 20
16.418895
 30
0.0
 11
29.9973
 21
16.213137
 31
0.0
  0
LINE
  5
3AB
100
AcDbEntity
  8
3
370
    15
390
0
  6
Continuous
 62
     1
100
AcDbLine
 10
30.031556
 20
16.418895
 30
0.0
 11
28.910661
 21
16.418895
 31
0.0
  0
TEXT
  5
3AC
100
AcDbEntity
  8
4
370
    15
390
0
  6
Continuous
 62
     7
100
AcDbText
 10
28.917719
 20
16.440845
 30
0.0
 40
0.06
  1
Min. Abstand fόr Bereich mit
  7
Vcadd_SIMP
100
AcDbText
  0
TEXT
  5
3AD
100
AcDbEntity
  8
4
370
    15
390
0
  6
Continuous
 62
     7
100
AcDbText
 10
28.917719
 20
16.350845
 30
0.0
 40
0.06
  1
vollstδndigen Gewindegδngen
  7
Vcadd_SIMP
100
AcDbText
  0
TEXT
  5
3AE
100
AcDbEntity
  8
0
370
    15
390
0
  6
Continuous
 62
     7
100
AcDbText
 10
28.326288
 20
13.921125
 30
0.0
 40
0.062
  1
E
 50
270.0
  7
Vcadd_SIMP
100
AcDbText
  0
TEXT
  5
3AF
100
AcDbEntity
  8
0
370
    15
390
0
  6
Continuous
 62
     7
100
AcDbText
 10
32.662353
 20
13.920979
 30
0.0
 40
0.062
  1
E
 50
270.0
  7
Vcadd_SIMP
100
AcDbText
  0
LINE
  5
3B0
100
AcDbEntity
  8
1
370
     0
390
0
  6
Continuous
 62
     1
100
AcDbLine
 10
31.461514
 20
19.134824
 30
0.0
 11
31.414923
 21
19.118544
 31
0.0
  0
LINE
  5
3B1
100
AcDbEntity
  8
1
370
     0
390
0
  6
Continuous
 62
     1
100
AcDbLine
 10
31.519799
 20
19.160715
 30
0.0
 11
31.461514
 21
19.134824
 31
0.0
  0
LINE
  5
3B2
100
AcDbEntity
  8
1
370
    15
390
0
  6
Continuous
 62
     1
100
AcDbLine
 10
31.526662
 20
19.131746
 30
0.0
 11
31.520201
 21
19.160804
 31
0.0
  0
LINE
  5
3B3
100
AcDbEntity
  8
1
370
    15
390
0
  6
CL____X1
 62
     1
100
AcDbLine
 10
31.414922
 20
18.557137
 30
0.0
 11
31.414922
 21
19.118544
 31
0.0
  0
TEXT
  5
3B4
100
AcDbEntity
  8
4
370
    15
390
0
  6
Continuous
 62
     7
100
AcDbText
 10
30.72023
 20
19.522707
 30
0.0
 40
0.06
  1
Formbohrer
  7
Vcadd_SIMP
100
AcDbText
  0
TEXT
  5
3B5
100
AcDbEntity
  8
4
370
    15
390
0
  6
Continuous
 62
     7
100
AcDbText
 10
30.72023
 20
19.432707
 30
0.0
 40
0.06
  1
994-022-***
  7
Vcadd_SIMP
100
AcDbText
  0
LINE
  5
3B6
100
AcDbEntity
  8
0
370
     0
390
0
  6
Continuous
 62
     7
100
AcDbLine
 10
28.091809
 20
15.631686
 30
0.0
 11
28.091809
 21
15.605398
 31
0.0
  0
LINE
  5
3B7
100
AcDbEntity
  8
0
370
     0
390
0
  6
Continuous
 62
     7
100
AcDbLine
 10
28.109397
 20
15.631686
 30
0.0
 11
28.109397
 21
15.605398
 31
0.0
  0
LINE
  5
3B8
100
AcDbEntity
  8
0
370
     0
390
0
  6
Continuous
 62
     7
100
AcDbLine
 10
28.117214
 20
15.618542
 30
0.0
 11
28.101581
 21
15.618542
 31
0.0
  0
LINE
  5
3B9
100
AcDbEntity
  8
0
370
     0
390
0
  6
Continuous
 62
     7
100
AcDbLine
 10
28.125031
 20
15.558457
 30
0.0
 11
28.091809
 21
15.580989
 31
0.0
  0
LINE
  5
3BA
100
AcDbEntity
  8
0
370
    15
390
0
  6
Continuous
 62
     7
100
AcDbLine
 10
28.057909
 20
15.61815
 30
0.0
 11
28.060822
 21
15.612863
 31
0.0
  0
LINE
  5
3BB
100
AcDbEntity
  8
0
370
    15
390
0
  6
Continuous
 62
     7
100
AcDbLine
 10
28.060822
 20
15.612863
 30
0.0
 11
28.040109
 21
15.596382
 31
0.0
  0
LINE
  5
3BC
100
AcDbEntity
  8
0
370
    15
390
0
  6
Continuous
 62
     7
100
AcDbLine
 10
28.040109
 20
15.596382
 30
0.0
 11
28.070531
 21
15.56342
 31
0.0
  0
TEXT
  5
3BD
100
AcDbEntity
  8
0
370
     0
390
0
  6
Continuous
 62
     7
100
AcDbText
 10
27.894877
 20
15.952762
 30
0.0
 40
0.031
  1
REMOVE ALL
 50
270.0
 41
1.25
  7
Vcadd_SIMP
100
AcDbText
  0
TEXT
  5
3BE
100
AcDbEntity
  8
0
370
     0
390
0
  6
Continuous
 62
     7
100
AcDbText
 10
27.842653
 20
15.870808
 30
0.0
 40
0.031
  1
BURRS
 50
270.0
 41
1.25
  7
Vcadd_SIMP
100
AcDbText
  0
TEXT
  5
3BF
100
AcDbEntity
  8
0
370
     0
390
0
  6
Continuous
 62
     7
100
AcDbText
 10
28.011479
 20
15.772897
 30
0.0
 40
0.0275
  1
DIM. TOLERANCE
 50
270.0
 41
1.1725
  7
Vcadd_SIMP
 72
     1
 11
28.271041
 21
15.772897
 31
0.0
100
AcDbText
  0
TEXT
  5
3C0
100
AcDbEntity
  8
0
370
     0
390
0
  6
Continuous
 62
     7
100
AcDbText
 10
28.03135
 20
15.772897
 30
0.0
 40
0.0275
  1
+\- 0,13 mm
 50
270.0
 41
1.1725
  7
Vcadd_SIMP
 72
     1
 11
28.235291
 21
15.772897
 31
0.0
100
AcDbText
  0
TEXT
  5
3C1
100
AcDbEntity
  8
0
370
     0
390
0
  6
Continuous
 62
     7
100
AcDbText
 10
28.0883
 20
15.772897
 30
0.0
 40
0.0275
  1
UNLESS
 50
270.0
 41
1.1725
  7
Vcadd_SIMP
 72
     1
 11
28.199541
 21
15.772897
 31
0.0
100
AcDbText
  0
TEXT
  5
3C2
100
AcDbEntity
  8
0
370
     0
390
0
  6
Continuous
 62
     7
100
AcDbText
 10
27.99693
 20
15.772897
 30
0.0
 40
0.0275
  1
SPECIFIED
 50
270.0
 41
1.1725
  7
Vcadd_SIMP
 72
     1
 11
28.163791
 21
15.772897
 31
0.0
100
AcDbText
  0
TEXT
  5
3C3
100
AcDbEntity
  8
0
370
     0
390
0
  6
Continuous
 62
     7
100
AcDbText
 10
28.091576
 20
15.989187
 30
0.0
 40
0.031
  1
ANGLE TOL
 50
270.0
 41
1.25
  7
Vcadd_SIMP
100
AcDbText
  0
TEXT
  5
3C4
100
AcDbEntity
  8
0
370
     0
390
0
  6
Continuous
 62
     7
100
AcDbText
 10
28.109397
 20
15.586621
 30
0.0
 40
0.015981
  1
1 
 50
270.0
 41
1.25
  7
Vcadd_SIMP
100
AcDbText
  0
TEXT
  5
3C5
100
AcDbEntity
  8
0
370
     0
390
0
  6
Continuous
 62
     7
100
AcDbText
 10
28.089421
 20
15.566646
 30
0.0
 40
0.015981
  1
2
 50
270.0
 41
1.25
  7
Vcadd_SIMP
100
AcDbText
  0
TEXT
  5
3C6
100
AcDbEntity
  8
0
370
     0
390
0
  6
Continuous
 62
     7
100
AcDbText
 10
28.039519
 20
15.972796
 30
0.0
 40
0.031
  1
FINISH
 50
270.0
 41
1.25
  7
Vcadd_SIMP
100
AcDbText
  0
TEXT
  5
3C7
100
AcDbEntity
  8
0
370
     0
390
0
  6
Continuous
 62
     7
100
AcDbText
 10
27.862099
 20
15.771192
 30
0.0
 40
0.031
  1
UNLESS
 50
270.0
 41
1.25
  7
Vcadd_SIMP
 72
     1
 11
27.995786
 21
15.771192
 31
0.0
100
AcDbText
  0
TEXT
  5
3C8
100
AcDbEntity
  8
0
370
     0
390
0
  6
Continuous
 62
     7
100
AcDbText
 10
27.754955
 20
15.771192
 30
0.0
 40
0.031
  1
SPECIFIED
 50
270.0
 41
1.25
  7
Vcadd_SIMP
 72
     1
 11
27.955486
 21
15.771192
 31
0.0
100
AcDbText
  0
TEXT
  5
3C9
100
AcDbEntity
  8
0
370
     0
390
0
  6
Continuous
 62
     7
100
AcDbText
 10
28.039519
 20
15.708708
 30
0.0
 40
0.031
  1
2,0
 50
270.0
 41
1.25
  7
Vcadd_SIMP
100
AcDbText
  0
TEXT
  5
3CA
100
AcDbEntity
  8
4
370
    15
390
0
  6
Continuous
 62
     7
100
AcDbText
 10
28.919734
 20
17.088911
 30
0.0
 40
0.071
  1
26,75
  7
Vcadd_SIMP
100
AcDbText
  0
LINE
  5
3CB
100
AcDbEntity
  8
0
370
    15
390
0
  6
Continuous
 62
     7
100
AcDbLine
 10
27.976232
 20
16.645383
 30
0.0
 11
27.976232
 21
17.832882
 31
0.0
  0
LINE
  5
3CC
100
AcDbEntity
  8
0
370
    15
390
0
  6
Continuous
 62
     7
100
AcDbLine
 10
28.054232
 20
16.645383
 30
0.0
 11
28.054232
 21
17.832882
 31
0.0
  0
LINE
  5
3CD
100
AcDbEntity
  8
0
370
    15
390
0
  6
Continuous
 62
     7
100
AcDbLine
 10
28.210232
 20
16.645383
 30
0.0
 11
28.210232
 21
17.832882
 31
0.0
  0
LINE
  5
3CE
100
AcDbEntity
  8
0
370
    15
390
0
  6
Continuous
 62
     7
100
AcDbLine
 10
28.288232
 20
16.645383
 30
0.0
 11
28.288232
 21
17.832882
 31
0.0
  0
LINE
  5
3CF
100
AcDbEntity
  8
0
370
    15
390
0
  6
Continuous
 62
     7
100
AcDbLine
 10
28.366232
 20
16.645383
 30
0.0
 11
28.366232
 21
17.832882
 31
0.0
  0
LINE
  5
3D0
100
AcDbEntity
  8
0
370
    15
390
0
  6
Continuous
 62
     7
100
AcDbLine
 10
28.444232
 20
16.645383
 30
0.0
 11
28.444232
 21
17.832882
 31
0.0
  0
TEXT
  5
3D1
100
AcDbEntity
  8
0
370
     0
390
0
  6
Continuous
 62
     7
100
AcDbText
 10
28.07737
 20
17.813747
 30
0.0
 40
0.032922
  1
REVISED TOOLING P/N. REVISED DIMS FOR
 50
270.0
 41
0.9
  7
Vcadd_SIMP
100
AcDbText
  0
TEXT
  5
3D2
100
AcDbEntity
  8
0
370
     0
390
0
  6
Continuous
 62
     7
100
AcDbText
 10
27.99937
 20
17.813747
 30
0.0
 40
0.032922
  1
CAVITY / TOOLING CONSISTENCY.
 50
270.0
 41
0.9
  7
Vcadd_SIMP
100
AcDbText
  0
TEXT
  5
3D3
100
AcDbEntity
  8
0
370
     0
390
0
  6
Continuous
 62
     7
100
AcDbText
 10
27.92137
 20
17.813747
 30
0.0
 40
0.032922
  1
ADDED METRIC TOL. BLOCK TO SHEETS 2&3
 50
270.0
 41
0.9
  7
Vcadd_SIMP
100
AcDbText
  0
TEXT
  5
3D4
100
AcDbEntity
  8
0
370
     0
390
0
  6
Continuous
 62
     7
100
AcDbText
 10
28.05843
 20
17.895382
 30
0.0
 40
0.032922
  1
E
 50
270.0
  7
Vcadd_SIMP
 72
     1
 11
28.077361
 21
17.895382
 31
0.0
100
AcDbText
  0
TEXT
  5
3D5
100
AcDbEntity
  8
0
370
     0
390
0
  6
Continuous
 62
     7
100
AcDbText
 10
27.943845
 20
16.520383
 30
0.0
 40
0.032922
  1
05MAY11
 50
270.0
  7
Vcadd_SIMP
 72
     1
 11
28.076356
 21
16.520383
 31
0.0
100
AcDbText
  0
TEXT
  5
3D6
100
AcDbEntity
  8
0
370
     0
390
0
  6
Continuous
 62
     7
100
AcDbText
 10
28.019649
 20
16.332883
 30
0.0
 40
0.032922
  1
JRS
 50
270.0
  7
Vcadd_SIMP
 72
     1
 11
28.076439
 21
16.332883
 31
0.0
100
AcDbText
  0
TEXT
  5
3D7
100
AcDbEntity
  8
0
370
     0
390
0
  6
Continuous
 62
     7
100
AcDbText
 10
28.010184
 20
16.082883
 30
0.0
 40
0.032922
  1
10164
 50
270.0
 41
0.7
  7
Vcadd_SIMP
 72
     1
 11
28.076439
 21
16.082883
 31
0.0
100
AcDbText
  0
LINE
  5
3D8
100
AcDbEntity
  8
0
370
    15
390
0
  6
Continuous
 62
     7
100
AcDbLine
 10
28.132232
 20
16.020383
 30
0.0
 11
28.132232
 21
17.957882
 31
0.0
  0
TEXT
  5
3D9
100
AcDbEntity
  8
4
370
    15
390
0
  6
Continuous
 62
     7
100
AcDbText
 10
30.780945
 20
19.301725
 30
0.0
 40
0.06
  1
Formreibahle
  7
Vcadd_SIMP
100
AcDbText
  0
TEXT
  5
3DA
100
AcDbEntity
  8
4
370
    15
390
0
  6
Continuous
 62
     7
100
AcDbText
 10
30.780945
 20
19.211725
 30
0.0
 40
0.06
  1
995-022-***
  7
Vcadd_SIMP
100
AcDbText
  0
TEXT
  5
3DB
100
AcDbEntity
  8
0
370
     0
390
0
  6
Continuous
 62
     7
100
AcDbText
 10
28.019483
 20
16.207883
 30
0.0
 40
0.032922
  1
RCL
 50
270.0
  7
Vcadd_SIMP
 72
     1
 11
28.076273
 21
16.207883
 31
0.0
100
AcDbText
  0
LINE
  5
3DC
100
AcDbEntity
  8
3
370
    15
390
0
  6
Continuous
 62
     1
100
AcDbLine
 10
30.084392
 20
17.541139
 30
0.0
 11
28.986163
 21
17.541139
 31
0.0
  0
LINE
  5
3DD
100
AcDbEntity
  8
4
370
    15
390
0
  6
Continuous
 62
     1
100
AcDbLine
 10
28.986163
 20
17.541139
 30
0.0
 11
28.92553
 21
17.541139
 31
0.0
  0
TEXT
  5
3DE
100
AcDbEntity
  8
4
370
    15
390
0
  6
Continuous
 62
     7
100
AcDbText
 10
28.540742
 20
17.505664
 30
0.0
 40
0.071
  1
17,86
  7
Vcadd_SIMP
100
AcDbText
  0
LINE
  5
3DF
100
AcDbEntity
  8
1
370
    15
390
0
  6
Continuous
 62
     7
100
AcDbLine
 10
30.010171
 20
18.740368
 30
0.0
 11
30.010171
 21
18.220638
 31
0.0
  0
LINE
  5
3E0
100
AcDbEntity
  8
1
370
    15
390
0
  6
CL____X1
 62
     1
100
AcDbLine
 10
30.038173
 20
18.213136
 30
0.0
 11
30.038173
 21
18.740368
 31
0.0
  0
LINE
  5
3E1
100
AcDbEntity
  8
4
370
    15
390
0
  6
Continuous
 62
     7
100
AcDbLine
 10
29.562352
 20
18.664332
 30
0.0
 11
29.602364
 21
18.7485
 31
0.0
  0
LINE
  5
3E2
100
AcDbEntity
  8
3
370
    15
390
0
  6
Continuous
 62
     1
100
AcDbLine
 10
29.655416
 20
18.704013
 30
0.0
 11
30.010171
 21
18.704013
 31
0.0
  0
TEXT
  5
3E3
100
AcDbEntity
  8
4
370
    15
390
0
  6
Continuous
 62
     7
100
AcDbText
 10
29.551368
 20
18.671915
 30
0.0
 40
0.081375
  1
O
  7
Vcadd_SIMP
100
AcDbText
  0
INSERT
  5
3E4
100
AcDbEntity
  8
4
370
    40
390
0
  6
Continuous
 62
     7
100
AcDbBlockReference
  2
ARROW
 10
30.010171
 20
18.704013
 30
0.0
 41
0.5
 42
0.5
  0
LINE
  5
3E5
100
AcDbEntity
  8
0
370
     0
390
0
  6
Continuous
 62
     1
100
AcDbLine
 10
29.967104
 20
18.217424
 30
0.0
 11
29.551448
 21
18.217424
 31
0.0
  0
TEXT
  5
3E6
100
AcDbEntity
  8
4
370
     0
390
0
  6
Continuous
 62
     7
100
AcDbText
 10
29.157667
 20
18.187676
 30
0.0
 40
0.071
  1
35,13
  7
Vcadd_SIMP
100
AcDbText
  0
LINE
  5
3E7
100
AcDbEntity
  8
3
370
    30
390
0
  6
Continuous
 62
     1
100
AcDbLine
 10
31.237742
 20
16.838137
 30
0.0
 11
32.433721
 21
16.838137
 31
0.0
  0
LINE
  5
3E8
100
AcDbEntity
  8
3
370
    30
390
0
  6
Continuous
 62
     1
100
AcDbLine
 10
30.099912
 20
16.838137
 30
0.0
 11
28.890182
 21
16.838137
 31
0.0
  0
TEXT
  5
3E9
100
AcDbEntity
  8
4
370
    15
390
0
  6
Continuous
 62
     7
100
AcDbText
 10
28.546219
 20
15.462316
 30
0.0
 40
0.071
  1
35,13
  7
Vcadd_SIMP
100
AcDbText
  0
TEXT
  5
3EA
100
AcDbEntity
  8
4
370
    15
390
0
  6
Continuous
 62
     7
100
AcDbText
 10
28.546219
 20
15.373566
 30
0.0
 40
0.071
  1
35,23
  7
Vcadd_SIMP
100
AcDbText
  0
TEXT
  5
3EB
100
AcDbEntity
  8
4
370
    15
390
0
  6
Continuous
 62
     7
100
AcDbText
 10
29.149353
 20
18.67414
 30
0.0
 40
0.071
  1
33,33
  7
Vcadd_SIMP
100
AcDbText
  0
TEXT
  5
3EC
100
AcDbEntity
  8
4
370
    15
390
0
  6
Continuous
 62
     7
100
AcDbText
 10
30.738211
 20
19.786509
 30
0.0
 40
0.06
  1
Formreibahle 0,79 mm tiefer
  7
Vcadd_SIMP
100
AcDbText
  0
TEXT
  5
3ED
100
AcDbEntity
  8
4
370
    15
390
0
  6
Continuous
 62
     7
100
AcDbText
 10
30.738211
 20
19.711509
 30
0.0
 40
0.06
  1
einfόhren als Formbohrer
  7
Vcadd_SIMP
100
AcDbText
  0
ENDSEC
  0
SECTION
  2
OBJECTS
  0
DICTIONARY
  5
19
100
AcDbDictionary
280
     0
281
     1
  3
ACAD_GROUP
350
1A
  3
ACAD_MLINESTYLE
350
1B
  3
ACAD_LAYOUT
350
1E
  3
ACAD_PLOTSETTINGS
350
22
  3
ACAD_PLOTSTYLENAME
350
1F
  3
ACAD_WIPEOUT_VARS
350
23
  0
DICTIONARY
  5
1A
102
{ACAD_REACTORS
330
19
102
}
100
AcDbDictionary
280
     0
281
     1
  0
DICTIONARY
  5
1B
102
{ACAD_REACTORS
330
19
102
}
100
AcDbDictionary
280
     0
281
     1
  3
Standard
350
1C
  0
MLINESTYLE
  5
1C
102
{ACAD_REACTORS
330
1B
102
}
100
AcDbMlineStyle
  2
Standard
 70
     0
  3

 62
     0
 51
90.0
 52
90.0
 71
     2
 49
0.5
 62
   256
  6
ByLayer
 49
-0.5
 62
   256
  6
ByLayer
  0
ACDBDICTIONARYWDFLT
  5
1F
102
{ACAD_REACTORS
330
19
102
}
100
AcDbDictionary
281
     1
  3
Normal
350
1D
100
AcDbDictionaryWithDefault
340
1D
  0
ACDBPLACEHOLDER
  5
1D
102
{ACAD_REACTORS
330
1F
102
}
  0
LAYOUT
  5
20
102
{ACAD_REACTORS
330
1E
102
}
100
AcDbPlotSettings
  1

  2

  4

  6

 40
0.0
 41
0.0
 42
0.0
 43
0.0
 44
0.0
 45
0.0
 46
0.0
 47
0.0
 48
0.0
 49
0.0
140
0.0
141
0.0
142
1.0
143
1.0
 70
  1024
 72
     0
 73
     0
 74
     0
  7

 75
     0
147
1.0
148
0.0
149
0.0
100
AcDbLayout
  1
Model
 70
     0
 71
     0
 10
0.0
 20
0.0
 11
0.0
 21
0.0
 12
0.0
 22
0.0
 32
0.0
 14
0.0
 24
0.0
 34
0.0
 15
0.0
 25
0.0
 35
0.0
146
0.0
 13
0.0
 23
0.0
 33
0.0
 16
0.0
 26
0.0
 36
0.0
 17
0.0
 27
0.0
 37
0.0
 76
     0
330
A
331
0
345
0
346
0
  0
LAYOUT
  5
21
102
{ACAD_REACTORS
330
1E
102
}
100
AcDbPlotSettings
  1

  2

  4

  6

 40
0.0
 41
0.0
 42
0.0
 43
0.0
 44
0.0
 45
0.0
 46
0.0
 47
0.0
 48
0.0
 49
0.0
140
0.0
141
0.0
142
1.0
143
1.0
 70
     0
 72
     0
 73
     0
 74
     0
  7

 75
     0
147
1.0
148
0.0
149
0.0
100
AcDbLayout
  1
Layout1
 70
     0
 71
     0
 10
0.0
 20
0.0
 11
0.0
 21
0.0
 12
0.0
 22
0.0
 32
0.0
 14
0.0
 24
0.0
 34
0.0
 15
0.0
 25
0.0
 35
0.0
146
0.0
 13
0.0
 23
0.0
 33
0.0
 16
0.0
 26
0.0
 36
0.0
 17
0.0
 27
0.0
 37
0.0
 76
     0
330
B
331
0
345
0
346
0
  0
DICTIONARY
  5
1E
102
{ACAD_REACTORS
330
19
102
}
100
AcDbDictionary
280
     0
281
     1
  3
Layout1
350
21
  3
Model
350
20
  0
DICTIONARY
  5
22
102
{ACAD_REACTORS
330
19
102
}
100
AcDbDictionary
280
     0
281
     1
  0
WIPEOUTVARIABLES
  5
23
100
AcDbWipeoutVariables
 70
     1
  0
ENDSEC
  0
EOF
