  0
SECTION
  2
HEADER
  9
$ACADVER
  1
AC1015
  9
$ACADMAINTVER
 70
     6
  9
$DWGCODEPAGE
  3
ANSI_1253
  9
$INSBASE
 10
0.0
 20
0.0
 30
0.0
  9
$EXTMIN
 10
19.810543
 20
11.845551
 30
0.0
  9
$EXTMAX
 10
24.826263
 20
19.847404
 30
0.0
  9
$LIMMIN
 10
0.0
 20
0.0
  9
$LIMMAX
 10
0.0
 20
0.0
  9
$ORTHOMODE
 70
     0
  9
$REGENMODE
 70
     1
  9
$FILLMODE
 70
     1
  9
$QTEXTMODE
 70
     0
  9
$MIRRTEXT
 70
     1
  9
$LTSCALE
 40
1.0
  9
$ATTMODE
 70
     1
  9
$TEXTSIZE
 40
0.2
  9
$TRACEWID
 40
0.05
  9
$TEXTSTYLE
  7
Standard
  9
$CLAYER
  8
0
  9
$CELTYPE
  6
Continuous
  9
$CECOLOR
 62
   256
  9
$CELTSCALE
 40
1.0
  9
$DISPSILH
 70
     0
  9
$DIMSCALE
 40
1.0
  9
$DIMASZ
 40
0.18
  9
$DIMEXO
 40
0.0625
  9
$DIMDLI
 40
0.38
  9
$DIMRND
 40
0.0
  9
$DIMDLE
 40
0.0
  9
$DIMEXE
 40
0.18
  9
$DIMTP
 40
0.0
  9
$DIMTM
 40
0.0
  9
$DIMTXT
 40
0.18
  9
$DIMCEN
 40
0.09
  9
$DIMTSZ
 40
0.0
  9
$DIMTOL
 70
     0
  9
$DIMLIM
 70
     0
  9
$DIMTIH
 70
     1
  9
$DIMTOH
 70
     1
  9
$DIMSE1
 70
     0
  9
$DIMSE2
 70
     0
  9
$DIMTAD
 70
     0
  9
$DIMZIN
 70
     0
  9
$DIMBLK
  1

  9
$DIMASO
 70
     1
  9
$DIMSHO
 70
     1
  9
$DIMPOST
  1

  9
$DIMAPOST
  1

  9
$DIMALT
 70
     0
  9
$DIMALTD
 70
     2
  9
$DIMALTF
 40
25.4
  9
$DIMLFAC
 40
1.0
  9
$DIMTOFL
 70
     0
  9
$DIMTVP
 40
0.0
  9
$DIMTIX
 70
     0
  9
$DIMSOXD
 70
     0
  9
$DIMSAH
 70
     0
  9
$DIMBLK1
  1

  9
$DIMBLK2
  1

  9
$DIMSTYLE
  2
Standard
  9
$DIMCLRD
 70
     0
  9
$DIMCLRE
 70
     0
  9
$DIMCLRT
 70
     0
  9
$DIMTFAC
 40
1.0
  9
$DIMGAP
 40
0.09
  9
$DIMJUST
 70
     0
  9
$DIMSD1
 70
     0
  9
$DIMSD2
 70
     0
  9
$DIMTOLJ
 70
     1
  9
$DIMTZIN
 70
     0
  9
$DIMALTZ
 70
     0
  9
$DIMALTTZ
 70
     0
  9
$DIMUPT
 70
     0
  9
$DIMDEC
 70
     4
  9
$DIMTDEC
 70
     4
  9
$DIMALTU
 70
     2
  9
$DIMALTTD
 70
     2
  9
$DIMTXSTY
  7
Standard
  9
$DIMAUNIT
 70
     0
  9
$DIMADEC
 70
     0
  9
$DIMALTRND
 40
0.0
  9
$DIMAZIN
 70
     0
  9
$DIMDSEP
 70
     0
  9
$DIMATFIT
 70
     3
  9
$DIMFRAC
 70
     0
  9
$DIMLDRBLK
  1

  9
$DIMLUNIT
 70
     2
  9
$DIMLWD
 70
     0
  9
$DIMLWE
 70
     0
  9
$DIMTMOVE
 70
     0
  9
$LUNITS
 70
     2
  9
$LUPREC
 70
     4
  9
$SKETCHINC
 40
0.1
  9
$FILLETRAD
 40
0.0
  9
$AUNITS
 70
     0
  9
$AUPREC
 70
     0
  9
$MENU
  1
acad
  9
$ELEVATION
 40
0.0
  9
$PELEVATION
 40
0.0
  9
$THICKNESS
 40
0.0
  9
$LIMCHECK
 70
     0
  9
$CHAMFERA
 40
0.0
  9
$CHAMFERB
 40
0.0
  9
$CHAMFERC
 40
0.0
  9
$CHAMFERD
 40
0.0
  9
$SKPOLY
 70
     0
  9
$TDCREATE
 40
0.000000000
  9
$TDUCREATE
 40
0.000000000
  9
$TDUPDATE
 40
0.000000000
  9
$TDUUPDATE
 40
0.000000000
  9
$TDINDWG
 40
0.0000000000
  9
$TDUSRTIMER
 40
0.0000000000
  9
$USRTIMER
 70
     1
  9
$ANGBASE
 50
0.0
  9
$ANGDIR
 70
     0
  9
$PDMODE
 70
     2
  9
$PDSIZE
 40
-1.0
  9
$PLINEWID
 40
0.0
  9
$SPLFRAME
 70
     0
  9
$SPLINETYPE
 70
     6
  9
$SPLINESEGS
 70
     8
  9
$HANDSEED
  5
458
  9
$SURFTAB1
 70
     6
  9
$SURFTAB2
 70
     6
  9
$SURFTYPE
 70
     6
  9
$SURFU
 70
     6
  9
$SURFV
 70
     6
  9
$UCSBASE
  2

  9
$UCSNAME
  2

  9
$UCSORG
 10
0.0
 20
0.0
 30
0.0
  9
$UCSXDIR
 10
1.0
 20
0.0
 30
0.0
  9
$UCSYDIR
 10
0.0
 20
1.0
 30
0.0
  9
$UCSORTHOREF
  2

  9
$UCSORTHOVIEW
 70
     0
  9
$UCSORGTOP
 10
0.0
 20
0.0
 30
0.0
  9
$UCSORGBOTTOM
 10
0.0
 20
0.0
 30
0.0
  9
$UCSORGLEFT
 10
0.0
 20
0.0
 30
0.0
  9
$UCSORGRIGHT
 10
0.0
 20
0.0
 30
0.0
  9
$UCSORGFRONT
 10
0.0
 20
0.0
 30
0.0
  9
$UCSORGBACK
 10
0.0
 20
0.0
 30
0.0
  9
$PUCSBASE
  2

  9
$PUCSNAME
  2

  9
$PUCSORG
 10
0.0
 20
0.0
 30
0.0
  9
$PUCSXDIR
 10
1.0
 20
0.0
 30
0.0
  9
$PUCSYDIR
 10
0.0
 20
1.0
 30
0.0
  9
$PUCSORTHOREF
  2

  9
$PUCSORTHOVIEW
 70
     0
  9
$PUCSORGTOP
 10
0.0
 20
0.0
 30
0.0
  9
$PUCSORGBOTTOM
 10
0.0
 20
0.0
 30
0.0
  9
$PUCSORGLEFT
 10
0.0
 20
0.0
 30
0.0
  9
$PUCSORGRIGHT
 10
0.0
 20
0.0
 30
0.0
  9
$PUCSORGFRONT
 10
0.0
 20
0.0
 30
0.0
  9
$PUCSORGBACK
 10
0.0
 20
0.0
 30
0.0
  9
$USERI1
 70
     0
  9
$USERI2
 70
     0
  9
$USERI3
 70
     0
  9
$USERI4
 70
     0
  9
$USERI5
 70
     0
  9
$USERR1
 40
0.0
  9
$USERR2
 40
0.0
  9
$USERR3
 40
0.0
  9
$USERR4
 40
0.0
  9
$USERR5
 40
0.0
  9
$WORLDVIEW
 70
     1
  9
$SHADEDGE
 70
     3
  9
$SHADEDIF
 70
    70
  9
$TILEMODE
 70
     1
  9
$MAXACTVP
 70
    16
  9
$PINSBASE
 10
0.0
 20
0.0
 30
0.0
  9
$PLIMCHECK
 70
     0
  9
$PEXTMIN
 10
1.000000E+20
 20
1.000000E+20
 30
1.000000E+20
  9
$PEXTMAX
 10
-1.000000E+20
 20
-1.000000E+20
 30
-1.000000E+20
  9
$PLIMMIN
 10
0.0
 20
0.0
  9
$PLIMMAX
 10
12.0
 20
9.0
  9
$UNITMODE
 70
     0
  9
$VISRETAIN
 70
     0
  9
$PLINEGEN
 70
     1
  9
$PSLTSCALE
 70
     0
  9
$TREEDEPTH
 70
  3020
  9
$CMLSTYLE
  2
Standard
  9
$CMLJUST
 70
     0
  9
$CMLSCALE
 40
1.0
  9
$PROXYGRAPHICS
 70
     0
  9
$MEASUREMENT
 70
     0
  9
$CELWEIGHT
370
     0
  9
$ENDCAPS
280
     0
  9
$JOINSTYLE
280
     0
  9
$LWDISPLAY
290
     1
  9
$INSUNITS
 70
     0
  9
$HYPERLINKBASE
  1

  9
$STYLESHEET
  1

  9
$XEDIT
290
     1
  9
$CEPSNTYPE
380
     0
  9
$PSTYLEMODE
290
     1
  9
$FINGERPRINTGUID
  2

  9
$VERSIONGUID
  2

  9
$EXTNAMES
290
     1
  9
$PSVPSCALE
 40
0.0
  0
ENDSEC
  0
SECTION
  2
CLASSES
  0
CLASS
  1
LWPOLYLINE
  2
AcDbPolyline
  3
AutoCAD 2000
 90
        0
280
     0
281
     1
  0
CLASS
  1
IMAGE
  2
AcDbRasterImage
  3
ISM
 90
      127
280
     0
281
     1
  0
CLASS
  1
OLE2FRAME
  2
AcDbOle2Frame
  3
AutoCAD 2000
 90
        0
280
     0
281
     1
  0
CLASS
  1
HATCH
  2
AcDbHatch
  3
AutoCAD 2000
 90
        0
280
     0
281
     1
  0
CLASS
  1
DICTIONARYVAR
  2
AcDbDictionaryVar
  3
AutoCAD 2000
 90
        0
280
     0
281
     0
  0
CLASS
  1
RASTERVARIABLES
  2
AcDbRasterVariables
  3
ISM
 90
        0
280
     0
281
     0
  0
CLASS
  1
IMAGEDEF
  2
AcDbRasterImageDef
  3
ISM
 90
        0
280
     0
281
     0
  0
CLASS
  1
IMAGEDEF_REACTOR
  2
AcDbRasterImageDefReactor
  3
ISM
 90
        1
280
     0
281
     0
  0
CLASS
  1
IDBUFFER
  2
AcDbIdBuffer
  3
AutoCAD 2000
 90
        0
280
     0
281
     0
  0
CLASS
  1
SPATIAL_FILTER
  2
AcDbSpatialFilter
  3
AutoCAD 2000
 90
        0
280
     0
281
     0
  0
CLASS
  1
XRECORD
  2
AcDbXrecord
  3
AutoCAD 2000
 90
        0
280
     0
281
     0
  0
CLASS
  1
SORTENTSTABLE
  2
AcDbSortentsTable
  3
AutoCAD 2000
 90
        0
280
     0
281
     0
  0
CLASS
  1
LAYER_INDEX
  2
AcDbLayerIndex
  3
AutoCAD 2000
 90
        0
280
     0
281
     0
  0
CLASS
  1
SPATIAL_INDEX
  2
AcDbSpatialIndex
  3
AutoCAD 2000
 90
        0
280
     0
281
     0
  0
CLASS
  1
OBJECT_PTR
  2
CAseDLPNTableRecord
  3
"ASE-LPNTableRecord"
 90
        1
280
     0
281
     0
  0
CLASS
  1
LAYOUT
  2
AcDbLayout
  3
AutoCAD 2000
 90
        0
280
     0
281
     0
  0
CLASS
  1
PLOTSETTINGS
  2
AcDbPlotSettings
  3
AutoCAD 2000
 90
        0
280
     0
281
     0
  0
CLASS
  1
ACDBDICTIONARYWDFLT
  2
AcDbDictionaryWithDefault
  3
AutoCAD 2000
 90
        0
280
     0
281
     0
  0
CLASS
  1
ACDBPLACEHOLDER
  2
AcDbPlaceHolder
  3
AutoCAD 2000
 90
        0
280
     0
281
     0
  0
CLASS
  1
VBA_PROJECT
  2
AcDbVbaProject
  3
acadvba
 90
        0
280
     0
281
     0
  0
CLASS
  1
WIPEOUT
  2
AcDbWipeout
  3
WipeOut|AutoCAD Express Tool|expresstools@autodesk.com
 90
      127
280
     0
281
     1
  0
CLASS
  1
WIPEOUTVARIABLES
  2
AcDbWipeoutVariables
  3
WipeOut|AutoCAD Express Tool|expresstools@autodesk.com
 90
        0
280
     0
281
     0
  0
CLASS
  1
RTEXT
  2
RText
  3
RText|AutoCAD Express Tool|expresstools@autodesk.com
 90
        0
280
     0
281
     1
  0
CLASS
  1
ARCALIGNEDTEXT
  2
AcDbArcAlignedText
  3
ATEXT|AutoCAD Express Tool|expresstools@autodesk.com
 90
        0
280
     0
281
     1
  0
ENDSEC
  0
SECTION
  2
TABLES
  0
TABLE
  2
VPORT
  5
7
100
AcDbSymbolTable
 70
     2
  0
VPORT
  5
15
100
AcDbSymbolTableRecord
100
AcDbViewportTableRecord
  2
*ACTIVE
 70
     0
 10
0.0
 20
0.0
 11
1.0
 21
1.0
 12
6.591288
 22
4.579184
 13
0.0
 23
0.0
 14
1.0
 24
1.0
 15
0.0
 25
0.0
 16
0.0
 26
0.0
 36
1.0
 17
0.0
 27
0.0
 37
0.0
 40
9.158369
 41
0.688564
 42
50.0
 43
0.0
 44
0.0
 50
0.0
 51
0.0
 71
     0
 72
   100
 73
     1
 74
     1
 75
     0
 76
     0
 77
     0
 78
     0
281
     0
 65
     0
110
0.0
120
0.0
130
0.0
111
1.0
121
0.0
131
0.0
112
0.0
122
1.0
132
0.0
345
0
346
0
 79
     0
146
0.0
  0
VPORT
  5
457
100
AcDbSymbolTableRecord
100
AcDbViewportTableRecord
  2
MYVPORT
 70
     0
 10
0.0
 20
0.0
 11
1.0
 21
1.0
 12
6.21
 22
9.02
 13
0.0
 23
0.0
 14
1.0
 24
1.0
 15
0.0
 25
0.0
 16
0.0
 26
0.0
 36
1.0
 17
0.0
 27
0.0
 37
0.0
 40
18.04
 41
0.688564
 42
50.0
 43
0.0
 44
0.0
 50
0.0
 51
0.0
 71
     0
 72
   100
 73
     1
 74
     1
 75
     0
 76
     0
 77
     0
 78
     0
281
     0
 65
     0
110
0.0
120
0.0
130
0.0
111
1.0
121
0.0
131
0.0
112
0.0
122
1.0
132
0.0
345
0
346
0
 79
     0
146
0.0
  0
ENDTAB
  0
TABLE
  2
LTYPE
  5
4
100
AcDbSymbolTable
 70
     5
  0
LTYPE
  5
11
100
AcDbSymbolTableRecord
100
AcDbLinetypeTableRecord
  2
ByBlock
 70
    64
  3

 72
    65
 73
     0
 40
0.0
  0
LTYPE
  5
12
100
AcDbSymbolTableRecord
100
AcDbLinetypeTableRecord
  2
ByLayer
 70
    64
  3

 72
    65
 73
     0
 40
0.0
  0
LTYPE
  5
13
100
AcDbSymbolTableRecord
100
AcDbLinetypeTableRecord
  2
Continuous
 70
    64
  3
Solid line
 72
    65
 73
     0
 40
0.0
  0
LTYPE
  5
203
100
AcDbSymbolTableRecord
100
AcDbLinetypeTableRecord
  2
PHANTOM
 70
    64
  3
Visual CADD Translation
 72
    65
 73
     6
 40
1.37
 49
0.99
 74
     0
 49
-0.05
 74
     0
 49
0.115
 74
     0
 49
-0.05
 74
     0
 49
0.115
 74
     0
 49
-0.05
 74
     0
  0
LTYPE
  5
22E
100
AcDbSymbolTableRecord
100
AcDbLinetypeTableRecord
  2
HIDDEN
 70
    64
  3
Visual CADD Translation
 72
    65
 73
     2
 40
0.165
 49
0.115
 74
     0
 49
-0.05
 74
     0
  0
ENDTAB
  0
TABLE
  2
LAYER
  5
2
100
AcDbSymbolTable
 70
     7
  0
LAYER
  5
14
100
AcDbSymbolTableRecord
100
AcDbLayerTableRecord
  2
0
 70
     0
 62
     7
  6
Continuous
290
     1
370
    -3
390
1D
  0
LAYER
  5
24
100
AcDbSymbolTableRecord
100
AcDbLayerTableRecord
  2
1
 70
     0
 62
     7
  6
Continuous
290
     1
370
    -3
390
1D
  0
LAYER
  5
25
100
AcDbSymbolTableRecord
100
AcDbLayerTableRecord
  2
2
 70
     0
 62
     7
  6
Continuous
290
     1
370
    -3
390
1D
  0
LAYER
  5
26
100
AcDbSymbolTableRecord
100
AcDbLayerTableRecord
  2
3
 70
     0
 62
     7
  6
Continuous
290
     1
370
    -3
390
1D
  0
LAYER
  5
27
100
AcDbSymbolTableRecord
100
AcDbLayerTableRecord
  2
4
 70
     0
 62
     7
  6
Continuous
290
     1
370
    -3
390
1D
  0
LAYER
  5
28
100
AcDbSymbolTableRecord
100
AcDbLayerTableRecord
  2
15
 70
     0
 62
     7
  6
Continuous
290
     1
370
    -3
390
1D
  0
LAYER
  5
31E
100
AcDbSymbolTableRecord
100
AcDbLayerTableRecord
  2
9
 70
     0
 62
     7
  6
Continuous
290
     1
370
    -3
390
1D
  0
ENDTAB
  0
TABLE
  2
STYLE
  5
3
100
AcDbSymbolTable
 70
     3
  0
STYLE
  5
17
100
AcDbSymbolTableRecord
100
AcDbTextStyleTableRecord
  2
Standard
 70
     0
 40
0.0
 41
1.0
 50
0.0
 71
     0
 42
0.0
  3
txt
  4

  0
STYLE
  5
30
100
AcDbSymbolTableRecord
100
AcDbTextStyleTableRecord
  2
Vcadd_Main
 70
     0
 40
0.0
 41
1.0
 50
0.0
 71
     0
 42
0.0
  3
Main
  4

  0
STYLE
  5
2C3
100
AcDbSymbolTableRecord
100
AcDbTextStyleTableRecord
  2
Vcadd_SIMP
 70
     0
 40
0.0
 41
1.0
 50
0.0
 71
     0
 42
0.0
  3
SIMP
  4

  0
ENDTAB
  0
TABLE
  2
VIEW
  5
5
100
AcDbSymbolTable
 70
     0
  0
ENDTAB
  0
TABLE
  2
UCS
  5
6
100
AcDbSymbolTable
 70
     1
  0
UCS
  5
456
100
AcDbSymbolTableRecord
100
AcDbUCSTableRecord
  2
MYUCS
 70
     0
 10
0.0
 20
0.0
 30
0.0
 11
0.0
 21
1.0
 31
0.0
 12
0.0
 22
0.0
 32
1.0
 79
     0
146
0.0
  0
ENDTAB
  0
TABLE
  2
APPID
  5
8
100
AcDbSymbolTable
 70
     1
  0
APPID
  5
16
100
AcDbSymbolTableRecord
100
AcDbRegAppTableRecord
  2
ACAD
 70
     0
  0
ENDTAB
  0
TABLE
  2
DIMSTYLE
  5
9
100
AcDbSymbolTable
 70
     2
100
AcDbDimStyleTable
 71
     0
  0
DIMSTYLE
105
18
100
AcDbSymbolTableRecord
100
AcDbDimStyleTableRecord
  2
Standard
 70
     0
  3

  4

 40
1.0
 41
0.18
 42
0.0625
 43
0.38
 44
0.18
 45
0.0
 46
0.0
 47
0.0
 48
0.0
 71
     0
 72
     0
 73
     1
 74
     1
 75
     0
 76
     0
 77
     0
 78
     0
 79
     0
140
0.18
141
0.09
142
0.0
143
25.4
144
1.0
145
0.0
146
1.0
147
0.09
148
0.0
170
     0
171
     2
172
     0
173
     0
174
     0
175
     0
176
     0
177
     0
178
     0
179
     0
271
     4
272
     4
273
     2
274
     2
275
     0
276
     0
277
     2
278
    46
279
     0
280
     0
281
     0
282
     0
283
     1
284
     0
285
     0
286
     0
288
     0
289
     3
340
17
341
0
342
0
343
0
344
0
371
    -2
372
    -2
  0
DIMSTYLE
105
31
100
AcDbSymbolTableRecord
100
AcDbDimStyleTableRecord
  2
VCADD_DIMSTYLE
 70
     0
  3

  4

 40
1.0
 41
2.5
 42
0.1
 43
0.0
 44
0.1
 45
0.0
 46
0.0
 47
0.003
 48
0.002
 71
     0
 72
     0
 73
     1
 74
     1
 75
     0
 76
     0
 77
     0
 78
     3
 79
     1
140
0.1
141
0.0
142
0.0
143
1.0
144
1.0
145
0.0
146
1.0
147
0.2
148
0.0
170
     0
171
     3
172
     0
173
     0
174
     1
175
     0
176
     0
177
     0
178
     0
179
     3
271
     3
272
     4
273
     2
274
     2
275
     0
276
     0
277
     2
278
    46
279
     0
280
     0
281
     0
282
     0
283
     1
284
     0
285
     0
286
     0
288
     0
289
     3
340
30
341
0
342
0
343
0
344
0
371
    -2
372
    -2
  0
ENDTAB
  0
TABLE
  2
BLOCK_RECORD
  5
1
100
AcDbSymbolTable
 70
     5
  0
BLOCK_RECORD
  5
A
100
AcDbSymbolTableRecord
100
AcDbBlockTableRecord
  2
*MODEL_SPACE
340
20
  0
BLOCK_RECORD
  5
B
100
AcDbSymbolTableRecord
100
AcDbBlockTableRecord
  2
*PAPER_SPACE
340
21
  0
BLOCK_RECORD
  5
29
100
AcDbSymbolTableRecord
100
AcDbBlockTableRecord
  2
_CLOSED
340
0
  0
BLOCK_RECORD
  5
1F5
100
AcDbSymbolTableRecord
100
AcDbBlockTableRecord
  2
MAU
340
0
102
{BLKREFS
331
202
331
21A
102
}
  0
BLOCK_RECORD
  5
20A
100
AcDbSymbolTableRecord
100
AcDbBlockTableRecord
  2
MAL
340
0
102
{BLKREFS
331
217
102
}
  0
BLOCK_RECORD
  5
31C
100
AcDbSymbolTableRecord
100
AcDbBlockTableRecord
  2
ARROW
340
0
102
{BLKREFS
331
324
331
325
331
326
331
327
331
328
331
329
331
32A
331
32B
331
32C
331
32D
331
32E
331
32F
331
330
331
331
331
332
331
333
331
334
331
335
331
336
331
337
331
338
331
339
331
33A
331
33B
331
33C
331
33F
102
}
  0
BLOCK_RECORD
  5
444
100
AcDbSymbolTableRecord
100
AcDbBlockTableRecord
  2
DIASYM
340
0
102
{BLKREFS
331
449
331
44A
331
44B
331
44C
331
44D
331
44E
331
44F
102
}
  0
ENDTAB
  0
ENDSEC
  0
SECTION
  2
BLOCKS
  0
BLOCK
  5
D
100
AcDbEntity
  8
0
390
0
100
AcDbBlockBegin
  2
*MODEL_SPACE
 70
     0
 10
0.0
 20
0.0
 30
0.0
  3
*MODEL_SPACE
  1

  0
ENDBLK
  5
E
100
AcDbEntity
  8
0
390
0
100
AcDbBlockEnd
  0
BLOCK
  5
F
100
AcDbEntity
 67
     1
  8
0
390
0
100
AcDbBlockBegin
  2
*PAPER_SPACE
 70
     0
 10
0.0
 20
0.0
 30
0.0
  3
*PAPER_SPACE
  1

  0
ENDBLK
  5
10
100
AcDbEntity
 67
     1
  8
0
390
0
100
AcDbBlockEnd
  0
BLOCK
  5
2A
100
AcDbEntity
  8
0
390
0
100
AcDbBlockBegin
  2
_CLOSED
 70
     0
 10
0.0
 20
0.0
 30
0.0
  3
_CLOSED
  1

  0
LINE
  5
2B
100
AcDbEntity
  8
0
370
    -2
390
0
  6
ByBlock
 62
     0
100
AcDbLine
 10
-1.0
 20
0.166667
 30
0.0
 11
0.0
 21
0.0
 31
0.0
  0
LINE
  5
2C
100
AcDbEntity
  8
0
370
    -2
390
0
  6
ByBlock
 62
     0
100
AcDbLine
 10
0.0
 20
0.0
 30
0.0
 11
-1.0
 21
-0.166667
 31
0.0
  0
LINE
  5
2D
100
AcDbEntity
  8
0
370
    -2
390
0
  6
ByBlock
 62
     0
100
AcDbLine
 10
-1.0
 20
0.166667
 30
0.0
 11
-1.0
 21
-0.166667
 31
0.0
  0
LINE
  5
2E
100
AcDbEntity
  8
0
370
    -2
390
0
  6
ByBlock
 62
     0
100
AcDbLine
 10
0.0
 20
0.0
 30
0.0
 11
-1.0
 21
0.0
 31
0.0
  0
ENDBLK
  5
2F
100
AcDbEntity
  8
0
390
0
100
AcDbBlockEnd
  0
BLOCK
  5
1F6
100
AcDbEntity
  8
0
390
0
100
AcDbBlockBegin
  2
MAU
 70
     0
 10
0.0
 20
0.0
 30
0.0
  3
MAU
  1

  0
LINE
  5
1F7
100
AcDbEntity
  8
0
370
     0
390
0
  6
Continuous
 62
     2
100
AcDbLine
 10
0.0
 20
0.0
 30
0.0
 11
-0.024965
 21
-0.169856
 31
0.0
  0
LINE
  5
1F8
100
AcDbEntity
  8
0
370
     0
390
0
  6
Continuous
 62
     2
100
AcDbLine
 10
0.0
 20
0.0
 30
0.0
 11
0.022192
 21
-0.169856
 31
0.0
  0
LINE
  5
1F9
100
AcDbEntity
  8
0
370
     0
390
0
  6
Continuous
 62
     2
100
AcDbLine
 10
0.022192
 20
-0.169856
 30
0.0
 11
-0.024965
 21
-0.169856
 31
0.0
  0
LINE
  5
1FA
100
AcDbEntity
  8
0
370
     0
390
0
  6
Continuous
 62
     7
100
AcDbLine
 10
-0.015773
 20
-0.160825
 30
0.0
 11
0.013481
 21
-0.160825
 31
0.0
  0
LINE
  5
1FB
100
AcDbEntity
  8
0
370
     0
390
0
  6
Continuous
 62
     7
100
AcDbLine
 10
0.013481
 20
-0.160825
 30
0.0
 11
-0.000196
 21
-0.036413
 31
0.0
  0
LINE
  5
1FC
100
AcDbEntity
  8
0
370
     0
390
0
  6
Continuous
 62
     7
100
AcDbLine
 10
-0.015773
 20
-0.160825
 30
0.0
 11
-0.000196
 21
-0.036413
 31
0.0
  0
LINE
  5
1FD
100
AcDbEntity
  8
0
370
     0
390
0
  6
Continuous
 62
     7
100
AcDbLine
 10
-0.006656
 20
-0.149436
 30
0.0
 11
-0.000576
 21
-0.078031
 31
0.0
  0
LINE
  5
1FE
100
AcDbEntity
  8
0
370
     0
390
0
  6
Continuous
 62
     7
100
AcDbLine
 10
-0.006656
 20
-0.149436
 30
0.0
 11
0.005122
 21
-0.149436
 31
0.0
  0
LINE
  5
1FF
100
AcDbEntity
  8
0
370
     0
390
0
  6
Continuous
 62
     7
100
AcDbLine
 10
0.005122
 20
-0.149436
 30
0.0
 11
-0.000576
 21
-0.078031
 31
0.0
  0
LINE
  5
200
100
AcDbEntity
  8
0
370
     0
390
0
  6
Continuous
 62
     7
100
AcDbLine
 10
-0.000957
 20
-0.142427
 30
0.0
 11
-0.000957
 21
-0.119647
 31
0.0
  0
ENDBLK
  5
201
100
AcDbEntity
  8
0
390
0
100
AcDbBlockEnd
  0
BLOCK
  5
20B
100
AcDbEntity
  8
0
390
0
100
AcDbBlockBegin
  2
MAL
 70
     0
 10
0.0
 20
0.0
 30
0.0
  3
MAL
  1

  0
LINE
  5
20C
100
AcDbEntity
  8
0
370
     0
390
0
  6
Continuous
 62
     2
100
AcDbLine
 10
0.0
 20
0.0
 30
0.0
 11
0.169856
 21
0.024965
 31
0.0
  0
LINE
  5
20D
100
AcDbEntity
  8
0
370
     0
390
0
  6
Continuous
 62
     2
100
AcDbLine
 10
0.0
 20
0.0
 30
0.0
 11
0.169856
 21
-0.022192
 31
0.0
  0
LINE
  5
20E
100
AcDbEntity
  8
0
370
     0
390
0
  6
Continuous
 62
     2
100
AcDbLine
 10
0.169856
 20
-0.022192
 30
0.0
 11
0.169856
 21
0.024965
 31
0.0
  0
LINE
  5
20F
100
AcDbEntity
  8
0
370
     0
390
0
  6
Continuous
 62
     7
100
AcDbLine
 10
0.160825
 20
0.015773
 30
0.0
 11
0.160825
 21
-0.013481
 31
0.0
  0
LINE
  5
210
100
AcDbEntity
  8
0
370
     0
390
0
  6
Continuous
 62
     7
100
AcDbLine
 10
0.160825
 20
-0.013481
 30
0.0
 11
0.036413
 21
0.000196
 31
0.0
  0
LINE
  5
211
100
AcDbEntity
  8
0
370
     0
390
0
  6
Continuous
 62
     7
100
AcDbLine
 10
0.160825
 20
0.015773
 30
0.0
 11
0.036413
 21
0.000196
 31
0.0
  0
LINE
  5
212
100
AcDbEntity
  8
0
370
     0
390
0
  6
Continuous
 62
     7
100
AcDbLine
 10
0.149436
 20
0.006656
 30
0.0
 11
0.078031
 21
0.000576
 31
0.0
  0
LINE
  5
213
100
AcDbEntity
  8
0
370
     0
390
0
  6
Continuous
 62
     7
100
AcDbLine
 10
0.149436
 20
0.006656
 30
0.0
 11
0.149436
 21
-0.005122
 31
0.0
  0
LINE
  5
214
100
AcDbEntity
  8
0
370
     0
390
0
  6
Continuous
 62
     7
100
AcDbLine
 10
0.149436
 20
-0.005122
 30
0.0
 11
0.078031
 21
0.000576
 31
0.0
  0
LINE
  5
215
100
AcDbEntity
  8
0
370
     0
390
0
  6
Continuous
 62
     7
100
AcDbLine
 10
0.142427
 20
0.000957
 30
0.0
 11
0.119647
 21
0.000957
 31
0.0
  0
ENDBLK
  5
216
100
AcDbEntity
  8
0
390
0
100
AcDbBlockEnd
  0
BLOCK
  5
31D
100
AcDbEntity
  8
0
390
0
100
AcDbBlockBegin
  2
ARROW
 70
     0
 10
0.0
 20
0.0
 30
0.0
  3
ARROW
  1

  0
LINE
  5
31F
100
AcDbEntity
  8
9
370
     0
390
0
  6
Continuous
 62
     5
100
AcDbLine
 10
0.0
 20
0.0
 30
0.0
 11
-0.160849
 21
0.031523
 31
0.0
  0
LINE
  5
320
100
AcDbEntity
  8
9
370
     0
390
0
  6
Continuous
 62
     5
100
AcDbLine
 10
-0.160849
 20
0.031523
 30
0.0
 11
-0.160849
 21
-0.035463
 31
0.0
  0
LINE
  5
321
100
AcDbEntity
  8
9
370
     0
390
0
  6
Continuous
 62
     5
100
AcDbLine
 10
0.0
 20
0.0
 30
0.0
 11
-0.160849
 21
-0.035463
 31
0.0
  0
HATCH
  5
322
100
AcDbEntity
  8
9
370
     0
390
0
  6
Continuous
 62
     5
100
AcDbHatch
 10
0.0
 20
0.0
 30
0.0
210
0.0
220
0.0
230
1.0
  2
SOLID
 70
     1
 71
     0
 91
        1
 92
        1
 93
        3
 72
     1
 10
0.0
 20
0.0
 11
-0.1608486175537109
 21
0.0315227508544922
 72
     1
 10
-0.1608486175537109
 20
0.0315227508544922
 11
-0.1608486175537109
 21
-0.0354633331298828
 72
     1
 10
-0.1608486175537109
 20
-0.0354633331298828
 11
0.0
 21
0.0
 97
        0
 75
     0
 76
     1
 98
        1
 10
0.0
 20
0.0
  0
ENDBLK
  5
323
100
AcDbEntity
  8
0
390
0
100
AcDbBlockEnd
  0
BLOCK
  5
445
100
AcDbEntity
  8
0
390
0
100
AcDbBlockBegin
  2
DIASYM
 70
     0
 10
0.0
 20
0.0
 30
0.0
  3
DIASYM
  1

  0
TEXT
  5
446
100
AcDbEntity
  8
3
370
     0
390
0
  6
Continuous
 62
     7
100
AcDbText
 10
-0.035203
 20
-0.042231
 30
0.0
 40
0.093
  1
O
  7
Vcadd_SIMP
100
AcDbText
  0
LINE
  5
447
100
AcDbEntity
  8
3
370
     0
390
0
  6
Continuous
 62
     7
100
AcDbLine
 10
-0.021538
 20
-0.048948
 30
0.0
 11
0.024191
 21
0.047243
 31
0.0
  0
ENDBLK
  5
448
100
AcDbEntity
  8
0
390
0
100
AcDbBlockEnd
  0
ENDSEC
  0
SECTION
  2
ENTITIES
  0
VIEWPORT
  5
32
100
AcDbEntity
 67
     1
  8
0
390
0
  6
Continuous
 62
     0
100
AcDbViewport
 10
4.5
 20
3.259162
 30
0.0
 40
12.857143
 41
9.311892
 68
     1
 69
     1
 12
762.9316
 22
546.5183
 13
1169.457242
 23
377.488
 14
0.5
 24
0.5
 15
12.0
 25
12.0
 16
0.0
 26
0.0
 36
1.0
 17
0.0
 27
0.0
 37
0.0
 42
50.0
 43
-55.0
 44
-55.0
 45
1084.5
 50
0.0
 51
0.0
 72
   500
 90
        0
340
0
  1

281
     0
 71
     1
 74
     0
110
0.0
120
0.0
130
0.0
111
1.0
121
0.0
131
0.0
112
0.0
122
1.0
132
0.0
345
0
346
0
 79
     0
146
0.0
  0
LINE
  5
33
100
AcDbEntity
  8
0
370
    15
390
0
  6
Continuous
 62
     6
100
AcDbLine
 10
24.813124
 20
19.847404
 30
0.0
 11
24.813124
 21
11.84555
 31
0.0
  0
LINE
  5
34
100
AcDbEntity
  8
0
370
    15
390
0
  6
Continuous
 62
     6
100
AcDbLine
 10
19.810543
 20
11.84555
 30
0.0
 11
19.810543
 21
19.847404
 31
0.0
  0
LINE
  5
35
100
AcDbEntity
  8
0
370
    15
390
0
  6
Continuous
 62
     6
100
AcDbLine
 10
24.813124
 20
11.84555
 30
0.0
 11
19.810543
 21
11.84555
 31
0.0
  0
LINE
  5
36
100
AcDbEntity
  8
0
370
    15
390
0
  6
Continuous
 62
     6
100
AcDbLine
 10
24.813124
 20
19.847404
 30
0.0
 11
19.810543
 21
19.847404
 31
0.0
  0
LINE
  5
37
100
AcDbEntity
  8
0
370
    15
390
0
  6
Continuous
 62
     2
100
AcDbLine
 10
20.498043
 20
11.84555
 30
0.0
 11
20.498043
 21
17.158051
 31
0.0
  0
LINE
  5
38
100
AcDbEntity
  8
0
370
    15
390
0
  6
Continuous
 62
     2
100
AcDbLine
 10
20.498043
 20
17.158051
 30
0.0
 11
19.810543
 21
17.158051
 31
0.0
  0
LINE
  5
39
100
AcDbEntity
  8
0
370
    15
390
0
  6
Continuous
 62
     7
100
AcDbLine
 10
20.498043
 20
11.84555
 30
0.0
 11
20.498043
 21
11.84555
 31
0.0
  0
LINE
  5
3A
100
AcDbEntity
  8
0
370
    15
390
0
  6
Continuous
 62
     7
100
AcDbLine
 10
20.498043
 20
13.220551
 30
0.0
 11
19.810543
 21
13.220551
 31
0.0
  0
LINE
  5
3B
100
AcDbEntity
  8
0
370
    15
390
0
  6
Continuous
 62
     7
100
AcDbLine
 10
20.498043
 20
14.720551
 30
0.0
 11
19.810543
 21
14.720551
 31
0.0
  0
LINE
  5
3C
100
AcDbEntity
  8
0
370
    15
390
0
  6
Continuous
 62
     7
100
AcDbLine
 10
20.498043
 20
15.220551
 30
0.0
 11
19.810543
 21
15.220551
 31
0.0
  0
LINE
  5
3D
100
AcDbEntity
  8
0
370
    15
390
0
  6
Continuous
 62
     7
100
AcDbLine
 10
20.498043
 20
15.345551
 30
0.0
 11
19.810543
 21
15.345551
 31
0.0
  0
LINE
  5
3E
100
AcDbEntity
  8
0
370
    15
390
0
  6
Continuous
 62
     7
100
AcDbLine
 10
20.498043
 20
15.470551
 30
0.0
 11
19.810543
 21
15.470551
 31
0.0
  0
LINE
  5
3F
100
AcDbEntity
  8
0
370
    15
390
0
  6
Continuous
 62
     7
100
AcDbLine
 10
20.498043
 20
15.595551
 30
0.0
 11
19.810543
 21
15.595551
 31
0.0
  0
LINE
  5
40
100
AcDbEntity
  8
0
370
    15
390
0
  6
Continuous
 62
     7
100
AcDbLine
 10
20.498043
 20
17.033051
 30
0.0
 11
19.810543
 21
17.033051
 31
0.0
  0
LINE
  5
41
100
AcDbEntity
  8
0
370
    15
390
0
  6
Continuous
 62
     7
100
AcDbLine
 10
19.888543
 20
17.158051
 30
0.0
 11
19.888543
 21
15.220551
 31
0.0
  0
LINE
  5
42
100
AcDbEntity
  8
0
370
    15
390
0
  6
Continuous
 62
     7
100
AcDbLine
 10
20.310543
 20
14.720551
 30
0.0
 11
20.310543
 21
15.220551
 31
0.0
  0
LINE
  5
43
100
AcDbEntity
  8
0
370
    15
390
0
  6
Continuous
 62
     7
100
AcDbLine
 10
19.951043
 20
14.720551
 30
0.0
 11
19.951043
 21
13.908051
 31
0.0
  0
LINE
  5
44
100
AcDbEntity
  8
0
370
    15
390
0
  6
Continuous
 62
     7
100
AcDbLine
 10
20.091543
 20
14.720551
 30
0.0
 11
20.091543
 21
13.908051
 31
0.0
  0
LINE
  5
45
100
AcDbEntity
  8
0
370
    15
390
0
  6
Continuous
 62
     7
100
AcDbLine
 10
20.091543
 20
13.908051
 30
0.0
 11
20.091543
 21
13.220551
 31
0.0
  0
LINE
  5
46
100
AcDbEntity
  8
0
370
    15
390
0
  6
Continuous
 62
     7
100
AcDbLine
 10
20.279043
 20
14.720551
 30
0.0
 11
20.279043
 21
13.220551
 31
0.0
  0
LINE
  5
47
100
AcDbEntity
  8
0
370
    15
390
0
  6
Continuous
 62
     7
100
AcDbLine
 10
20.091543
 20
13.90805
 30
0.0
 11
19.810543
 21
13.908051
 31
0.0
  0
LINE
  5
48
100
AcDbEntity
  8
0
370
    15
390
0
  6
Continuous
 62
     7
100
AcDbLine
 10
20.091543
 20
13.90805
 30
0.0
 11
20.279043
 21
13.90805
 31
0.0
  0
LINE
  5
49
100
AcDbEntity
  8
0
370
    15
390
0
  6
Continuous
 62
     7
100
AcDbLine
 10
20.279043
 20
14.533051
 30
0.0
 11
20.091543
 21
14.533051
 31
0.0
  0
LINE
  5
4A
100
AcDbEntity
  8
0
370
    15
390
0
  6
Continuous
 62
     7
100
AcDbLine
 10
19.810543
 20
14.449551
 30
0.0
 11
19.951043
 21
14.449551
 31
0.0
  0
LINE
  5
4B
100
AcDbEntity
  8
0
370
    15
390
0
  6
Continuous
 62
     7
100
AcDbLine
 10
19.810543
 20
14.178551
 30
0.0
 11
19.951043
 21
14.178551
 31
0.0
  0
LINE
  5
4C
100
AcDbEntity
  8
0
370
    15
390
0
  6
Continuous
 62
     7
100
AcDbLine
 10
19.951043
 20
14.178551
 30
0.0
 11
20.091543
 21
14.178551
 31
0.0
  0
LINE
  5
4D
100
AcDbEntity
  8
0
370
    15
390
0
  6
Continuous
 62
     7
100
AcDbLine
 10
19.951043
 20
14.449551
 30
0.0
 11
20.091543
 21
14.449551
 31
0.0
  0
LINE
  5
4E
100
AcDbEntity
  8
0
370
    15
390
0
  6
Continuous
 62
     7
100
AcDbLine
 10
20.279043
 20
13.220551
 30
0.0
 11
20.279043
 21
11.84555
 31
0.0
  0
LINE
  5
4F
100
AcDbEntity
  8
0
370
    15
390
0
  6
Continuous
 62
     7
100
AcDbLine
 10
20.498043
 20
12.939551
 30
0.0
 11
20.279043
 21
12.939551
 31
0.0
  0
LINE
  5
50
100
AcDbEntity
  8
0
370
    15
390
0
  6
Continuous
 62
     7
100
AcDbLine
 10
24.625624
 20
13.220551
 30
0.0
 11
24.625624
 21
11.84555
 31
0.0
  0
LINE
  5
51
100
AcDbEntity
  8
0
370
    15
390
0
  6
Continuous
 62
     7
100
AcDbLine
 10
24.625624
 20
12.939551
 30
0.0
 11
24.811719
 21
12.939551
 31
0.0
  0
LINE
  5
52
100
AcDbEntity
  8
0
370
    15
390
0
  6
Continuous
 62
     7
100
AcDbLine
 10
24.625624
 20
13.220551
 30
0.0
 11
24.813124
 21
13.220551
 31
0.0
  0
LINE
  5
53
100
AcDbEntity
  8
0
370
    15
390
0
  6
Continuous
 62
     7
100
AcDbLine
 10
19.959378
 20
13.65365
 30
0.0
 11
19.897513
 21
13.5099
 31
0.0
  0
ARC
  5
54
100
AcDbEntity
  8
0
370
    15
390
0
  6
Continuous
 62
     7
100
AcDbCircle
 10
20.047624
 20
13.445298
 30
0.0
 40
0.163422
100
AcDbArc
 50
156.690426
 51
236.832239
  0
ARC
  5
55
100
AcDbEntity
  8
0
370
    15
390
0
  6
Continuous
 62
     7
100
AcDbCircle
 10
19.804926
 20
13.704951
 30
0.0
 40
0.162749
100
AcDbArc
 50
341.621748
 51
418.314135
  0
LINE
  5
56
100
AcDbEntity
  8
0
370
    15
390
0
  6
Continuous
 62
     7
100
AcDbLine
 10
19.958006
 20
13.589899
 30
0.0
 11
19.91066
 21
13.614588
 31
0.0
  0
LINE
  5
57
100
AcDbEntity
  8
0
370
    15
390
0
  6
Continuous
 62
     7
100
AcDbLine
 10
19.9443
 20
13.560466
 30
0.0
 11
19.898745
 21
13.586149
 31
0.0
  0
LINE
  5
58
100
AcDbEntity
  8
0
370
    15
390
0
  6
Continuous
 62
     7
100
AcDbLine
 10
20.022338
 20
14.682107
 30
0.0
 11
19.975517
 21
14.682107
 31
0.0
  0
ARC
  5
59
100
AcDbEntity
  8
0
370
    15
390
0
  6
Continuous
 62
     7
100
AcDbCircle
 10
19.998927
 20
14.670432
 30
0.0
 40
0.02616
100
AcDbArc
 50
153.493524
 51
386.506476
  0
LINE
  5
5A
100
AcDbEntity
  8
0
370
    15
390
0
  6
Continuous
 62
     7
100
AcDbLine
 10
20.025158
 20
14.603567
 30
0.0
 11
19.972696
 21
14.577411
 31
0.0
  0
LINE
  5
5B
100
AcDbEntity
  8
0
370
    15
390
0
  6
Continuous
 62
     7
100
AcDbLine
 10
19.972696
 20
14.577411
 30
0.0
 11
19.999745
 21
14.619574
 31
0.0
  0
LINE
  5
5C
100
AcDbEntity
  8
0
370
    15
390
0
  6
Continuous
 62
     7
100
AcDbLine
 10
20.025158
 20
14.603567
 30
0.0
 11
19.972696
 21
14.636611
 31
0.0
  0
LINE
  5
5D
100
AcDbEntity
  8
0
370
    15
390
0
  6
Continuous
 62
     7
100
AcDbLine
 10
19.998267
 20
14.562132
 30
0.0
 11
19.998267
 21
14.518856
 31
0.0
  0
LINE
  5
5E
100
AcDbEntity
  8
0
370
    15
390
0
  6
Continuous
 62
     7
100
AcDbLine
 10
20.025068
 20
14.533025
 30
0.0
 11
19.998267
 21
14.562132
 31
0.0
  0
LINE
  5
5F
100
AcDbEntity
  8
0
370
    15
390
0
  6
Continuous
 62
     7
100
AcDbLine
 10
19.998267
 20
14.518856
 30
0.0
 11
19.972696
 21
14.545281
 31
0.0
  0
LINE
  5
60
100
AcDbEntity
  8
1
370
    15
390
0
  6
Continuous
 62
     1
100
AcDbLine
 10
22.956075
 20
16.895041
 30
0.0
 11
22.956076
 21
16.239039
 31
0.0
  0
LINE
  5
61
100
AcDbEntity
  8
1
370
    15
390
0
  6
Continuous
 62
     1
100
AcDbLine
 10
22.870075
 20
15.139041
 30
0.0
 11
22.892077
 21
15.16104
 31
0.0
  0
LINE
  5
62
100
AcDbEntity
  8
1
370
    15
390
0
  6
Continuous
 62
     1
100
AcDbLine
 10
22.870074
 20
14.856539
 30
0.0
 11
22.870075
 21
15.139041
 31
0.0
  0
LINE
  5
63
100
AcDbEntity
  8
1
370
    15
390
0
  6
Continuous
 62
     1
100
AcDbLine
 10
22.932076
 20
16.219039
 30
0.0
 11
22.932076
 21
16.083041
 31
0.0
  0
ARC
  5
64
100
AcDbEntity
  8
1
370
    15
390
0
  6
Continuous
 62
     1
100
AcDbCircle
 10
22.952073
 20
16.219041
 30
0.0
 40
0.019998
100
AcDbArc
 50
89.997017
 51
180.008447
  0
LINE
  5
65
100
AcDbEntity
  8
1
370
    15
390
0
  6
Continuous
 62
     1
100
AcDbLine
 10
22.892077
 20
16.04304
 30
0.0
 11
22.932076
 21
16.083041
 31
0.0
  0
LINE
  5
66
100
AcDbEntity
  8
1
370
    15
390
0
  6
Continuous
 62
     1
100
AcDbLine
 10
22.892077
 20
15.16104
 30
0.0
 11
22.892077
 21
16.04304
 31
0.0
  0
LINE
  5
67
100
AcDbEntity
  8
2
370
    15
390
0
  6
Continuous
 62
     7
100
AcDbLine
 10
22.956076
 20
16.583039
 30
0.0
 11
22.528076
 21
16.583039
 31
0.0
  0
LINE
  5
68
100
AcDbEntity
  8
2
370
    15
390
0
  6
Continuous
 62
     7
100
AcDbLine
 10
22.894077
 20
16.566426
 30
0.0
 11
22.956076
 21
16.583039
 31
0.0
  0
LINE
  5
69
100
AcDbEntity
  8
2
370
    15
390
0
  6
Continuous
 62
     7
100
AcDbLine
 10
22.894076
 20
16.305652
 30
0.0
 11
22.956076
 21
16.289039
 31
0.0
  0
LINE
  5
6A
100
AcDbEntity
  8
2
370
    15
390
0
  6
Continuous
 62
     7
100
AcDbLine
 10
22.933076
 20
16.239039
 30
0.0
 11
22.933076
 21
16.19204
 31
0.0
  0
LINE
  5
6B
100
AcDbEntity
  8
2
370
    15
390
0
  6
Continuous
 62
     7
100
AcDbLine
 10
22.879075
 20
16.19204
 30
0.0
 11
22.879075
 21
16.06704
 31
0.0
  0
LINE
  5
6C
100
AcDbEntity
  8
2
370
    15
390
0
  6
Continuous
 62
     7
100
AcDbLine
 10
22.919075
 20
15.787039
 30
0.0
 11
22.871076
 21
15.739039
 31
0.0
  0
LINE
  5
6D
100
AcDbEntity
  8
2
370
    15
390
0
  6
Continuous
 62
     7
100
AcDbLine
 10
22.919075
 20
16.043946
 30
0.0
 11
22.919075
 21
15.787039
 31
0.0
  0
LINE
  5
6E
100
AcDbEntity
  8
2
370
    15
390
0
  6
Continuous
 62
     7
100
AcDbLine
 10
22.919075
 20
16.043946
 30
0.0
 11
22.879075
 21
16.06704
 31
0.0
  0
LINE
  5
6F
100
AcDbEntity
  8
2
370
    15
390
0
  6
Continuous
 62
     7
100
AcDbLine
 10
22.871076
 20
15.739039
 30
0.0
 11
22.871076
 21
15.561041
 31
0.0
  0
LINE
  5
70
100
AcDbEntity
  8
2
370
    15
390
0
  6
Continuous
 62
     7
100
AcDbLine
 10
22.871076
 20
15.561041
 30
0.0
 11
22.861076
 21
15.551039
 31
0.0
  0
LINE
  5
71
100
AcDbEntity
  8
2
370
    15
390
0
  6
Continuous
 62
     7
100
AcDbLine
 10
22.560576
 20
15.60904
 30
0.0
 11
22.560576
 21
15.649039
 31
0.0
  0
LINE
  5
72
100
AcDbEntity
  8
2
370
    15
390
0
  6
Continuous
 62
     7
100
AcDbLine
 10
22.660934
 20
15.60904
 30
0.0
 11
22.660934
 21
15.649039
 31
0.0
  0
LINE
  5
73
100
AcDbEntity
  8
2
370
    15
390
0
  6
Continuous
 62
     7
100
AcDbLine
 10
22.956076
 20
16.289039
 30
0.0
 11
22.956076
 21
16.239039
 31
0.0
  0
LINE
  5
74
100
AcDbEntity
  8
2
370
    15
390
0
  6
Continuous
 62
     7
100
AcDbLine
 10
22.902076
 20
16.633039
 30
0.0
 11
22.926803
 21
16.633039
 31
0.0
  0
LINE
  5
75
100
AcDbEntity
  8
2
370
    15
390
0
  6
Continuous
 62
     7
100
AcDbLine
 10
22.956076
 20
16.633039
 30
0.0
 11
22.956076
 21
16.583039
 31
0.0
  0
LINE
  5
76
100
AcDbEntity
  8
2
370
    15
390
0
  6
Continuous
 62
     7
100
AcDbLine
 10
22.902076
 20
16.833041
 30
0.0
 11
22.902076
 21
16.633039
 31
0.0
  0
LINE
  5
77
100
AcDbEntity
  8
2
370
    15
390
0
  6
Continuous
 62
     7
100
AcDbLine
 10
23.015892
 20
17.98382
 30
0.0
 11
22.954892
 21
18.019037
 31
0.0
  0
LINE
  5
78
100
AcDbEntity
  8
2
370
    15
390
0
  6
Continuous
 62
     7
100
AcDbLine
 10
22.954892
 20
18.019037
 30
0.0
 11
22.900892
 21
18.019037
 31
0.0
  0
ARC
  5
79
100
AcDbEntity
  8
2
370
    15
390
0
  6
Continuous
 62
     7
100
AcDbCircle
 10
22.906093
 20
17.830264
 30
0.0
 40
0.188773
100
AcDbArc
 50
54.433534
 51
125.566466
  0
LINE
  5
7A
100
AcDbEntity
  8
2
370
    15
390
0
  6
Continuous
 62
     7
100
AcDbLine
 10
22.796293
 20
17.98382
 30
0.0
 11
22.744311
 21
17.983576
 31
0.0
  0
ARC
  5
7B
100
AcDbEntity
  8
2
370
    15
390
0
  6
Continuous
 62
     7
100
AcDbCircle
 10
22.906091
 20
17.680353
 30
0.0
 40
0.129315
100
AcDbArc
 50
211.889383
 51
301.892559
  0
LINE
  5
7C
100
AcDbEntity
  8
2
370
    15
390
0
  6
Continuous
 62
     7
100
AcDbLine
 10
22.796293
 20
17.612038
 30
0.0
 11
22.796293
 21
17.98382
 31
0.0
  0
LINE
  5
7D
100
AcDbEntity
  8
2
370
    15
390
0
  6
Continuous
 62
     7
100
AcDbLine
 10
22.744311
 20
17.612038
 30
0.0
 11
22.744311
 21
17.983576
 31
0.0
  0
LINE
  5
7E
100
AcDbEntity
  8
2
370
    15
390
0
  6
Continuous
 62
     7
100
AcDbLine
 10
22.796293
 20
17.612038
 30
0.0
 11
22.744311
 21
17.612038
 31
0.0
  0
LINE
  5
7F
100
AcDbEntity
  8
2
370
    15
390
0
  6
Continuous
 62
     7
100
AcDbLine
 10
22.854326
 20
14.864041
 30
0.0
 11
22.870325
 21
14.88004
 31
0.0
  0
LINE
  5
80
100
AcDbEntity
  8
2
370
    15
390
0
  6
Continuous
 62
     7
100
AcDbLine
 10
22.870325
 20
14.93104
 30
0.0
 11
22.870325
 21
14.88004
 31
0.0
  0
LINE
  5
81
100
AcDbEntity
  8
2
370
    15
390
0
  6
Continuous
 62
     7
100
AcDbLine
 10
22.816076
 20
15.071539
 30
0.0
 11
22.816076
 21
14.93104
 31
0.0
  0
LINE
  5
82
100
AcDbEntity
  8
2
370
    15
390
0
  6
Continuous
 62
     7
100
AcDbLine
 10
22.870325
 20
15.145041
 30
0.0
 11
22.870325
 21
15.071539
 31
0.0
  0
ELLIPSE
  5
83
100
AcDbEntity
  8
2
370
    15
390
0
  6
Continuous
 62
     7
100
AcDbEllipse
 10
22.668201
 20
15.475039
 30
0.0
 11
0.0
 21
-0.0779991149902344
 31
0.0
210
0.0
220
0.0
230
1.0
 40
0.530383
 41
0.0
 42
6.2831853071795862
  0
LINE
  5
84
100
AcDbEntity
  8
2
370
    15
390
0
  6
Continuous
 62
     7
100
AcDbLine
 10
22.661366
 20
15.475039
 30
0.0
 11
22.675036
 21
15.475039
 31
0.0
  0
LINE
  5
85
100
AcDbEntity
  8
2
370
    15
390
0
  6
Continuous
 62
     7
100
AcDbLine
 10
22.668201
 20
15.481875
 30
0.0
 11
22.668201
 21
15.468205
 31
0.0
  0
LINE
  5
86
100
AcDbEntity
  8
2
370
    15
390
0
  6
Continuous
 62
     7
100
AcDbLine
 10
22.684682
 20
15.475039
 30
0.0
 11
22.717068
 21
15.475039
 31
0.0
  0
LINE
  5
87
100
AcDbEntity
  8
2
370
    15
390
0
  6
Continuous
 62
     7
100
AcDbLine
 10
22.651719
 20
15.475039
 30
0.0
 11
22.619333
 21
15.475039
 31
0.0
  0
LINE
  5
88
100
AcDbEntity
  8
2
370
    15
390
0
  6
Continuous
 62
     7
100
AcDbLine
 10
22.668201
 20
15.56185
 30
0.0
 11
22.668201
 21
15.491522
 31
0.0
  0
LINE
  5
89
100
AcDbEntity
  8
2
370
    15
390
0
  6
Continuous
 62
     7
100
AcDbLine
 10
22.668201
 20
15.387934
 30
0.0
 11
22.668201
 21
15.45856
 31
0.0
  0
LINE
  5
8A
100
AcDbEntity
  8
2
370
    15
390
0
  6
Continuous
 62
     7
100
AcDbLine
 10
22.808326
 20
15.39704
 30
0.0
 11
22.808326
 21
15.145041
 31
0.0
  0
ARC
  5
8B
100
AcDbEntity
  8
2
370
    15
390
0
  6
Continuous
 62
     7
100
AcDbCircle
 10
23.083144
 20
15.47504
 30
0.0
 40
0.285672
100
AcDbArc
 50
164.571368
 51
195.845185
  0
LINE
  5
8C
100
AcDbEntity
  8
2
370
    15
390
0
  6
Continuous
 62
     7
100
AcDbLine
 10
22.816076
 20
15.061179
 30
0.0
 11
22.869075
 21
15.061179
 31
0.0
  0
LINE
  5
8D
100
AcDbEntity
  8
2
370
    15
390
0
  6
Continuous
 62
     7
100
AcDbLine
 10
22.869075
 20
15.061179
 30
0.0
 11
22.869075
 21
15.022179
 31
0.0
  0
ARC
  5
8E
100
AcDbEntity
  8
2
370
    15
390
0
  6
Continuous
 62
     7
100
AcDbCircle
 10
22.859079
 20
15.022175
 30
0.0
 40
0.009996
100
AcDbArc
 50
269.976155
 51
360.023845
  0
ARC
  5
8F
100
AcDbEntity
  8
2
370
    15
390
0
  6
Continuous
 62
     7
100
AcDbCircle
 10
22.826075
 20
15.022178
 30
0.0
 40
0.009999
100
AcDbArc
 50
179.994807
 51
270.0
  0
LINE
  5
90
100
AcDbEntity
  8
2
370
    15
390
0
  6
Continuous
 62
     7
100
AcDbLine
 10
22.816076
 20
15.061179
 30
0.0
 11
22.816076
 21
15.022179
 31
0.0
  0
ARC
  5
91
100
AcDbEntity
  8
2
370
    15
390
0
  6
Continuous
 62
     7
100
AcDbCircle
 10
22.842575
 20
14.980147
 30
0.0
 40
0.036032
100
AcDbArc
 50
62.747148
 51
117.252852
  0
LINE
  5
92
100
AcDbEntity
  8
2
370
    15
390
0
  6
Continuous
 62
     7
100
AcDbLine
 10
22.879076
 20
16.068869
 30
0.0
 11
22.932076
 21
16.068869
 31
0.0
  0
LINE
  5
93
100
AcDbEntity
  8
2
370
    15
390
0
  6
Continuous
 62
     7
100
AcDbLine
 10
22.932076
 20
16.068869
 30
0.0
 11
22.932076
 21
16.107867
 31
0.0
  0
ARC
  5
94
100
AcDbEntity
  8
2
370
    15
390
0
  6
Continuous
 62
     7
100
AcDbCircle
 10
22.922076
 20
16.10787
 30
0.0
 40
0.009999
100
AcDbArc
 50
359.983882
 51
450.0
  0
ARC
  5
95
100
AcDbEntity
  8
2
370
    15
390
0
  6
Continuous
 62
     7
100
AcDbCircle
 10
22.889079
 20
16.107866
 30
0.0
 40
0.010003
100
AcDbArc
 50
90.013463
 51
179.997464
  0
LINE
  5
96
100
AcDbEntity
  8
2
370
    15
390
0
  6
Continuous
 62
     7
100
AcDbLine
 10
22.879076
 20
16.068869
 30
0.0
 11
22.879076
 21
16.107867
 31
0.0
  0
ARC
  5
97
100
AcDbEntity
  8
2
370
    15
390
0
  6
Continuous
 62
     7
100
AcDbCircle
 10
22.905576
 20
16.149884
 30
0.0
 40
0.036016
100
AcDbArc
 50
242.734636
 51
297.265364
  0
LINE
  5
98
100
AcDbEntity
  8
2
370
    15
390
0
  6
Continuous
 62
     7
100
AcDbLine
 10
22.902076
 20
16.822012
 30
0.0
 11
22.955075
 21
16.822012
 31
0.0
  0
LINE
  5
99
100
AcDbEntity
  8
2
370
    15
390
0
  6
Continuous
 62
     7
100
AcDbLine
 10
22.955075
 20
16.822012
 30
0.0
 11
22.955075
 21
16.783011
 31
0.0
  0
ARC
  5
9A
100
AcDbEntity
  8
2
370
    15
390
0
  6
Continuous
 62
     7
100
AcDbCircle
 10
22.945083
 20
16.783005
 30
0.0
 40
0.009993
100
AcDbArc
 50
269.957498
 51
360.031573
  0
ARC
  5
9B
100
AcDbEntity
  8
2
370
    15
390
0
  6
Continuous
 62
     7
100
AcDbCircle
 10
22.912072
 20
16.783008
 30
0.0
 40
0.009996
100
AcDbArc
 50
179.987077
 51
270.023852
  0
LINE
  5
9C
100
AcDbEntity
  8
2
370
    15
390
0
  6
Continuous
 62
     7
100
AcDbLine
 10
22.902076
 20
16.822012
 30
0.0
 11
22.902076
 21
16.783011
 31
0.0
  0
ARC
  5
9D
100
AcDbEntity
  8
2
370
    15
390
0
  6
Continuous
 62
     7
100
AcDbCircle
 10
22.928576
 20
16.740963
 30
0.0
 40
0.036047
100
AcDbArc
 50
62.75966
 51
117.24034
  0
LINE
  5
9E
100
AcDbEntity
  8
2
370
    15
390
0
  6
Continuous
 62
     7
100
AcDbLine
 10
22.526893
 20
17.75683
 30
0.0
 11
22.526893
 21
17.844832
 31
0.0
  0
LINE
  5
9F
100
AcDbEntity
  8
2
370
    15
390
0
  6
Continuous
 62
     7
100
AcDbLine
 10
22.528075
 20
17.101832
 30
0.0
 11
22.528075
 21
15.721079
 31
0.0
  0
LINE
  5
A0
100
AcDbEntity
  8
2
370
    15
390
0
  6
Continuous
 62
     7
100
AcDbLine
 10
22.528075
 20
15.509079
 30
0.0
 11
22.528075
 21
14.814608
 31
0.0
  0
LINE
  5
A1
100
AcDbEntity
  8
2
370
    15
390
0
  6
Continuous
 62
     7
100
AcDbLine
 10
22.526892
 20
18.11792
 30
0.0
 11
22.526892
 21
17.906828
 31
0.0
  0
LINE
  5
A2
100
AcDbEntity
  8
2
370
    15
390
0
  6
Continuous
 62
     7
100
AcDbLine
 10
22.894077
 20
16.305652
 30
0.0
 11
22.894078
 21
16.566426
 31
0.0
  0
LINE
  5
A3
100
AcDbEntity
  8
2
370
    15
390
0
  6
Continuous
 62
     7
100
AcDbLine
 10
22.902076
 20
16.644067
 30
0.0
 11
22.955075
 21
16.644067
 31
0.0
  0
LINE
  5
A4
100
AcDbEntity
  8
2
370
    15
390
0
  6
Continuous
 62
     7
100
AcDbLine
 10
22.955075
 20
16.644067
 30
0.0
 11
22.955075
 21
16.683069
 31
0.0
  0
ARC
  5
A5
100
AcDbEntity
  8
2
370
    15
390
0
  6
Continuous
 62
     7
100
AcDbCircle
 10
22.945083
 20
16.683074
 30
0.0
 40
0.009993
100
AcDbArc
 50
359.968427
 51
450.042502
  0
ARC
  5
A6
100
AcDbEntity
  8
2
370
    15
390
0
  6
Continuous
 62
     7
100
AcDbCircle
 10
22.912072
 20
16.683071
 30
0.0
 40
0.009996
100
AcDbArc
 50
89.976148
 51
180.012923
  0
LINE
  5
A7
100
AcDbEntity
  8
2
370
    15
390
0
  6
Continuous
 62
     7
100
AcDbLine
 10
22.902076
 20
16.644067
 30
0.0
 11
22.902076
 21
16.683069
 31
0.0
  0
ARC
  5
A8
100
AcDbEntity
  8
2
370
    15
390
0
  6
Continuous
 62
     7
100
AcDbCircle
 10
22.928576
 20
16.725116
 30
0.0
 40
0.036047
100
AcDbArc
 50
242.75966
 51
297.24034
  0
LINE
  5
A9
100
AcDbEntity
  8
2
370
    15
390
0
  6
Continuous
 62
     7
100
AcDbLine
 10
22.956076
 20
16.882416
 30
0.0
 11
22.528076
 21
16.882416
 31
0.0
  0
LINE
  5
AA
100
AcDbEntity
  8
2
370
    15
390
0
  6
Continuous
 62
     7
100
AcDbLine
 10
22.956075
 20
16.882416
 30
0.0
 11
22.956076
 21
16.833041
 31
0.0
  0
LINE
  5
AB
100
AcDbEntity
  8
2
370
    15
390
0
  6
Continuous
 62
     7
100
AcDbLine
 10
22.902076
 20
16.896885
 30
0.0
 11
22.956076
 21
16.882416
 31
0.0
  0
LINE
  5
AC
100
AcDbEntity
  8
2
370
    15
390
0
  6
Continuous
 62
     7
100
AcDbLine
 10
22.916576
 20
17.326869
 30
0.0
 11
22.969575
 21
17.326869
 31
0.0
  0
LINE
  5
AD
100
AcDbEntity
  8
2
370
    15
390
0
  6
Continuous
 62
     7
100
AcDbLine
 10
22.969575
 20
17.326869
 30
0.0
 11
22.969575
 21
17.287868
 31
0.0
  0
ARC
  5
AE
100
AcDbEntity
  8
2
370
    15
390
0
  6
Continuous
 62
     7
100
AcDbCircle
 10
22.959582
 20
17.287862
 30
0.0
 40
0.009993
100
AcDbArc
 50
269.957498
 51
360.031573
  0
ARC
  5
AF
100
AcDbEntity
  8
2
370
    15
390
0
  6
Continuous
 62
     7
100
AcDbCircle
 10
22.926572
 20
17.287865
 30
0.0
 40
0.009996
100
AcDbArc
 50
179.987077
 51
270.023852
  0
LINE
  5
B0
100
AcDbEntity
  8
2
370
    15
390
0
  6
Continuous
 62
     7
100
AcDbLine
 10
22.916576
 20
17.326869
 30
0.0
 11
22.916576
 21
17.287868
 31
0.0
  0
ARC
  5
B1
100
AcDbEntity
  8
2
370
    15
390
0
  6
Continuous
 62
     7
100
AcDbCircle
 10
22.943075
 20
17.24582
 30
0.0
 40
0.036047
100
AcDbArc
 50
62.75966
 51
117.24034
  0
LINE
  5
B2
100
AcDbEntity
  8
2
370
    15
390
0
  6
Continuous
 62
     7
100
AcDbLine
 10
23.015892
 20
17.594855
 30
0.0
 11
23.015892
 21
17.98382
 31
0.0
  0
LINE
  5
B3
100
AcDbEntity
  8
2
370
    15
390
0
  6
Continuous
 62
     7
100
AcDbLine
 10
22.526892
 20
18.019037
 30
0.0
 11
22.900892
 21
18.019037
 31
0.0
  0
ARC
  5
B4
100
AcDbEntity
  8
2
370
    15
390
0
  6
Continuous
 62
     7
100
AcDbCircle
 10
22.526516
 20
17.332519
 30
0.0
 40
0.686519
100
AcDbArc
 50
71.792455
 51
89.968657
  0
ARC
  5
B5
100
AcDbEntity
  8
2
370
    15
390
0
  6
Continuous
 62
     7
100
AcDbCircle
 10
22.526895
 20
17.968987
 30
0.0
 40
0.41795
100
AcDbArc
 50
270.040767
 51
301.345357
  0
LINE
  5
B6
100
AcDbEntity
  8
2
370
    15
390
0
  6
Continuous
 62
     7
100
AcDbLine
 10
22.972076
 20
17.551039
 30
0.0
 11
22.527192
 21
17.551039
 31
0.0
  0
LINE
  5
B7
100
AcDbEntity
  8
2
370
    15
390
0
  6
Continuous
 62
     7
100
AcDbLine
 10
22.528075
 20
16.833041
 30
0.0
 11
22.956076
 21
16.833041
 31
0.0
  0
LINE
  5
B8
100
AcDbEntity
  8
2
370
    15
390
0
  6
Continuous
 62
     7
100
AcDbLine
 10
22.528075
 20
16.633039
 30
0.0
 11
22.956076
 21
16.633039
 31
0.0
  0
LINE
  5
B9
100
AcDbEntity
  8
2
370
    15
390
0
  6
Continuous
 62
     7
100
AcDbLine
 10
22.528075
 20
16.566426
 30
0.0
 11
22.894077
 21
16.566426
 31
0.0
  0
LINE
  5
BA
100
AcDbEntity
  8
2
370
    15
390
0
  6
Continuous
 62
     7
100
AcDbLine
 10
22.528075
 20
16.305653
 30
0.0
 11
22.894076
 21
16.305652
 31
0.0
  0
LINE
  5
BB
100
AcDbEntity
  8
2
370
    15
390
0
  6
Continuous
 62
     7
100
AcDbLine
 10
22.528075
 20
16.289039
 30
0.0
 11
22.956076
 21
16.289039
 31
0.0
  0
LINE
  5
BC
100
AcDbEntity
  8
2
370
    15
390
0
  6
Continuous
 62
     7
100
AcDbLine
 10
22.528075
 20
16.239039
 30
0.0
 11
22.956076
 21
16.239039
 31
0.0
  0
LINE
  5
BD
100
AcDbEntity
  8
2
370
    15
390
0
  6
Continuous
 62
     7
100
AcDbLine
 10
22.528075
 20
16.19204
 30
0.0
 11
22.933076
 21
16.19204
 31
0.0
  0
LINE
  5
BE
100
AcDbEntity
  8
2
370
    15
390
0
  6
Continuous
 62
     7
100
AcDbLine
 10
22.528075
 20
16.06704
 30
0.0
 11
22.879075
 21
16.06704
 31
0.0
  0
LINE
  5
BF
100
AcDbEntity
  8
2
370
    15
390
0
  6
Continuous
 62
     7
100
AcDbLine
 10
22.528075
 20
16.043946
 30
0.0
 11
22.919075
 21
16.043946
 31
0.0
  0
LINE
  5
C0
100
AcDbEntity
  8
2
370
    15
390
0
  6
Continuous
 62
     7
100
AcDbLine
 10
22.528075
 20
15.787039
 30
0.0
 11
22.919075
 21
15.787039
 31
0.0
  0
LINE
  5
C1
100
AcDbEntity
  8
2
370
    15
390
0
  6
Continuous
 62
     7
100
AcDbLine
 10
22.528075
 20
15.739039
 30
0.0
 11
22.871076
 21
15.739039
 31
0.0
  0
LINE
  5
C2
100
AcDbEntity
  8
2
370
    15
390
0
  6
Continuous
 62
     7
100
AcDbLine
 10
22.528075
 20
15.145041
 30
0.0
 11
22.870325
 21
15.145041
 31
0.0
  0
LINE
  5
C3
100
AcDbEntity
  8
2
370
    15
390
0
  6
Continuous
 62
     7
100
AcDbLine
 10
22.528075
 20
15.071539
 30
0.0
 11
22.870325
 21
15.071539
 31
0.0
  0
LINE
  5
C4
100
AcDbEntity
  8
2
370
    15
390
0
  6
Continuous
 62
     7
100
AcDbLine
 10
22.528075
 20
14.93104
 30
0.0
 11
22.870325
 21
14.93104
 31
0.0
  0
LINE
  5
C5
100
AcDbEntity
  8
2
370
    15
390
0
  6
Continuous
 62
     7
100
AcDbLine
 10
22.528075
 20
14.88004
 30
0.0
 11
22.870325
 21
14.88004
 31
0.0
  0
LINE
  5
C6
100
AcDbEntity
  8
2
370
    15
390
0
  6
Continuous
 62
     7
100
AcDbLine
 10
22.528075
 20
14.864042
 30
0.0
 11
22.854326
 21
14.864041
 31
0.0
  0
LINE
  5
C7
100
AcDbEntity
  8
2
370
    15
390
0
  6
Continuous
 62
     7
100
AcDbLine
 10
22.528075
 20
15.551039
 30
0.0
 11
22.861076
 21
15.551039
 31
0.0
  0
LINE
  5
C8
100
AcDbEntity
  8
2
370
    15
390
0
  6
Continuous
 62
     7
100
AcDbLine
 10
22.528075
 20
15.561041
 30
0.0
 11
22.871076
 21
15.561041
 31
0.0
  0
LINE
  5
C9
100
AcDbEntity
  8
2
370
    15
390
0
  6
Continuous
 62
     7
100
AcDbLine
 10
22.528075
 20
15.60904
 30
0.0
 11
22.660934
 21
15.60904
 31
0.0
  0
LINE
  5
CA
100
AcDbEntity
  8
2
370
    15
390
0
  6
Continuous
 62
     7
100
AcDbLine
 10
22.528075
 20
15.649039
 30
0.0
 11
22.660934
 21
15.649039
 31
0.0
  0
LINE
  5
CB
100
AcDbEntity
  8
1
370
    15
390
0
  6
Continuous
 62
     7
100
AcDbLine
 10
22.184076
 20
15.139041
 30
0.0
 11
22.162074
 21
15.16104
 31
0.0
  0
LINE
  5
CC
100
AcDbEntity
  8
1
370
    15
390
0
  6
Continuous
 62
     7
100
AcDbLine
 10
22.184076
 20
14.856539
 30
0.0
 11
22.184076
 21
15.139041
 31
0.0
  0
LINE
  5
CD
100
AcDbEntity
  8
1
370
    15
390
0
  6
Continuous
 62
     7
100
AcDbLine
 10
22.162074
 20
16.04304
 30
0.0
 11
22.122075
 21
16.083041
 31
0.0
  0
LINE
  5
CE
100
AcDbEntity
  8
1
370
    15
390
0
  6
Continuous
 62
     7
100
AcDbLine
 10
22.162074
 20
15.16104
 30
0.0
 11
22.162074
 21
16.04304
 31
0.0
  0
LINE
  5
CF
100
AcDbEntity
  8
1
370
    15
390
0
  6
Continuous
 62
     7
100
AcDbLine
 10
22.528075
 20
16.668913
 30
0.0
 11
22.528075
 21
16.545607
 31
0.0
  0
LINE
  5
D0
100
AcDbEntity
  8
1
370
    15
390
0
  6
Continuous
 62
     7
100
AcDbLine
 10
22.528075
 20
16.471625
 30
0.0
 11
22.528075
 21
15.756457
 31
0.0
  0
LINE
  5
D1
100
AcDbEntity
  8
1
370
    15
390
0
  6
Continuous
 62
     7
100
AcDbLine
 10
22.528075
 20
15.682471
 30
0.0
 11
22.528075
 21
15.571497
 31
0.0
  0
LINE
  5
D2
100
AcDbEntity
  8
1
370
    15
390
0
  6
Continuous
 62
     7
100
AcDbLine
 10
22.528075
 20
15.497515
 30
0.0
 11
22.528075
 21
14.363106
 31
0.0
  0
LINE
  5
D3
100
AcDbEntity
  8
1
370
    15
390
0
  6
Continuous
 62
     7
100
AcDbLine
 10
22.122075
 20
16.219988
 30
0.0
 11
22.122075
 21
16.083041
 31
0.0
  0
LINE
  5
D4
100
AcDbEntity
  8
1
370
    15
390
0
  6
Continuous
 62
     7
100
AcDbLine
 10
22.098075
 20
16.895041
 30
0.0
 11
22.098075
 21
16.239039
 31
0.0
  0
LINE
  5
D5
100
AcDbEntity
  8
1
370
    15
390
0
  6
Continuous
 62
     7
100
AcDbLine
 10
22.083076
 20
17.39488
 30
0.0
 11
22.028075
 21
17.449881
 31
0.0
  0
LINE
  5
D6
100
AcDbEntity
  8
2
370
    15
390
0
  6
Continuous
 62
     7
100
AcDbLine
 10
22.528075
 20
17.101832
 30
0.0
 11
22.526892
 21
17.703854
 31
0.0
  0
LINE
  5
D7
100
AcDbEntity
  8
2
370
    15
390
0
  6
Continuous
 62
     7
100
AcDbLine
 10
22.902076
 20
17.126283
 30
0.0
 11
22.902076
 21
16.896885
 31
0.0
  0
LINE
  5
D8
100
AcDbEntity
  8
2
370
    15
390
0
  6
Continuous
 62
     7
100
AcDbLine
 10
22.916576
 20
17.333039
 30
0.0
 11
22.916576
 21
17.193039
 31
0.0
  0
ARC
  5
D9
100
AcDbEntity
  8
2
370
    15
390
0
  6
Continuous
 62
     1
100
AcDbCircle
 10
22.974471
 20
17.237584
 30
0.0
 40
0.057895
100
AcDbArc
 50
137.175854
 51
222.824146
  0
LINE
  5
DA
100
AcDbEntity
  8
2
370
    15
390
0
  6
Continuous
 62
     7
100
AcDbLine
 10
22.902076
 20
17.126283
 30
0.0
 11
22.528075
 21
17.126283
 31
0.0
  0
LINE
  5
DB
100
AcDbEntity
  8
2
370
    15
390
0
  6
Continuous
 62
     7
100
AcDbLine
 10
22.902076
 20
16.896885
 30
0.0
 11
22.528075
 21
16.896885
 31
0.0
  0
ARC
  5
DC
100
AcDbEntity
  8
2
370
    15
390
0
  6
Continuous
 62
     1
100
AcDbCircle
 10
22.929076
 20
16.76136
 30
0.0
 40
0.015772
100
AcDbArc
 50
42.825771
 51
137.174229
  0
ARC
  5
DD
100
AcDbEntity
  8
2
370
    15
390
0
  6
Continuous
 62
     1
100
AcDbCircle
 10
22.929076
 20
16.704094
 30
0.0
 40
0.015772
100
AcDbArc
 50
222.825771
 51
317.174229
  0
ARC
  5
DE
100
AcDbEntity
  8
2
370
    15
390
0
  6
Continuous
 62
     1
100
AcDbCircle
 10
22.959971
 20
16.732727
 30
0.0
 40
0.057895
100
AcDbArc
 50
137.175854
 51
222.824146
  0
ARC
  5
DF
100
AcDbEntity
  8
2
370
    15
390
0
  6
Continuous
 62
     1
100
AcDbCircle
 10
22.898177
 20
16.732727
 30
0.0
 40
0.057898
100
AcDbArc
 50
317.178261
 51
402.821739
  0
ARC
  5
E0
100
AcDbEntity
  8
2
370
    15
390
0
  6
Continuous
 62
     1
100
AcDbCircle
 10
22.929076
 20
16.704719
 30
0.0
 40
0.015772
100
AcDbArc
 50
222.825771
 51
317.174229
  0
LINE
  5
E1
100
AcDbEntity
  8
2
370
    15
390
0
  6
Continuous
 62
     7
100
AcDbLine
 10
22.902076
 20
17.126283
 30
0.0
 11
22.972076
 21
17.145039
 31
0.0
  0
LINE
  5
E2
100
AcDbEntity
  8
2
370
    15
390
0
  6
Continuous
 62
     7
100
AcDbLine
 10
22.972075
 20
17.193039
 30
0.0
 11
22.972076
 21
17.193039
 31
0.0
  0
LINE
  5
E3
100
AcDbEntity
  8
2
370
    15
390
0
  6
Continuous
 62
     7
100
AcDbLine
 10
22.972076
 20
17.145039
 30
0.0
 11
22.972076
 21
17.193039
 31
0.0
  0
ARC
  5
E4
100
AcDbEntity
  8
2
370
    15
390
0
  6
Continuous
 62
     1
100
AcDbCircle
 10
22.943576
 20
17.266217
 30
0.0
 40
0.015772
100
AcDbArc
 50
42.825771
 51
137.174229
  0
ARC
  5
E5
100
AcDbEntity
  8
2
370
    15
390
0
  6
Continuous
 62
     1
100
AcDbCircle
 10
22.943576
 20
17.208951
 30
0.0
 40
0.015772
100
AcDbArc
 50
222.825771
 51
317.174229
  0
ARC
  5
E6
100
AcDbEntity
  8
2
370
    15
390
0
  6
Continuous
 62
     1
100
AcDbCircle
 10
22.912677
 20
17.237584
 30
0.0
 40
0.057898
100
AcDbArc
 50
317.178261
 51
402.821739
  0
ARC
  5
E7
100
AcDbEntity
  8
2
370
    15
390
0
  6
Continuous
 62
     1
100
AcDbCircle
 10
22.943576
 20
17.209576
 30
0.0
 40
0.015772
100
AcDbArc
 50
222.825771
 51
317.174229
  0
LINE
  5
E8
100
AcDbEntity
  8
2
370
    15
390
0
  6
Continuous
 62
     7
100
AcDbLine
 10
22.972076
 20
17.333039
 30
0.0
 11
22.527621
 21
17.333039
 31
0.0
  0
LINE
  5
E9
100
AcDbEntity
  8
2
370
    15
390
0
  6
Continuous
 62
     7
100
AcDbLine
 10
22.972076
 20
17.193039
 30
0.0
 11
22.527896
 21
17.193039
 31
0.0
  0
LINE
  5
EA
100
AcDbEntity
  8
2
370
    15
390
0
  6
Continuous
 62
     7
100
AcDbLine
 10
22.972076
 20
17.145039
 30
0.0
 11
22.527991
 21
17.145039
 31
0.0
  0
LINE
  5
EB
100
AcDbEntity
  8
2
370
    15
390
0
  6
Continuous
 62
     7
100
AcDbLine
 10
22.972076
 20
17.551039
 30
0.0
 11
22.972076
 21
17.333039
 31
0.0
  0
LINE
  5
EC
100
AcDbEntity
  8
2
370
    15
390
0
  6
Continuous
 62
     7
100
AcDbLine
 10
22.974412
 20
17.570559
 30
0.0
 11
22.989268
 21
17.578203
 31
0.0
  0
LINE
  5
ED
100
AcDbEntity
  8
2
370
    15
390
0
  6
Continuous
 62
     7
100
AcDbLine
 10
23.015892
 20
17.594855
 30
0.0
 11
22.972076
 21
17.551039
 31
0.0
  0
LINE
  5
EE
100
AcDbEntity
  8
1
370
    15
390
0
  6
Continuous
 62
     7
100
AcDbLine
 10
22.098075
 20
16.239039
 30
0.0
 11
22.111076
 21
16.239039
 31
0.0
  0
LINE
  5
EF
100
AcDbEntity
  8
1
370
    15
390
0
  6
Continuous
 62
     7
100
AcDbLine
 10
22.122075
 20
16.219988
 30
0.0
 11
22.111076
 21
16.239039
 31
0.0
  0
LINE
  5
F0
100
AcDbEntity
  8
1
370
    15
390
0
  6
Continuous
 62
     7
100
AcDbLine
 10
22.028075
 20
17.449881
 30
0.0
 11
22.028075
 21
18.135716
 31
0.0
  0
LINE
  5
F1
100
AcDbEntity
  8
1
370
    15
390
0
  6
Continuous
 62
     7
100
AcDbLine
 10
22.083076
 20
16.910041
 30
0.0
 11
22.098075
 21
16.895041
 31
0.0
  0
LINE
  5
F2
100
AcDbEntity
  8
1
370
    15
390
0
  6
Continuous
 62
     7
100
AcDbLine
 10
22.083076
 20
16.910041
 30
0.0
 11
22.083076
 21
17.39488
 31
0.0
  0
LINE
  5
F3
100
AcDbEntity
  8
1
370
    15
390
0
  6
Continuous
 62
     1
100
AcDbLine
 10
22.952074
 20
16.239039
 30
0.0
 11
22.956076
 21
16.239039
 31
0.0
  0
ARC
  5
F4
100
AcDbEntity
  8
1
370
    15
390
0
  6
Continuous
 62
     1
100
AcDbCircle
 10
22.905663
 20
16.174824
 30
0.0
 40
0.017216
100
AcDbArc
 50
45.947718
 51
134.052282
  0
ARC
  5
F5
100
AcDbEntity
  8
1
370
    15
390
0
  6
Continuous
 62
     1
100
AcDbCircle
 10
22.905663
 20
16.131039
 30
0.0
 40
0.017216
100
AcDbArc
 50
225.947718
 51
314.052282
  0
ARC
  5
F6
100
AcDbEntity
  8
1
370
    15
390
0
  6
Continuous
 62
     1
100
AcDbCircle
 10
22.926833
 20
16.152932
 30
0.0
 40
0.04767
100
AcDbArc
 50
134.044273
 51
225.955727
  0
ARC
  5
F7
100
AcDbEntity
  8
1
370
    15
390
0
  6
Continuous
 62
     1
100
AcDbCircle
 10
22.884492
 20
16.152932
 30
0.0
 40
0.04767
100
AcDbArc
 50
314.044273
 51
405.955727
  0
LINE
  5
F8
100
AcDbEntity
  8
1
370
    15
390
0
  6
Continuous
 62
     1
100
AcDbLine
 10
22.816076
 20
14.93104
 30
0.0
 11
22.870035
 21
14.93104
 31
0.0
  0
ARC
  5
F9
100
AcDbEntity
  8
1
370
    15
390
0
  6
Continuous
 62
     1
100
AcDbCircle
 10
22.843056
 20
14.999402
 30
0.0
 40
0.016484
100
AcDbArc
 50
44.137909
 51
135.862091
  0
ARC
  5
FA
100
AcDbEntity
  8
1
370
    15
390
0
  6
Continuous
 62
     1
100
AcDbCircle
 10
22.843056
 20
14.947525
 30
0.0
 40
0.016484
100
AcDbArc
 50
224.137909
 51
315.862091
  0
ARC
  5
FB
100
AcDbEntity
  8
1
370
    15
390
0
  6
Continuous
 62
     1
100
AcDbCircle
 10
22.869788
 20
14.973464
 30
0.0
 40
0.053733
100
AcDbArc
 50
135.862913
 51
224.137087
  0
ARC
  5
FC
100
AcDbEntity
  8
1
370
    15
390
0
  6
Continuous
 62
     1
100
AcDbCircle
 10
22.81632
 20
14.973464
 30
0.0
 40
0.053735
100
AcDbArc
 50
315.865421
 51
404.134579
  0
LINE
  5
FD
100
AcDbEntity
  8
1
370
    15
390
0
  6
Continuous
 62
     1
100
AcDbLine
 10
23.214946
 20
15.865038
 30
0.0
 11
22.892077
 21
15.865038
 31
0.0
  0
LINE
  5
FE
100
AcDbEntity
  8
1
370
    15
390
0
  6
Continuous
 62
     1
100
AcDbLine
 10
23.228196
 20
16.205748
 30
0.0
 11
22.892076
 21
15.869628
 31
0.0
  0
LINE
  5
FF
100
AcDbEntity
  8
1
370
    15
390
0
  6
Continuous
 62
     1
100
AcDbLine
 10
23.198159
 20
16.086436
 30
0.0
 11
22.976764
 21
15.865038
 31
0.0
  0
LINE
  5
100
100
AcDbEntity
  8
1
370
    15
390
0
  6
Continuous
 62
     1
100
AcDbLine
 10
23.198474
 20
15.992774
 30
0.0
 11
23.070739
 21
15.865038
 31
0.0
  0
LINE
  5
101
100
AcDbEntity
  8
1
370
    15
390
0
  6
Continuous
 62
     1
100
AcDbLine
 10
23.205759
 20
15.915482
 30
0.0
 11
23.155317
 21
15.865038
 31
0.0
  0
LINE
  5
102
100
AcDbEntity
  8
1
370
    15
390
0
  6
Continuous
 62
     1
100
AcDbLine
 10
23.099311
 20
14.735369
 30
0.0
 11
23.162964
 21
14.799023
 31
0.0
  0
LINE
  5
103
100
AcDbEntity
  8
1
370
    15
390
0
  6
Continuous
 62
     1
100
AcDbLine
 10
22.877346
 20
14.513407
 30
0.0
 11
23.038876
 21
14.674935
 31
0.0
  0
LINE
  5
104
100
AcDbEntity
  8
1
370
    15
390
0
  6
Continuous
 62
     1
100
AcDbLine
 10
22.870074
 20
15.004202
 30
0.0
 11
23.042914
 21
15.177039
 31
0.0
  0
LINE
  5
105
100
AcDbEntity
  8
1
370
    15
390
0
  6
Continuous
 62
     1
100
AcDbLine
 10
22.870325
 20
14.919875
 30
0.0
 11
23.12749
 21
15.177039
 31
0.0
  0
LINE
  5
106
100
AcDbEntity
  8
1
370
    15
390
0
  6
Continuous
 62
     1
100
AcDbLine
 10
22.870075
 20
15.079382
 30
0.0
 11
22.967734
 21
15.177039
 31
0.0
  0
LINE
  5
107
100
AcDbEntity
  8
1
370
    15
390
0
  6
Continuous
 62
     1
100
AcDbLine
 10
22.982772
 20
15.52104
 30
0.0
 11
23.049278
 21
15.52104
 31
0.0
  0
LINE
  5
108
100
AcDbEntity
  8
1
370
    15
390
0
  6
Continuous
 62
     1
100
AcDbLine
 10
22.931045
 20
15.52104
 30
0.0
 11
22.775863
 21
15.52104
 31
0.0
  0
LINE
  5
109
100
AcDbEntity
  8
1
370
    15
390
0
  6
Continuous
 62
     7
100
AcDbLine
 10
22.989268
 20
17.578203
 30
0.0
 11
23.008352
 21
17.589557
 31
0.0
  0
LINE
  5
10A
100
AcDbEntity
  8
1
370
    15
390
0
  6
Continuous
 62
     7
100
AcDbLine
 10
23.008352
 20
17.589557
 30
0.0
 11
23.015892
 21
17.594855
 31
0.0
  0
LINE
  5
10B
100
AcDbEntity
  8
1
370
    15
390
0
  6
Continuous
 62
     1
100
AcDbLine
 10
22.956076
 20
16.270039
 30
0.0
 11
23.23791
 21
16.270039
 31
0.0
  0
LINE
  5
10C
100
AcDbEntity
  8
1
370
    15
390
0
  6
Continuous
 62
     1
100
AcDbLine
 10
23.038756
 20
16.270039
 30
0.0
 11
22.932076
 21
16.163359
 31
0.0
  0
LINE
  5
10D
100
AcDbEntity
  8
1
370
    15
390
0
  6
Continuous
 62
     1
100
AcDbLine
 10
23.118635
 20
16.270039
 30
0.0
 11
22.902885
 21
16.054289
 31
0.0
  0
LINE
  5
10E
100
AcDbEntity
  8
1
370
    15
390
0
  6
Continuous
 62
     1
100
AcDbLine
 10
23.203211
 20
16.270039
 30
0.0
 11
22.892076
 21
15.958903
 31
0.0
  0
LINE
  5
10F
100
AcDbEntity
  8
1
370
    15
390
0
  6
Continuous
 62
     1
100
AcDbLine
 10
23.225223
 20
16.582039
 30
0.0
 11
22.956076
 21
16.582039
 31
0.0
  0
LINE
  5
110
100
AcDbEntity
  8
1
370
    15
390
0
  6
Continuous
 62
     1
100
AcDbLine
 10
23.091618
 20
16.426039
 30
0.0
 11
23.134025
 21
16.426039
 31
0.0
  0
LINE
  5
111
100
AcDbEntity
  8
1
370
    15
390
0
  6
Continuous
 62
     1
100
AcDbLine
 10
23.054683
 20
16.426039
 30
0.0
 11
22.846076
 21
16.426039
 31
0.0
  0
LINE
  5
112
100
AcDbEntity
  8
1
370
    15
390
0
  6
Continuous
 62
     1
100
AcDbLine
 10
23.024892
 20
17.449881
 30
0.0
 11
22.972076
 21
17.39488
 31
0.0
  0
LINE
  5
113
100
AcDbEntity
  8
1
370
    15
390
0
  6
Continuous
 62
     1
100
AcDbLine
 10
22.972076
 20
17.39488
 30
0.0
 11
22.972076
 21
16.910041
 31
0.0
  0
LINE
  5
114
100
AcDbEntity
  8
1
370
    15
390
0
  6
Continuous
 62
     1
100
AcDbLine
 10
22.972076
 20
16.910041
 30
0.0
 11
22.956075
 21
16.895041
 31
0.0
  0
LINE
  5
115
100
AcDbEntity
  8
1
370
    15
390
0
  6
Continuous
 62
     1
100
AcDbLine
 10
23.224809
 20
16.926539
 30
0.0
 11
22.972076
 21
16.926539
 31
0.0
  0
LINE
  5
116
100
AcDbEntity
  8
1
370
    15
390
0
  6
Continuous
 62
     1
100
AcDbLine
 10
23.224809
 20
17.176539
 30
0.0
 11
22.972076
 21
17.176539
 31
0.0
  0
LINE
  5
117
100
AcDbEntity
  8
1
370
    15
390
0
  6
Continuous
 62
     1
100
AcDbLine
 10
23.081496
 20
17.051539
 30
0.0
 11
23.123913
 21
17.051539
 31
0.0
  0
LINE
  5
118
100
AcDbEntity
  8
1
370
    15
390
0
  6
Continuous
 62
     1
100
AcDbLine
 10
23.054984
 20
17.051539
 30
0.0
 11
22.862076
 21
17.051539
 31
0.0
  0
LINE
  5
119
100
AcDbEntity
  8
1
370
    15
390
0
  6
Continuous
 62
     1
100
AcDbLine
 10
23.151892
 20
18.12401
 30
0.0
 11
23.174751
 21
18.118327
 31
0.0
  0
LINE
  5
11A
100
AcDbEntity
  8
1
370
    15
390
0
  6
Continuous
 62
     1
100
AcDbLine
 10
23.174751
 20
18.118327
 30
0.0
 11
23.196045
 21
18.11407
 31
0.0
  0
LINE
  5
11B
100
AcDbEntity
  8
1
370
    15
390
0
  6
Continuous
 62
     1
100
AcDbLine
 10
23.196045
 20
18.11407
 30
0.0
 11
23.238635
 21
18.11407
 31
0.0
  0
LINE
  5
11C
100
AcDbEntity
  8
1
370
    15
390
0
  6
Continuous
 62
     1
100
AcDbLine
 10
23.238635
 20
18.11407
 30
0.0
 11
23.276966
 21
18.118327
 31
0.0
  0
LINE
  5
11D
100
AcDbEntity
  8
1
370
    15
390
0
  6
Continuous
 62
     1
100
AcDbLine
 10
23.276966
 20
18.118327
 30
0.0
 11
23.289743
 21
18.118327
 31
0.0
  0
LINE
  5
11E
100
AcDbEntity
  8
1
370
    15
390
0
  6
Continuous
 62
     1
100
AcDbLine
 10
23.289743
 20
18.118327
 30
0.0
 11
23.285484
 21
18.11407
 31
0.0
  0
LINE
  5
11F
100
AcDbEntity
  8
1
370
    15
390
0
  6
Continuous
 62
     1
100
AcDbLine
 10
23.285484
 20
18.11407
 30
0.0
 11
23.268448
 21
18.08853
 31
0.0
  0
LINE
  5
120
100
AcDbEntity
  8
1
370
    15
390
0
  6
Continuous
 62
     1
100
AcDbLine
 10
23.268448
 20
18.08853
 30
0.0
 11
23.25993
 21
18.067246
 31
0.0
  0
LINE
  5
121
100
AcDbEntity
  8
1
370
    15
390
0
  6
Continuous
 62
     1
100
AcDbLine
 10
23.25993
 20
18.067246
 30
0.0
 11
23.242894
 21
18.020422
 31
0.0
  0
LINE
  5
122
100
AcDbEntity
  8
1
370
    15
390
0
  6
Continuous
 62
     1
100
AcDbLine
 10
23.242894
 20
18.020422
 30
0.0
 11
23.242894
 21
17.977855
 31
0.0
  0
LINE
  5
123
100
AcDbEntity
  8
1
370
    15
390
0
  6
Continuous
 62
     1
100
AcDbLine
 10
23.242894
 20
17.977855
 30
0.0
 11
23.242894
 21
17.926774
 31
0.0
  0
LINE
  5
124
100
AcDbEntity
  8
1
370
    15
390
0
  6
Continuous
 62
     1
100
AcDbLine
 10
23.242894
 20
17.926774
 30
0.0
 11
23.242894
 21
17.892719
 31
0.0
  0
LINE
  5
125
100
AcDbEntity
  8
1
370
    15
390
0
  6
Continuous
 62
     1
100
AcDbLine
 10
23.242894
 20
17.892719
 30
0.0
 11
23.25993
 21
17.841639
 31
0.0
  0
LINE
  5
126
100
AcDbEntity
  8
1
370
    15
390
0
  6
Continuous
 62
     1
100
AcDbLine
 10
23.25993
 20
17.841639
 30
0.0
 11
23.272707
 21
17.811842
 31
0.0
  0
LINE
  5
127
100
AcDbEntity
  8
1
370
    15
390
0
  6
Continuous
 62
     1
100
AcDbLine
 10
23.272707
 20
17.811842
 30
0.0
 11
23.272707
 21
17.782044
 31
0.0
  0
LINE
  5
128
100
AcDbEntity
  8
1
370
    15
390
0
  6
Continuous
 62
     1
100
AcDbLine
 10
23.272707
 20
17.782044
 30
0.0
 11
23.25993
 21
17.743733
 31
0.0
  0
LINE
  5
129
100
AcDbEntity
  8
1
370
    15
390
0
  6
Continuous
 62
     1
100
AcDbLine
 10
23.25993
 20
17.743733
 30
0.0
 11
23.238635
 21
17.69691
 31
0.0
  0
LINE
  5
12A
100
AcDbEntity
  8
1
370
    15
390
0
  6
Continuous
 62
     1
100
AcDbLine
 10
23.238635
 20
17.69691
 30
0.0
 11
23.234376
 21
17.633059
 31
0.0
  0
LINE
  5
12B
100
AcDbEntity
  8
1
370
    15
390
0
  6
Continuous
 62
     1
100
AcDbLine
 10
23.234376
 20
17.633059
 30
0.0
 11
23.242894
 21
17.590491
 31
0.0
  0
LINE
  5
12C
100
AcDbEntity
  8
1
370
    15
390
0
  6
Continuous
 62
     1
100
AcDbLine
 10
23.242894
 20
17.590491
 30
0.0
 11
23.242894
 21
17.52664
 31
0.0
  0
LINE
  5
12D
100
AcDbEntity
  8
1
370
    15
390
0
  6
Continuous
 62
     1
100
AcDbLine
 10
23.242894
 20
17.52664
 30
0.0
 11
23.242894
 21
17.471302
 31
0.0
  0
LINE
  5
12E
100
AcDbEntity
  8
1
370
    15
390
0
  6
Continuous
 62
     1
100
AcDbLine
 10
23.242894
 20
17.471302
 30
0.0
 11
23.230117
 21
17.437248
 31
0.0
  0
LINE
  5
12F
100
AcDbEntity
  8
1
370
    15
390
0
  6
Continuous
 62
     1
100
AcDbLine
 10
23.230117
 20
17.437248
 30
0.0
 11
23.2216
 21
17.364884
 31
0.0
  0
LINE
  5
130
100
AcDbEntity
  8
1
370
    15
390
0
  6
Continuous
 62
     1
100
AcDbLine
 10
23.2216
 20
17.364884
 30
0.0
 11
23.2216
 21
17.31806
 31
0.0
  0
LINE
  5
131
100
AcDbEntity
  8
1
370
    15
390
0
  6
Continuous
 62
     1
100
AcDbLine
 10
23.2216
 20
17.31806
 30
0.0
 11
23.2216
 21
17.275492
 31
0.0
  0
LINE
  5
132
100
AcDbEntity
  8
1
370
    15
390
0
  6
Continuous
 62
     1
100
AcDbLine
 10
23.2216
 20
17.275492
 30
0.0
 11
23.225858
 21
17.232924
 31
0.0
  0
LINE
  5
133
100
AcDbEntity
  8
1
370
    15
390
0
  6
Continuous
 62
     1
100
AcDbLine
 10
23.225858
 20
17.232924
 30
0.0
 11
23.225858
 21
17.220155
 31
0.0
  0
LINE
  5
134
100
AcDbEntity
  8
1
370
    15
390
0
  6
Continuous
 62
     1
100
AcDbLine
 10
23.225858
 20
17.220155
 30
0.0
 11
23.2216
 21
17.190357
 31
0.0
  0
LINE
  5
135
100
AcDbEntity
  8
1
370
    15
390
0
  6
Continuous
 62
     1
100
AcDbLine
 10
23.2216
 20
17.190357
 30
0.0
 11
23.224809
 21
17.176539
 31
0.0
  0
LINE
  5
136
100
AcDbEntity
  8
1
370
    15
390
0
  6
Continuous
 62
     1
100
AcDbLine
 10
23.224809
 20
17.176539
 30
0.0
 11
23.234376
 21
17.13502
 31
0.0
  0
LINE
  5
137
100
AcDbEntity
  8
1
370
    15
390
0
  6
Continuous
 62
     1
100
AcDbLine
 10
23.234376
 20
17.13502
 30
0.0
 11
23.238635
 21
17.117992
 31
0.0
  0
LINE
  5
138
100
AcDbEntity
  8
1
370
    15
390
0
  6
Continuous
 62
     1
100
AcDbLine
 10
23.238635
 20
17.117992
 30
0.0
 11
23.238635
 21
17.096709
 31
0.0
  0
LINE
  5
139
100
AcDbEntity
  8
1
370
    15
390
0
  6
Continuous
 62
     1
100
AcDbLine
 10
23.238635
 20
17.096709
 30
0.0
 11
23.238635
 21
17.071169
 31
0.0
  0
LINE
  5
13A
100
AcDbEntity
  8
1
370
    15
390
0
  6
Continuous
 62
     1
100
AcDbLine
 10
23.238635
 20
17.071169
 30
0.0
 11
23.238635
 21
17.032858
 31
0.0
  0
LINE
  5
13B
100
AcDbEntity
  8
1
370
    15
390
0
  6
Continuous
 62
     1
100
AcDbLine
 10
23.238635
 20
17.032858
 30
0.0
 11
23.234376
 21
17.011574
 31
0.0
  0
LINE
  5
13C
100
AcDbEntity
  8
1
370
    15
390
0
  6
Continuous
 62
     1
100
AcDbLine
 10
23.234376
 20
17.011574
 30
0.0
 11
23.225858
 21
16.990291
 31
0.0
  0
LINE
  5
13D
100
AcDbEntity
  8
1
370
    15
390
0
  6
Continuous
 62
     1
100
AcDbLine
 10
23.225858
 20
16.990291
 30
0.0
 11
23.225858
 21
16.97752
 31
0.0
  0
LINE
  5
13E
100
AcDbEntity
  8
1
370
    15
390
0
  6
Continuous
 62
     1
100
AcDbLine
 10
23.225858
 20
16.97752
 30
0.0
 11
23.217341
 21
16.956237
 31
0.0
  0
LINE
  5
13F
100
AcDbEntity
  8
1
370
    15
390
0
  6
Continuous
 62
     1
100
AcDbLine
 10
23.217341
 20
16.956237
 30
0.0
 11
23.224809
 21
16.926539
 31
0.0
  0
LINE
  5
140
100
AcDbEntity
  8
1
370
    15
390
0
  6
Continuous
 62
     1
100
AcDbLine
 10
23.224809
 20
16.926539
 30
0.0
 11
23.230117
 21
16.917926
 31
0.0
  0
LINE
  5
141
100
AcDbEntity
  8
1
370
    15
390
0
  6
Continuous
 62
     1
100
AcDbLine
 10
23.230117
 20
16.917926
 30
0.0
 11
23.230117
 21
16.892386
 31
0.0
  0
LINE
  5
142
100
AcDbEntity
  8
1
370
    15
390
0
  6
Continuous
 62
     1
100
AcDbLine
 10
23.230117
 20
16.892386
 30
0.0
 11
23.230117
 21
16.849818
 31
0.0
  0
LINE
  5
143
100
AcDbEntity
  8
1
370
    15
390
0
  6
Continuous
 62
     1
100
AcDbLine
 10
23.230117
 20
16.849818
 30
0.0
 11
23.230117
 21
16.811507
 31
0.0
  0
LINE
  5
144
100
AcDbEntity
  8
1
370
    15
390
0
  6
Continuous
 62
     1
100
AcDbLine
 10
23.230117
 20
16.811507
 30
0.0
 11
23.225858
 21
16.760427
 31
0.0
  0
LINE
  5
145
100
AcDbEntity
  8
1
370
    15
390
0
  6
Continuous
 62
     1
100
AcDbLine
 10
23.225858
 20
16.760427
 30
0.0
 11
23.225858
 21
16.713602
 31
0.0
  0
LINE
  5
146
100
AcDbEntity
  8
1
370
    15
390
0
  6
Continuous
 62
     1
100
AcDbLine
 10
23.225858
 20
16.713602
 30
0.0
 11
23.2216
 21
16.666778
 31
0.0
  0
LINE
  5
147
100
AcDbEntity
  8
1
370
    15
390
0
  6
Continuous
 62
     1
100
AcDbLine
 10
23.2216
 20
16.666778
 30
0.0
 11
23.217341
 21
16.636981
 31
0.0
  0
LINE
  5
148
100
AcDbEntity
  8
1
370
    15
390
0
  6
Continuous
 62
     1
100
AcDbLine
 10
23.217341
 20
16.636981
 30
0.0
 11
23.225223
 21
16.582039
 31
0.0
  0
LINE
  5
149
100
AcDbEntity
  8
1
370
    15
390
0
  6
Continuous
 62
     1
100
AcDbLine
 10
23.225223
 20
16.582039
 30
0.0
 11
23.2216
 21
16.551846
 31
0.0
  0
LINE
  5
14A
100
AcDbEntity
  8
1
370
    15
390
0
  6
Continuous
 62
     1
100
AcDbLine
 10
23.2216
 20
16.551846
 30
0.0
 11
23.225858
 21
16.522049
 31
0.0
  0
LINE
  5
14B
100
AcDbEntity
  8
1
370
    15
390
0
  6
Continuous
 62
     1
100
AcDbLine
 10
23.225858
 20
16.522049
 30
0.0
 11
23.247154
 21
16.483738
 31
0.0
  0
LINE
  5
14C
100
AcDbEntity
  8
1
370
    15
390
0
  6
Continuous
 62
     1
100
AcDbLine
 10
23.247154
 20
16.483738
 30
0.0
 11
23.255671
 21
16.458198
 31
0.0
  0
LINE
  5
14D
100
AcDbEntity
  8
1
370
    15
390
0
  6
Continuous
 62
     1
100
AcDbLine
 10
23.255671
 20
16.458198
 30
0.0
 11
23.251412
 21
16.407116
 31
0.0
  0
LINE
  5
14E
100
AcDbEntity
  8
1
370
    15
390
0
  6
Continuous
 62
     1
100
AcDbLine
 10
23.251412
 20
16.407116
 30
0.0
 11
23.242894
 21
16.347522
 31
0.0
  0
LINE
  5
14F
100
AcDbEntity
  8
1
370
    15
390
0
  6
Continuous
 62
     1
100
AcDbLine
 10
23.242894
 20
16.347522
 30
0.0
 11
23.242894
 21
16.309212
 31
0.0
  0
LINE
  5
150
100
AcDbEntity
  8
1
370
    15
390
0
  6
Continuous
 62
     1
100
AcDbLine
 10
23.242894
 20
16.309212
 30
0.0
 11
23.242894
 21
16.270901
 31
0.0
  0
LINE
  5
151
100
AcDbEntity
  8
1
370
    15
390
0
  6
Continuous
 62
     1
100
AcDbLine
 10
23.242894
 20
16.270901
 30
0.0
 11
23.242894
 21
16.270901
 31
0.0
  0
LINE
  5
152
100
AcDbEntity
  8
1
370
    15
390
0
  6
Continuous
 62
     1
100
AcDbLine
 10
23.242894
 20
16.270901
 30
0.0
 11
23.242894
 21
16.23259
 31
0.0
  0
LINE
  5
153
100
AcDbEntity
  8
1
370
    15
390
0
  6
Continuous
 62
     1
100
AcDbLine
 10
23.242894
 20
16.23259
 30
0.0
 11
23.234376
 21
16.224077
 31
0.0
  0
LINE
  5
154
100
AcDbEntity
  8
1
370
    15
390
0
  6
Continuous
 62
     1
100
AcDbLine
 10
23.234376
 20
16.224077
 30
0.0
 11
23.234376
 21
16.224077
 31
0.0
  0
LINE
  5
155
100
AcDbEntity
  8
1
370
    15
390
0
  6
Continuous
 62
     1
100
AcDbLine
 10
23.234376
 20
16.224077
 30
0.0
 11
23.238635
 21
16.215563
 31
0.0
  0
LINE
  5
156
100
AcDbEntity
  8
1
370
    15
390
0
  6
Continuous
 62
     1
100
AcDbLine
 10
23.238635
 20
16.215563
 30
0.0
 11
23.238635
 21
16.19428
 31
0.0
  0
LINE
  5
157
100
AcDbEntity
  8
1
370
    15
390
0
  6
Continuous
 62
     1
100
AcDbLine
 10
23.238635
 20
16.19428
 30
0.0
 11
23.238635
 21
16.147455
 31
0.0
  0
LINE
  5
158
100
AcDbEntity
  8
1
370
    15
390
0
  6
Continuous
 62
     1
100
AcDbLine
 10
23.238635
 20
16.147455
 30
0.0
 11
23.230117
 21
16.134685
 31
0.0
  0
LINE
  5
159
100
AcDbEntity
  8
1
370
    15
390
0
  6
Continuous
 62
     1
100
AcDbLine
 10
23.230117
 20
16.134685
 30
0.0
 11
23.225858
 21
16.126172
 31
0.0
  0
LINE
  5
15A
100
AcDbEntity
  8
1
370
    15
390
0
  6
Continuous
 62
     1
100
AcDbLine
 10
23.225858
 20
16.126172
 30
0.0
 11
23.208822
 21
16.104888
 31
0.0
  0
LINE
  5
15B
100
AcDbEntity
  8
1
370
    15
390
0
  6
Continuous
 62
     1
100
AcDbLine
 10
23.208822
 20
16.104888
 30
0.0
 11
23.208822
 21
16.104888
 31
0.0
  0
LINE
  5
15C
100
AcDbEntity
  8
1
370
    15
390
0
  6
Continuous
 62
     1
100
AcDbLine
 10
23.225858
 20
16.126172
 30
0.0
 11
23.21947
 21
16.098503
 31
0.0
  0
LINE
  5
15D
100
AcDbEntity
  8
1
370
    15
390
0
  6
Continuous
 62
     1
100
AcDbLine
 10
23.21947
 20
16.098503
 30
0.0
 11
23.215211
 21
16.081476
 31
0.0
  0
LINE
  5
15E
100
AcDbEntity
  8
1
370
    15
390
0
  6
Continuous
 62
     1
100
AcDbLine
 10
23.215211
 20
16.081476
 30
0.0
 11
23.206693
 21
16.060192
 31
0.0
  0
LINE
  5
15F
100
AcDbEntity
  8
1
370
    15
390
0
  6
Continuous
 62
     1
100
AcDbLine
 10
23.206693
 20
16.060192
 30
0.0
 11
23.202434
 21
16.034652
 31
0.0
  0
LINE
  5
160
100
AcDbEntity
  8
1
370
    15
390
0
  6
Continuous
 62
     1
100
AcDbLine
 10
23.202434
 20
16.034652
 30
0.0
 11
23.210952
 21
16.021881
 31
0.0
  0
LINE
  5
161
100
AcDbEntity
  8
1
370
    15
390
0
  6
Continuous
 62
     1
100
AcDbLine
 10
23.210952
 20
16.021881
 30
0.0
 11
23.198474
 21
15.992774
 31
0.0
  0
LINE
  5
162
100
AcDbEntity
  8
1
370
    15
390
0
  6
Continuous
 62
     1
100
AcDbLine
 10
23.198474
 20
15.992774
 30
0.0
 11
23.198175
 21
15.975057
 31
0.0
  0
LINE
  5
163
100
AcDbEntity
  8
1
370
    15
390
0
  6
Continuous
 62
     1
100
AcDbLine
 10
23.198175
 20
15.975057
 30
0.0
 11
23.198175
 21
15.949517
 31
0.0
  0
LINE
  5
164
100
AcDbEntity
  8
1
370
    15
390
0
  6
Continuous
 62
     1
100
AcDbLine
 10
23.198175
 20
15.949517
 30
0.0
 11
23.202434
 21
15.941003
 31
0.0
  0
LINE
  5
165
100
AcDbEntity
  8
1
370
    15
390
0
  6
Continuous
 62
     1
100
AcDbLine
 10
23.202434
 20
15.941003
 30
0.0
 11
23.206693
 21
15.936747
 31
0.0
  0
LINE
  5
166
100
AcDbEntity
  8
1
370
    15
390
0
  6
Continuous
 62
     1
100
AcDbLine
 10
23.206693
 20
15.936747
 30
0.0
 11
23.206693
 21
15.936747
 31
0.0
  0
LINE
  5
167
100
AcDbEntity
  8
1
370
    15
390
0
  6
Continuous
 62
     1
100
AcDbLine
 10
23.206693
 20
15.936747
 30
0.0
 11
23.206693
 21
15.91972
 31
0.0
  0
LINE
  5
168
100
AcDbEntity
  8
1
370
    15
390
0
  6
Continuous
 62
     1
100
AcDbLine
 10
23.206693
 20
15.91972
 30
0.0
 11
23.210952
 21
15.898436
 31
0.0
  0
LINE
  5
169
100
AcDbEntity
  8
1
370
    15
390
0
  6
Continuous
 62
     1
100
AcDbLine
 10
23.210952
 20
15.898436
 30
0.0
 11
23.210952
 21
15.889922
 31
0.0
  0
LINE
  5
16A
100
AcDbEntity
  8
1
370
    15
390
0
  6
Continuous
 62
     1
100
AcDbLine
 10
23.210952
 20
15.889922
 30
0.0
 11
23.215211
 21
15.868639
 31
0.0
  0
LINE
  5
16B
100
AcDbEntity
  8
1
370
    15
390
0
  6
Continuous
 62
     1
100
AcDbLine
 10
23.215211
 20
15.868639
 30
0.0
 11
23.214946
 21
15.865038
 31
0.0
  0
LINE
  5
16C
100
AcDbEntity
  8
1
370
    15
390
0
  6
Continuous
 62
     1
100
AcDbLine
 10
23.214946
 20
15.865038
 30
0.0
 11
23.198175
 21
15.804788
 31
0.0
  0
LINE
  5
16D
100
AcDbEntity
  8
1
370
    15
390
0
  6
Continuous
 62
     1
100
AcDbLine
 10
23.198175
 20
15.804788
 30
0.0
 11
23.198175
 21
15.757963
 31
0.0
  0
LINE
  5
16E
100
AcDbEntity
  8
1
370
    15
390
0
  6
Continuous
 62
     1
100
AcDbLine
 10
23.198175
 20
15.757963
 30
0.0
 11
23.193916
 21
15.706883
 31
0.0
  0
LINE
  5
16F
100
AcDbEntity
  8
1
370
    15
390
0
  6
Continuous
 62
     1
100
AcDbLine
 10
23.193916
 20
15.706883
 30
0.0
 11
23.206693
 21
15.681342
 31
0.0
  0
LINE
  5
170
100
AcDbEntity
  8
1
370
    15
390
0
  6
Continuous
 62
     1
100
AcDbLine
 10
23.206693
 20
15.681342
 30
0.0
 11
23.210952
 21
15.647288
 31
0.0
  0
LINE
  5
171
100
AcDbEntity
  8
1
370
    15
390
0
  6
Continuous
 62
     1
100
AcDbLine
 10
23.210952
 20
15.647288
 30
0.0
 11
23.206693
 21
15.583437
 31
0.0
  0
LINE
  5
172
100
AcDbEntity
  8
1
370
    15
390
0
  6
Continuous
 62
     1
100
AcDbLine
 10
23.206693
 20
15.583437
 30
0.0
 11
23.198175
 21
15.528099
 31
0.0
  0
LINE
  5
173
100
AcDbEntity
  8
1
370
    15
390
0
  6
Continuous
 62
     1
100
AcDbLine
 10
23.198175
 20
15.528099
 30
0.0
 11
23.198175
 21
15.502559
 31
0.0
  0
LINE
  5
174
100
AcDbEntity
  8
1
370
    15
390
0
  6
Continuous
 62
     1
100
AcDbLine
 10
23.198175
 20
15.502559
 30
0.0
 11
23.206693
 21
15.455735
 31
0.0
  0
LINE
  5
175
100
AcDbEntity
  8
1
370
    15
390
0
  6
Continuous
 62
     1
100
AcDbLine
 10
23.206693
 20
15.455735
 30
0.0
 11
23.21947
 21
15.40891
 31
0.0
  0
LINE
  5
176
100
AcDbEntity
  8
1
370
    15
390
0
  6
Continuous
 62
     1
100
AcDbLine
 10
23.21947
 20
15.40891
 30
0.0
 11
23.227988
 21
15.366343
 31
0.0
  0
LINE
  5
177
100
AcDbEntity
  8
1
370
    15
390
0
  6
Continuous
 62
     1
100
AcDbLine
 10
23.227988
 20
15.366343
 30
0.0
 11
23.223728
 21
15.298235
 31
0.0
  0
LINE
  5
178
100
AcDbEntity
  8
1
370
    15
390
0
  6
Continuous
 62
     1
100
AcDbLine
 10
23.223728
 20
15.298235
 30
0.0
 11
23.215211
 21
15.264181
 31
0.0
  0
LINE
  5
179
100
AcDbEntity
  8
1
370
    15
390
0
  6
Continuous
 62
     1
100
AcDbLine
 10
23.215211
 20
15.264181
 30
0.0
 11
23.215211
 21
15.230127
 31
0.0
  0
LINE
  5
17A
100
AcDbEntity
  8
1
370
    15
390
0
  6
Continuous
 62
     1
100
AcDbLine
 10
23.215211
 20
15.230127
 30
0.0
 11
23.232247
 21
15.179047
 31
0.0
  0
LINE
  5
17B
100
AcDbEntity
  8
1
370
    15
390
0
  6
Continuous
 62
     1
100
AcDbLine
 10
23.232247
 20
15.179047
 30
0.0
 11
23.232247
 21
15.179047
 31
0.0
  0
LINE
  5
17C
100
AcDbEntity
  8
1
370
    15
390
0
  6
Continuous
 62
     1
100
AcDbLine
 10
23.232247
 20
15.179047
 30
0.0
 11
23.232247
 21
15.170533
 31
0.0
  0
LINE
  5
17D
100
AcDbEntity
  8
1
370
    15
390
0
  6
Continuous
 62
     1
100
AcDbLine
 10
23.232247
 20
15.170533
 30
0.0
 11
23.232247
 21
15.166276
 31
0.0
  0
LINE
  5
17E
100
AcDbEntity
  8
1
370
    15
390
0
  6
Continuous
 62
     1
100
AcDbLine
 10
23.232247
 20
15.166276
 30
0.0
 11
23.245024
 21
15.144992
 31
0.0
  0
LINE
  5
17F
100
AcDbEntity
  8
1
370
    15
390
0
  6
Continuous
 62
     1
100
AcDbLine
 10
23.245024
 20
15.144992
 30
0.0
 11
23.245024
 21
15.144992
 31
0.0
  0
LINE
  5
180
100
AcDbEntity
  8
1
370
    15
390
0
  6
Continuous
 62
     1
100
AcDbLine
 10
23.245024
 20
15.144992
 30
0.0
 11
23.245024
 21
15.110939
 31
0.0
  0
LINE
  5
181
100
AcDbEntity
  8
1
370
    15
390
0
  6
Continuous
 62
     1
100
AcDbLine
 10
23.245024
 20
15.110939
 30
0.0
 11
23.232247
 21
15.085398
 31
0.0
  0
LINE
  5
182
100
AcDbEntity
  8
1
370
    15
390
0
  6
Continuous
 62
     1
100
AcDbLine
 10
23.232247
 20
15.085398
 30
0.0
 11
23.223728
 21
15.055601
 31
0.0
  0
LINE
  5
183
100
AcDbEntity
  8
1
370
    15
390
0
  6
Continuous
 62
     1
100
AcDbLine
 10
23.223728
 20
15.055601
 30
0.0
 11
23.215211
 21
15.047088
 31
0.0
  0
LINE
  5
184
100
AcDbEntity
  8
1
370
    15
390
0
  6
Continuous
 62
     1
100
AcDbLine
 10
23.215211
 20
15.047088
 30
0.0
 11
23.210952
 21
15.038574
 31
0.0
  0
LINE
  5
185
100
AcDbEntity
  8
1
370
    15
390
0
  6
Continuous
 62
     1
100
AcDbLine
 10
23.210952
 20
15.038574
 30
0.0
 11
23.193916
 21
15.00452
 31
0.0
  0
LINE
  5
186
100
AcDbEntity
  8
1
370
    15
390
0
  6
Continuous
 62
     1
100
AcDbLine
 10
23.193916
 20
15.00452
 30
0.0
 11
23.189657
 21
14.99175
 31
0.0
  0
LINE
  5
187
100
AcDbEntity
  8
1
370
    15
390
0
  6
Continuous
 62
     1
100
AcDbLine
 10
23.189657
 20
14.99175
 30
0.0
 11
23.172262
 21
14.972777
 31
0.0
  0
LINE
  5
188
100
AcDbEntity
  8
1
370
    15
390
0
  6
Continuous
 62
     1
100
AcDbLine
 10
23.172262
 20
14.972777
 30
0.0
 11
23.172621
 21
14.936412
 31
0.0
  0
LINE
  5
189
100
AcDbEntity
  8
1
370
    15
390
0
  6
Continuous
 62
     1
100
AcDbLine
 10
23.172621
 20
14.936412
 30
0.0
 11
23.181139
 21
14.915128
 31
0.0
  0
LINE
  5
18A
100
AcDbEntity
  8
1
370
    15
390
0
  6
Continuous
 62
     1
100
AcDbLine
 10
23.225786
 20
15.177039
 30
0.0
 11
22.892077
 21
15.177039
 31
0.0
  0
LINE
  5
18B
100
AcDbEntity
  8
1
370
    15
390
0
  6
Continuous
 62
     1
100
AcDbLine
 10
23.181139
 20
14.915128
 30
0.0
 11
23.187528
 21
14.90023
 31
0.0
  0
LINE
  5
18C
100
AcDbEntity
  8
1
370
    15
390
0
  6
Continuous
 62
     1
100
AcDbLine
 10
23.187528
 20
14.90023
 30
0.0
 11
23.187528
 21
14.895973
 31
0.0
  0
LINE
  5
18D
100
AcDbEntity
  8
1
370
    15
390
0
  6
Continuous
 62
     1
100
AcDbLine
 10
23.187528
 20
14.895973
 30
0.0
 11
23.168468
 21
14.884406
 31
0.0
  0
LINE
  5
18E
100
AcDbEntity
  8
1
370
    15
390
0
  6
Continuous
 62
     1
100
AcDbLine
 10
23.168468
 20
14.884406
 30
0.0
 11
23.170491
 21
14.857663
 31
0.0
  0
LINE
  5
18F
100
AcDbEntity
  8
1
370
    15
390
0
  6
Continuous
 62
     1
100
AcDbLine
 10
23.170491
 20
14.857663
 30
0.0
 11
23.166233
 21
14.827866
 31
0.0
  0
LINE
  5
190
100
AcDbEntity
  8
1
370
    15
390
0
  6
Continuous
 62
     1
100
AcDbLine
 10
23.166233
 20
14.827866
 30
0.0
 11
23.161974
 21
14.819352
 31
0.0
  0
LINE
  5
191
100
AcDbEntity
  8
1
370
    15
390
0
  6
Continuous
 62
     1
100
AcDbLine
 10
23.161974
 20
14.819352
 30
0.0
 11
23.162964
 21
14.799023
 31
0.0
  0
LINE
  5
192
100
AcDbEntity
  8
1
370
    15
390
0
  6
Continuous
 62
     1
100
AcDbLine
 10
23.162964
 20
14.799023
 30
0.0
 11
23.161974
 21
14.781041
 31
0.0
  0
LINE
  5
193
100
AcDbEntity
  8
1
370
    15
390
0
  6
Continuous
 62
     1
100
AcDbLine
 10
23.161974
 20
14.781041
 30
0.0
 11
23.149197
 21
14.759758
 31
0.0
  0
LINE
  5
194
100
AcDbEntity
  8
1
370
    15
390
0
  6
Continuous
 62
     1
100
AcDbLine
 10
23.149197
 20
14.759758
 30
0.0
 11
23.132161
 21
14.721447
 31
0.0
  0
LINE
  5
195
100
AcDbEntity
  8
1
370
    15
390
0
  6
Continuous
 62
     1
100
AcDbLine
 10
23.132161
 20
14.721447
 30
0.0
 11
23.115125
 21
14.700163
 31
0.0
  0
LINE
  5
196
100
AcDbEntity
  8
1
370
    15
390
0
  6
Continuous
 62
     1
100
AcDbLine
 10
23.115125
 20
14.700163
 30
0.0
 11
23.09383
 21
14.623542
 31
0.0
  0
LINE
  5
197
100
AcDbEntity
  8
1
370
    15
390
0
  6
Continuous
 62
     1
100
AcDbLine
 10
23.09383
 20
14.623542
 30
0.0
 11
23.076795
 21
14.615028
 31
0.0
  0
LINE
  5
198
100
AcDbEntity
  8
1
370
    15
390
0
  6
Continuous
 62
     1
100
AcDbLine
 10
23.076795
 20
14.615028
 30
0.0
 11
23.042723
 21
14.598002
 31
0.0
  0
LINE
  5
199
100
AcDbEntity
  8
1
370
    15
390
0
  6
Continuous
 62
     1
100
AcDbLine
 10
23.042723
 20
14.598002
 30
0.0
 11
23.01291
 21
14.589488
 31
0.0
  0
LINE
  5
19A
100
AcDbEntity
  8
1
370
    15
390
0
  6
Continuous
 62
     1
100
AcDbLine
 10
23.01291
 20
14.589488
 30
0.0
 11
22.978838
 21
14.563948
 31
0.0
  0
LINE
  5
19B
100
AcDbEntity
  8
1
370
    15
390
0
  6
Continuous
 62
     1
100
AcDbLine
 10
22.978838
 20
14.563948
 30
0.0
 11
22.953284
 21
14.538407
 31
0.0
  0
LINE
  5
19C
100
AcDbEntity
  8
1
370
    15
390
0
  6
Continuous
 62
     1
100
AcDbLine
 10
22.953284
 20
14.538407
 30
0.0
 11
22.927731
 21
14.525637
 31
0.0
  0
LINE
  5
19D
100
AcDbEntity
  8
1
370
    15
390
0
  6
Continuous
 62
     1
100
AcDbLine
 10
22.927731
 20
14.525637
 30
0.0
 11
22.906436
 21
14.52138
 31
0.0
  0
LINE
  5
19E
100
AcDbEntity
  8
1
370
    15
390
0
  6
Continuous
 62
     1
100
AcDbLine
 10
22.906436
 20
14.52138
 30
0.0
 11
22.8894
 21
14.517123
 31
0.0
  0
LINE
  5
19F
100
AcDbEntity
  8
1
370
    15
390
0
  6
Continuous
 62
     1
100
AcDbLine
 10
22.8894
 20
14.517123
 30
0.0
 11
22.8894
 21
14.517123
 31
0.0
  0
LINE
  5
1A0
100
AcDbEntity
  8
1
370
    15
390
0
  6
Continuous
 62
     1
100
AcDbLine
 10
22.8894
 20
14.517123
 30
0.0
 11
22.880882
 21
14.517123
 31
0.0
  0
LINE
  5
1A1
100
AcDbEntity
  8
1
370
    15
390
0
  6
Continuous
 62
     1
100
AcDbLine
 10
22.880882
 20
14.517123
 30
0.0
 11
22.872364
 21
14.50861
 31
0.0
  0
LINE
  5
1A2
100
AcDbEntity
  8
1
370
    15
390
0
  6
Continuous
 62
     1
100
AcDbLine
 10
22.872364
 20
14.50861
 30
0.0
 11
22.859587
 21
14.491583
 31
0.0
  0
LINE
  5
1A3
100
AcDbEntity
  8
1
370
    15
390
0
  6
Continuous
 62
     1
100
AcDbLine
 10
22.859587
 20
14.491583
 30
0.0
 11
22.855328
 21
14.483069
 31
0.0
  0
LINE
  5
1A4
100
AcDbEntity
  8
1
370
    15
390
0
  6
Continuous
 62
     1
100
AcDbLine
 10
22.855328
 20
14.483069
 30
0.0
 11
22.829775
 21
14.470299
 31
0.0
  0
LINE
  5
1A5
100
AcDbEntity
  8
1
370
    15
390
0
  6
Continuous
 62
     1
100
AcDbLine
 10
22.812739
 20
14.466043
 30
0.0
 11
22.812739
 21
14.466043
 31
0.0
  0
LINE
  5
1A6
100
AcDbEntity
  8
1
370
    15
390
0
  6
Continuous
 62
     1
100
AcDbLine
 10
23.038876
 20
14.674935
 30
0.0
 11
23.099311
 21
14.735369
 31
0.0
  0
LINE
  5
1A7
100
AcDbEntity
  8
1
370
    15
390
0
  6
Continuous
 62
     1
100
AcDbLine
 10
23.048784
 20
17.427039
 30
0.0
 11
22.972076
 21
17.348586
 31
0.0
  0
LINE
  5
1A8
100
AcDbEntity
  8
1
370
    15
390
0
  6
Continuous
 62
     1
100
AcDbLine
 10
23.13328
 20
17.427039
 30
0.0
 11
22.972076
 21
17.264133
 31
0.0
  0
LINE
  5
1A9
100
AcDbEntity
  8
1
370
    15
390
0
  6
Continuous
 62
     1
100
AcDbLine
 10
23.2218
 20
17.427039
 30
0.0
 11
22.972076
 21
17.179681
 31
0.0
  0
LINE
  5
1AA
100
AcDbEntity
  8
1
370
    15
390
0
  6
Continuous
 62
     1
100
AcDbLine
 10
23.2216
 20
17.336521
 30
0.0
 11
23.060854
 21
17.176539
 31
0.0
  0
LINE
  5
1AB
100
AcDbEntity
  8
1
370
    15
390
0
  6
Continuous
 62
     1
100
AcDbLine
 10
23.225117
 20
17.240336
 30
0.0
 11
23.161446
 21
17.176539
 31
0.0
  0
LINE
  5
1AC
100
AcDbEntity
  8
1
370
    15
390
0
  6
Continuous
 62
     1
100
AcDbLine
 10
23.040736
 20
16.926539
 30
0.0
 11
22.956075
 21
16.845893
 31
0.0
  0
LINE
  5
1AD
100
AcDbEntity
  8
1
370
    15
390
0
  6
Continuous
 62
     1
100
AcDbLine
 10
23.121209
 20
16.926539
 30
0.0
 11
22.956075
 21
16.76144
 31
0.0
  0
LINE
  5
1AE
100
AcDbEntity
  8
1
370
    15
390
0
  6
Continuous
 62
     1
100
AcDbLine
 10
23.205706
 20
16.926539
 30
0.0
 11
22.956075
 21
16.676988
 31
0.0
  0
LINE
  5
1AF
100
AcDbEntity
  8
1
370
    15
390
0
  6
Continuous
 62
     1
100
AcDbLine
 10
23.230117
 20
16.857957
 30
0.0
 11
22.956076
 21
16.592535
 31
0.0
  0
LINE
  5
1B0
100
AcDbEntity
  8
1
370
    15
390
0
  6
Continuous
 62
     1
100
AcDbLine
 10
23.225914
 20
16.761097
 30
0.0
 11
23.04476
 21
16.582039
 31
0.0
  0
LINE
  5
1B1
100
AcDbEntity
  8
1
370
    15
390
0
  6
Continuous
 62
     1
100
AcDbLine
 10
23.220781
 20
16.661047
 30
0.0
 11
23.141327
 21
16.582039
 31
0.0
  0
LINE
  5
1B2
100
AcDbEntity
  8
3
370
    15
390
0
  6
Continuous
 62
     1
100
AcDbLine
 10
23.48826
 20
16.926539
 30
0.0
 11
23.48826
 21
17.176539
 31
0.0
  0
LINE
  5
1B3
100
AcDbEntity
  8
3
370
    15
390
0
  6
Continuous
 62
     1
100
AcDbLine
 10
23.48826
 20
17.176539
 30
0.0
 11
23.48826
 21
17.24517
 31
0.0
  0
LINE
  5
1B4
100
AcDbEntity
  8
3
370
    15
390
0
  6
Continuous
 62
     1
100
AcDbLine
 10
23.48826
 20
17.24517
 30
0.0
 11
23.585424
 21
17.24517
 31
0.0
  0
LINE
  5
1B5
100
AcDbEntity
  8
3
370
    15
390
0
  6
Continuous
 62
     1
100
AcDbLine
 10
23.253207
 20
16.926539
 30
0.0
 11
23.536842
 21
16.926539
 31
0.0
  0
LINE
  5
1B6
100
AcDbEntity
  8
3
370
    15
390
0
  6
Continuous
 62
     1
100
AcDbLine
 10
23.247551
 20
17.176539
 30
0.0
 11
23.536842
 21
17.176539
 31
0.0
  0
LINE
  5
1B7
100
AcDbEntity
  8
3
370
    15
390
0
  6
Continuous
 62
     1
100
AcDbLine
 10
23.264519
 20
16.270901
 30
0.0
 11
23.536842
 21
16.270901
 31
0.0
  0
LINE
  5
1B8
100
AcDbEntity
  8
3
370
    15
390
0
  6
Continuous
 62
     1
100
AcDbLine
 10
23.25038
 20
16.582039
 30
0.0
 11
23.536842
 21
16.582039
 31
0.0
  0
LINE
  5
1B9
100
AcDbEntity
  8
3
370
    15
390
0
  6
Continuous
 62
     1
100
AcDbLine
 10
23.48826
 20
16.582039
 30
0.0
 11
23.48826
 21
16.270901
 31
0.0
  0
LINE
  5
1BA
100
AcDbEntity
  8
3
370
    15
390
0
  6
Continuous
 62
     1
100
AcDbLine
 10
23.48826
 20
16.582039
 30
0.0
 11
23.48826
 21
16.65067
 31
0.0
  0
LINE
  5
1BB
100
AcDbEntity
  8
3
370
    15
390
0
  6
Continuous
 62
     1
100
AcDbLine
 10
23.48826
 20
16.65067
 30
0.0
 11
23.585424
 21
16.65067
 31
0.0
  0
LINE
  5
1BC
100
AcDbEntity
  8
3
370
    15
390
0
  6
Continuous
 62
     1
100
AcDbLine
 10
23.256189
 20
15.865038
 30
0.0
 11
23.536842
 21
15.865038
 31
0.0
  0
LINE
  5
1BD
100
AcDbEntity
  8
3
370
    15
390
0
  6
Continuous
 62
     1
100
AcDbLine
 10
23.536842
 20
15.177039
 30
0.0
 11
23.285747
 21
15.177039
 31
0.0
  0
LINE
  5
1BE
100
AcDbEntity
  8
3
370
    15
390
0
  6
Continuous
 62
     1
100
AcDbLine
 10
23.48826
 20
15.865038
 30
0.0
 11
23.48826
 21
15.177039
 31
0.0
  0
LINE
  5
1BF
100
AcDbEntity
  8
3
370
    15
390
0
  6
Continuous
 62
     1
100
AcDbLine
 10
23.48826
 20
15.865038
 30
0.0
 11
23.48826
 21
15.933669
 31
0.0
  0
LINE
  5
1C0
100
AcDbEntity
  8
3
370
    15
390
0
  6
Continuous
 62
     1
100
AcDbLine
 10
23.48826
 20
15.933669
 30
0.0
 11
23.585424
 21
15.933669
 31
0.0
  0
LINE
  5
1C1
100
AcDbEntity
  8
3
370
    15
390
0
  6
Continuous
 62
     1
100
AcDbLine
 10
23.165488
 20
16.426039
 30
0.0
 11
24.47609
 21
16.426039
 31
0.0
  0
LINE
  5
1C2
100
AcDbEntity
  8
3
370
    15
390
0
  6
Continuous
 62
     1
100
AcDbLine
 10
23.101007
 20
15.52104
 30
0.0
 11
24.47609
 21
15.52104
 31
0.0
  0
LINE
  5
1C3
100
AcDbEntity
  8
3
370
    15
390
0
  6
Continuous
 62
     1
100
AcDbLine
 10
23.153959
 20
17.051539
 30
0.0
 11
24.47609
 21
17.051539
 31
0.0
  0
LINE
  5
1C4
100
AcDbEntity
  8
3
370
    15
390
0
  6
Continuous
 62
     1
100
AcDbLine
 10
23.002959
 20
17.427039
 30
0.0
 11
24.439395
 21
17.427037
 31
0.0
  0
LINE
  5
1C5
100
AcDbEntity
  8
3
370
    15
390
0
  6
Continuous
 62
     1
100
AcDbLine
 10
23.001551
 20
18.019037
 30
0.0
 11
24.45471
 21
18.019037
 31
0.0
  0
LINE
  5
1C6
100
AcDbEntity
  8
3
370
    15
390
0
  6
Continuous
 62
     1
100
AcDbLine
 10
22.235673
 20
16.135083
 30
0.0
 11
22.235673
 21
16.239039
 31
0.0
  0
LINE
  5
1C7
100
AcDbEntity
  8
3
370
    15
390
0
  6
Continuous
 62
     1
100
AcDbLine
 10
22.136076
 20
16.239039
 30
0.0
 11
22.426654
 21
16.239039
 31
0.0
  0
LINE
  5
1C8
100
AcDbEntity
  8
3
370
    15
390
0
  6
Continuous
 62
     1
100
AcDbLine
 10
22.150076
 20
16.270041
 30
0.0
 11
22.331164
 21
16.270041
 31
0.0
  0
LINE
  5
1C9
100
AcDbEntity
  8
3
370
    15
390
0
  6
Continuous
 62
     1
100
AcDbLine
 10
20.873544
 20
14.856539
 30
0.0
 11
22.159642
 21
14.856539
 31
0.0
  0
LINE
  5
1CA
100
AcDbEntity
  8
3
370
    15
390
0
  6
Continuous
 62
     1
100
AcDbLine
 10
20.846658
 20
14.856539
 30
0.0
 11
20.498043
 21
14.856539
 31
0.0
  0
LINE
  5
1CB
100
AcDbEntity
  8
3
370
    15
390
0
  6
Continuous
 62
     1
100
AcDbLine
 10
21.889923
 20
16.002081
 30
0.0
 11
20.8201
 21
16.002081
 31
0.0
  0
LINE
  5
1CC
100
AcDbEntity
  8
3
370
    15
390
0
  6
Continuous
 62
     1
100
AcDbLine
 10
22.097075
 20
16.083041
 30
0.0
 11
21.993236
 21
16.083041
 31
0.0
  0
LINE
  5
1CD
100
AcDbEntity
  8
3
370
    15
390
0
  6
Continuous
 62
     1
100
AcDbLine
 10
21.889923
 20
16.002081
 30
0.0
 11
21.993236
 21
16.083041
 31
0.0
  0
LINE
  5
1CE
100
AcDbEntity
  8
3
370
    15
390
0
  6
Continuous
 62
     1
100
AcDbLine
 10
22.120884
 20
14.764506
 30
0.0
 11
22.184076
 21
14.856539
 31
0.0
  0
LINE
  5
1CF
100
AcDbEntity
  8
3
370
    15
390
0
  6
Continuous
 62
     1
100
AcDbLine
 10
22.02877
 20
14.63035
 30
0.0
 11
22.099523
 21
14.733396
 31
0.0
  0
LINE
  5
1D0
100
AcDbEntity
  8
3
370
    15
390
0
  6
Continuous
 62
     1
100
AcDbLine
 10
22.005308
 20
14.59618
 30
0.0
 11
21.928875
 21
14.484861
 31
0.0
  0
LINE
  5
1D1
100
AcDbEntity
  8
3
370
    15
390
0
  6
Continuous
 62
     1
100
AcDbLine
 10
21.797211
 20
14.484861
 30
0.0
 11
21.928875
 21
14.484861
 31
0.0
  0
LINE
  5
1D2
100
AcDbEntity
  8
4
370
    15
390
0
  6
Continuous
 62
     1
100
AcDbLine
 10
22.184076
 20
15.139041
 30
0.0
 11
22.294075
 21
15.139041
 31
0.0
  0
LINE
  5
1D3
100
AcDbEntity
  8
4
370
    15
390
0
  6
Continuous
 62
     1
100
AcDbLine
 10
22.162074
 20
15.16104
 30
0.0
 11
22.294075
 21
15.16104
 31
0.0
  0
LINE
  5
1D4
100
AcDbEntity
  8
4
370
    15
390
0
  6
Continuous
 62
     1
100
AcDbLine
 10
22.134074
 20
15.739039
 30
0.0
 11
22.294075
 21
15.739039
 31
0.0
  0
LINE
  5
1D5
100
AcDbEntity
  8
4
370
    15
390
0
  6
Continuous
 62
     1
100
AcDbLine
 10
22.162074
 20
16.04304
 30
0.0
 11
22.294075
 21
16.04304
 31
0.0
  0
LINE
  5
1D6
100
AcDbEntity
  8
4
370
    15
390
0
  6
Continuous
 62
     1
100
AcDbLine
 10
22.122075
 20
16.083041
 30
0.0
 11
22.294075
 21
16.083041
 31
0.0
  0
LINE
  5
1D7
100
AcDbEntity
  8
4
370
    15
390
0
  6
Continuous
 62
     1
100
AcDbLine
 10
22.098075
 20
16.895041
 30
0.0
 11
22.294075
 21
16.895041
 31
0.0
  0
LINE
  5
1D8
100
AcDbEntity
  8
4
370
    15
390
0
  6
Continuous
 62
     1
100
AcDbLine
 10
22.083076
 20
16.910041
 30
0.0
 11
22.294075
 21
16.910041
 31
0.0
  0
LINE
  5
1D9
100
AcDbEntity
  8
4
370
    15
390
0
  6
Continuous
 62
     1
100
AcDbLine
 10
22.083076
 20
17.39488
 30
0.0
 11
22.294075
 21
17.39488
 31
0.0
  0
LINE
  5
1DA
100
AcDbEntity
  8
4
370
    15
390
0
  6
Continuous
 62
     1
100
AcDbLine
 10
22.028075
 20
17.449881
 30
0.0
 11
22.294075
 21
17.449881
 31
0.0
  0
LINE
  5
1DB
100
AcDbEntity
  8
3
370
    15
390
0
  6
Continuous
 62
     1
100
AcDbLine
 10
22.91996
 20
14.856539
 30
0.0
 11
23.754969
 21
14.856539
 31
0.0
  0
LINE
  5
1DC
100
AcDbEntity
  8
1
370
    15
390
0
  6
Continuous
 62
     1
100
AcDbLine
 10
22.870074
 20
14.856539
 30
0.0
 11
22.792576
 21
14.856539
 31
0.0
  0
LINE
  5
1DD
100
AcDbEntity
  8
1
370
    15
390
0
  6
Continuous
 62
     1
100
AcDbLine
 10
23.207369
 20
15.177039
 30
0.0
 11
22.792576
 21
14.762244
 31
0.0
  0
LINE
  5
1DE
100
AcDbEntity
  8
1
370
    15
390
0
  6
Continuous
 62
     1
100
AcDbLine
 10
23.239421
 20
15.124514
 30
0.0
 11
22.792576
 21
14.677669
 31
0.0
  0
LINE
  5
1DF
100
AcDbEntity
  8
1
370
    15
390
0
  6
Continuous
 62
     1
100
AcDbLine
 10
23.172262
 20
14.972777
 30
0.0
 11
22.792576
 21
14.593091
 31
0.0
  0
LINE
  5
1E0
100
AcDbEntity
  8
1
370
    15
390
0
  6
Continuous
 62
     1
100
AcDbLine
 10
23.168468
 20
14.884406
 30
0.0
 11
22.792576
 21
14.508513
 31
0.0
  0
LINE
  5
1E1
100
AcDbEntity
  8
1
370
    15
390
0
  6
Continuous
 62
     1
100
AcDbLine
 10
22.829775
 20
14.470299
 30
0.0
 11
22.792576
 21
14.461005
 31
0.0
  0
LINE
  5
1E2
100
AcDbEntity
  8
1
370
    15
390
0
  6
Continuous
 62
     1
100
AcDbLine
 10
22.792576
 20
14.856539
 30
0.0
 11
22.792576
 21
14.461005
 31
0.0
  0
LINE
  5
1E3
100
AcDbEntity
  8
1
370
    15
390
0
  6
Continuous
 62
     7
100
AcDbLine
 10
22.261575
 20
14.856539
 30
0.0
 11
22.184076
 21
14.856539
 31
0.0
  0
LINE
  5
1E4
100
AcDbEntity
  8
3
370
    15
390
0
  6
Continuous
 62
     1
100
AcDbLine
 10
20.873544
 20
14.614039
 30
0.0
 11
22.215733
 21
14.614039
 31
0.0
  0
LINE
  5
1E5
100
AcDbEntity
  8
3
370
    15
390
0
  6
Continuous
 62
     1
100
AcDbLine
 10
20.8201
 20
16.910041
 30
0.0
 11
22.059699
 21
16.910041
 31
0.0
  0
LINE
  5
1E6
100
AcDbEntity
  8
4
370
    15
390
0
  6
Continuous
 62
     7
100
AcDbLine
 10
22.150255
 20
13.486281
 30
0.0
 11
22.333988
 21
13.486281
 31
0.0
  0
LINE
  5
1E7
100
AcDbEntity
  8
4
370
    15
390
0
  6
Continuous
 62
     7
100
AcDbLine
 10
22.333988
 20
13.486281
 30
0.0
 11
22.333988
 21
13.652075
 31
0.0
  0
LINE
  5
1E8
100
AcDbEntity
  8
4
370
    15
390
0
  6
Continuous
 62
     7
100
AcDbLine
 10
22.333988
 20
13.652075
 30
0.0
 11
22.150255
 21
13.652075
 31
0.0
  0
LINE
  5
1E9
100
AcDbEntity
  8
4
370
    15
390
0
  6
Continuous
 62
     7
100
AcDbLine
 10
22.150255
 20
13.652075
 30
0.0
 11
22.150255
 21
13.486281
 31
0.0
  0
CIRCLE
  5
1EA
100
AcDbEntity
  8
4
370
    15
390
0
  6
Continuous
 62
     7
100
AcDbCircle
 10
22.242121
 20
13.569178
 30
0.0
 40
0.064668
  0
CIRCLE
  5
1EB
100
AcDbEntity
  8
4
370
    15
390
0
  6
Continuous
 62
     7
100
AcDbCircle
 10
22.242121
 20
13.569178
 30
0.0
 40
0.0285
  0
HATCH
  5
1EC
100
AcDbEntity
  8
4
370
     0
390
0
  6
Continuous
 62
     7
100
AcDbHatch
 10
0.0
 20
0.0
 30
0.0
210
0.0
220
0.0
230
1.0
  2
SOLID
 70
     1
 71
     0
 91
        1
 92
        1
 93
        1
 72
     2
 10
22.242121212826483
 20
13.569178294491467
 40
0.0285002973369224
 50
0.0
 51
359.999994
 73
     1
 97
        0
 75
     0
 76
     1
 98
        1
 10
0.0
 20
0.0
  0
LINE
  5
1ED
100
AcDbEntity
  8
4
370
    15
390
0
  6
Continuous
 62
     7
100
AcDbLine
 10
22.333988
 20
13.652075
 30
0.0
 11
22.825781
 21
13.652075
 31
0.0
  0
LINE
  5
1EE
100
AcDbEntity
  8
4
370
    15
390
0
  6
Continuous
 62
     7
100
AcDbLine
 10
22.333988
 20
13.486281
 30
0.0
 11
22.825781
 21
13.486281
 31
0.0
  0
LINE
  5
1EF
100
AcDbEntity
  8
4
370
    15
390
0
  6
Continuous
 62
     7
100
AcDbLine
 10
22.825781
 20
13.652075
 30
0.0
 11
22.825781
 21
13.486281
 31
0.0
  0
LINE
  5
1F0
100
AcDbEntity
  8
4
370
    15
390
0
  6
Continuous
 62
     7
100
AcDbLine
 10
22.825781
 20
13.486281
 30
0.0
 11
23.009514
 21
13.486281
 31
0.0
  0
LINE
  5
1F1
100
AcDbEntity
  8
4
370
    15
390
0
  6
Continuous
 62
     7
100
AcDbLine
 10
23.009514
 20
13.486281
 30
0.0
 11
23.009514
 21
13.652075
 31
0.0
  0
LINE
  5
1F2
100
AcDbEntity
  8
4
370
    15
390
0
  6
Continuous
 62
     7
100
AcDbLine
 10
23.009514
 20
13.652075
 30
0.0
 11
22.825781
 21
13.652075
 31
0.0
  0
LINE
  5
1F3
100
AcDbEntity
  8
1
370
    15
390
0
  6
Continuous
 62
     7
100
AcDbLine
 10
20.355396
 20
17.905363
 30
0.0
 11
20.423
 21
17.905363
 31
0.0
  0
LINE
  5
1F4
100
AcDbEntity
  8
1
370
    15
390
0
  6
Continuous
 62
     7
100
AcDbLine
 10
20.480197
 20
17.80629
 30
0.0
 11
20.423
 21
17.905363
 31
0.0
  0
INSERT
  5
202
100
AcDbEntity
  8
3
370
    40
390
0
  6
Continuous
 62
     1
100
AcDbBlockReference
  2
MAU
 10
20.423
 20
17.962675
 30
0.0
 41
0.5
 42
-0.5
 50
270.0
  0
CIRCLE
  5
204
100
AcDbEntity
  8
1
370
    15
390
0
  6
PHANTOM
 62
     1
100
AcDbCircle
 10
22.111076
 20
16.239039
 30
0.0
 40
0.114479
  0
CIRCLE
  5
205
100
AcDbEntity
  8
1
370
    15
390
0
  6
PHANTOM
 62
     1
100
AcDbCircle
 10
20.435034
 20
17.878228
 30
0.0
 40
0.224877
  0
LINE
  5
206
100
AcDbEntity
  8
1
370
    15
390
0
  6
Continuous
 62
     7
100
AcDbLine
 10
20.355396
 20
17.905363
 30
0.0
 11
20.355396
 21
18.088531
 31
0.0
  0
LINE
  5
207
100
AcDbEntity
  8
1
370
    15
390
0
  6
Continuous
 62
     7
100
AcDbLine
 10
20.480197
 20
17.657933
 30
0.0
 11
20.480197
 21
17.80629
 31
0.0
  0
LINE
  5
208
100
AcDbEntity
  8
3
370
    15
390
0
  6
Continuous
 62
     1
100
AcDbLine
 10
20.697633
 20
17.962675
 30
0.0
 11
20.423
 21
17.962675
 31
0.0
  0
LINE
  5
209
100
AcDbEntity
  8
1
370
    15
390
0
  6
Continuous
 62
     1
100
AcDbLine
 10
20.225265
 20
18.247854
 30
0.0
 11
20.414424
 21
17.920216
 31
0.0
  0
INSERT
  5
217
100
AcDbEntity
  8
3
370
    60
390
0
  6
Continuous
 62
     1
100
AcDbBlockReference
  2
MAL
 10
20.247802
 20
18.208818
 30
0.0
 41
0.5
 42
-0.5
 50
205.0
  0
LINE
  5
218
100
AcDbEntity
  8
3
370
    15
390
0
  6
Continuous
 62
     1
100
AcDbLine
 10
20.141017
 20
18.153574
 30
0.0
 11
20.247802
 21
18.208818
 31
0.0
  0
LINE
  5
219
100
AcDbEntity
  8
1
370
    15
390
0
  6
Continuous
 62
     1
100
AcDbLine
 10
20.423
 20
17.922857
 30
0.0
 11
20.423
 21
18.303782
 31
0.0
  0
INSERT
  5
21A
100
AcDbEntity
  8
3
370
    40
390
0
  6
Continuous
 62
     1
100
AcDbBlockReference
  2
MAU
 10
20.423
 20
18.26112
 30
0.0
 41
0.5
 42
-0.5
 50
270.0
  0
LINE
  5
21B
100
AcDbEntity
  8
3
370
    15
390
0
  6
Continuous
 62
     1
100
AcDbLine
 10
20.549339
 20
18.26112
 30
0.0
 11
20.423
 21
18.26112
 31
0.0
  0
LINE
  5
21C
100
AcDbEntity
  8
3
370
    15
390
0
  6
Continuous
 62
     1
100
AcDbLine
 10
21.750151
 20
18.033701
 30
0.0
 11
22.028075
 21
18.033701
 31
0.0
  0
LINE
  5
21D
100
AcDbEntity
  8
3
370
    15
390
0
  6
Continuous
 62
     1
100
AcDbLine
 10
22.083076
 20
17.152461
 30
0.0
 11
21.750151
 21
17.152461
 31
0.0
  0
LINE
  5
21E
100
AcDbEntity
  8
3
370
    15
390
0
  6
Continuous
 62
     1
100
AcDbLine
 10
22.098075
 20
16.56704
 30
0.0
 11
21.750151
 21
16.56704
 31
0.0
  0
LINE
  5
21F
100
AcDbEntity
  8
0
370
    15
390
0
  6
Continuous
 62
     1
100
AcDbLine
 10
21.883792
 20
16.676664
 30
0.0
 11
21.820784
 21
16.567031
 31
0.0
  0
LINE
  5
220
100
AcDbEntity
  8
0
370
    15
390
0
  6
Continuous
 62
     1
100
AcDbLine
 10
21.840434
 20
16.676665
 30
0.0
 11
21.883792
 21
16.676664
 31
0.0
  0
LINE
  5
221
100
AcDbEntity
  8
0
370
    15
390
0
  6
Continuous
 62
     1
100
AcDbLine
 10
21.82079
 20
16.56704
 30
0.0
 11
21.794588
 21
16.612422
 31
0.0
  0
LINE
  5
222
100
AcDbEntity
  8
0
370
    15
390
0
  6
Continuous
 62
     1
100
AcDbLine
 10
21.883792
 20
16.223458
 30
0.0
 11
21.820784
 21
16.113825
 31
0.0
  0
LINE
  5
223
100
AcDbEntity
  8
0
370
    15
390
0
  6
Continuous
 62
     1
100
AcDbLine
 10
21.840434
 20
16.223459
 30
0.0
 11
21.883792
 21
16.223458
 31
0.0
  0
LINE
  5
224
100
AcDbEntity
  8
0
370
    15
390
0
  6
Continuous
 62
     1
100
AcDbLine
 10
21.82079
 20
16.113834
 30
0.0
 11
21.794588
 21
16.159215
 31
0.0
  0
LINE
  5
225
100
AcDbEntity
  8
3
370
    15
390
0
  6
Continuous
 62
     1
100
AcDbLine
 10
21.750151
 20
16.113825
 30
0.0
 11
21.873261
 21
16.113825
 31
0.0
  0
LINE
  5
226
100
AcDbEntity
  8
0
370
    15
390
0
  6
Continuous
 62
     1
100
AcDbLine
 10
21.883792
 20
17.262085
 30
0.0
 11
21.820784
 21
17.152452
 31
0.0
  0
LINE
  5
227
100
AcDbEntity
  8
0
370
    15
390
0
  6
Continuous
 62
     1
100
AcDbLine
 10
21.840434
 20
17.262085
 30
0.0
 11
21.883792
 21
17.262085
 31
0.0
  0
LINE
  5
228
100
AcDbEntity
  8
0
370
    15
390
0
  6
Continuous
 62
     1
100
AcDbLine
 10
21.82079
 20
17.152461
 30
0.0
 11
21.794588
 21
17.197842
 31
0.0
  0
LINE
  5
229
100
AcDbEntity
  8
3
370
    15
390
0
  6
Continuous
 62
     1
100
AcDbLine
 10
21.750151
 20
15.457409
 30
0.0
 11
22.162074
 21
15.457409
 31
0.0
  0
LINE
  5
22A
100
AcDbEntity
  8
3
370
    15
390
0
  6
Continuous
 62
     1
100
AcDbLine
 10
21.750151
 20
14.952338
 30
0.0
 11
22.184076
 21
14.952338
 31
0.0
  0
LINE
  5
22B
100
AcDbEntity
  8
3
370
    15
390
0
  6
Continuous
 62
     1
100
AcDbLine
 10
22.261575
 20
14.746374
 30
0.0
 11
21.750151
 21
14.746374
 31
0.0
  0
LINE
  5
22C
100
AcDbEntity
  8
3
370
    15
390
0
  6
Continuous
 62
     1
100
AcDbLine
 10
22.122075
 20
16.151515
 30
0.0
 11
21.914293
 21
16.151515
 31
0.0
  0
LINE
  5
22D
100
AcDbEntity
  8
3
370
    15
390
0
  6
Continuous
 62
     1
100
AcDbLine
 10
21.873261
 20
16.113825
 30
0.0
 11
21.914293
 21
16.151515
 31
0.0
  0
LINE
  5
22F
100
AcDbEntity
  8
1
370
    15
390
0
  6
HIDDEN
 62
     1
100
AcDbLine
 10
22.920077
 20
16.07104
 30
0.0
 11
22.920077
 21
15.739039
 31
0.0
  0
LINE
  5
230
100
AcDbEntity
  8
2
370
    15
390
0
  6
HIDDEN
 62
     7
100
AcDbLine
 10
22.885782
 20
15.753747
 30
0.0
 11
22.885782
 21
16.063166
 31
0.0
  0
LINE
  5
231
100
AcDbEntity
  8
1
370
    15
390
0
  6
HIDDEN
 62
     7
100
AcDbLine
 10
22.134074
 20
16.07104
 30
0.0
 11
22.134074
 21
15.739039
 31
0.0
  0
LINE
  5
232
100
AcDbEntity
  8
1
370
    15
390
0
  6
HIDDEN
 62
     1
100
AcDbLine
 10
22.148074
 20
16.256762
 30
0.0
 11
22.125076
 21
16.270041
 31
0.0
  0
LINE
  5
233
100
AcDbEntity
  8
1
370
    15
390
0
  6
HIDDEN
 62
     1
100
AcDbLine
 10
22.148074
 20
16.256762
 30
0.0
 11
22.148074
 21
16.10604
 31
0.0
  0
LINE
  5
234
100
AcDbEntity
  8
1
370
    15
390
0
  6
HIDDEN
 62
     1
100
AcDbLine
 10
22.189075
 20
16.082369
 30
0.0
 11
22.148074
 21
16.10604
 31
0.0
  0
LINE
  5
235
100
AcDbEntity
  8
1
370
    15
390
0
  6
HIDDEN
 62
     1
100
AcDbLine
 10
22.189075
 20
15.184039
 30
0.0
 11
22.189075
 21
16.082369
 31
0.0
  0
LINE
  5
236
100
AcDbEntity
  8
1
370
    15
390
0
  6
HIDDEN
 62
     1
100
AcDbLine
 10
22.211076
 20
15.17134
 30
0.0
 11
22.189075
 21
15.184039
 31
0.0
  0
LINE
  5
237
100
AcDbEntity
  8
1
370
    15
390
0
  6
HIDDEN
 62
     1
100
AcDbLine
 10
22.211076
 20
15.17134
 30
0.0
 11
22.211076
 21
14.91104
 31
0.0
  0
LINE
  5
238
100
AcDbEntity
  8
1
370
    15
390
0
  6
HIDDEN
 62
     1
100
AcDbLine
 10
22.055076
 20
17.473879
 30
0.0
 11
22.055076
 21
18.125303
 31
0.0
  0
LINE
  5
239
100
AcDbEntity
  8
1
370
    15
390
0
  6
HIDDEN
 62
     1
100
AcDbLine
 10
22.111076
 20
17.441549
 30
0.0
 11
22.055076
 21
17.473879
 31
0.0
  0
LINE
  5
23A
100
AcDbEntity
  8
1
370
    15
390
0
  6
HIDDEN
 62
     1
100
AcDbLine
 10
22.111076
 20
17.441549
 30
0.0
 11
22.111076
 21
16.989041
 31
0.0
  0
LINE
  5
23B
100
AcDbEntity
  8
1
370
    15
390
0
  6
HIDDEN
 62
     1
100
AcDbLine
 10
22.125076
 20
16.980958
 30
0.0
 11
22.111076
 21
16.989041
 31
0.0
  0
LINE
  5
23C
100
AcDbEntity
  8
1
370
    15
390
0
  6
HIDDEN
 62
     1
100
AcDbLine
 10
22.125076
 20
16.980958
 30
0.0
 11
22.125076
 21
16.270041
 31
0.0
  0
LINE
  5
23D
100
AcDbEntity
  8
1
370
    15
390
0
  6
HIDDEN
 62
     1
100
AcDbLine
 10
23.151892
 20
17.676539
 30
0.0
 11
23.151892
 21
18.12401
 31
0.0
  0
LINE
  5
23E
100
AcDbEntity
  8
1
370
    15
390
0
  6
HIDDEN
 62
     1
100
AcDbLine
 10
23.024892
 20
17.603216
 30
0.0
 11
23.151892
 21
17.676539
 31
0.0
  0
LINE
  5
23F
100
AcDbEntity
  8
1
370
    15
390
0
  6
HIDDEN
 62
     1
100
AcDbLine
 10
23.015892
 20
17.676539
 30
0.0
 11
23.151892
 21
17.676539
 31
0.0
  0
LINE
  5
240
100
AcDbEntity
  8
1
370
    15
390
0
  6
HIDDEN
 62
     1
100
AcDbLine
 10
23.015892
 20
17.603216
 30
0.0
 11
23.024892
 21
17.603216
 31
0.0
  0
LINE
  5
241
100
AcDbEntity
  8
1
370
    15
390
0
  6
HIDDEN
 62
     1
100
AcDbLine
 10
23.024892
 20
17.603216
 30
0.0
 11
23.024892
 21
17.449881
 31
0.0
  0
LINE
  5
242
100
AcDbEntity
  8
1
370
    15
390
0
  6
HIDDEN
 62
     1
100
AcDbLine
 10
23.024892
 20
17.449881
 30
0.0
 11
22.972076
 21
17.449881
 31
0.0
  0
LINE
  5
243
100
AcDbEntity
  8
1
370
    15
390
0
  6
HIDDEN
 62
     1
100
AcDbLine
 10
22.261575
 20
14.881884
 30
0.0
 11
22.211076
 21
14.91104
 31
0.0
  0
LINE
  5
244
100
AcDbEntity
  8
1
370
    15
390
0
  6
HIDDEN
 62
     1
100
AcDbLine
 10
22.261575
 20
14.881884
 30
0.0
 11
22.261575
 21
14.614039
 31
0.0
  0
LINE
  5
245
100
AcDbEntity
  8
1
370
    15
390
0
  6
HIDDEN
 62
     1
100
AcDbLine
 10
22.261575
 20
14.614039
 30
0.0
 11
22.528075
 21
14.614039
 31
0.0
  0
LINE
  5
246
100
AcDbEntity
  8
1
370
    15
390
0
  6
HIDDEN
 62
     1
100
AcDbLine
 10
22.261575
 20
14.614039
 30
0.0
 11
22.528075
 21
14.460175
 31
0.0
  0
LINE
  5
247
100
AcDbEntity
  8
3
370
    15
390
0
  6
Continuous
 62
     1
100
AcDbLine
 10
21.31269
 20
14.952338
 30
0.0
 11
21.627708
 21
14.952338
 31
0.0
  0
LINE
  5
248
100
AcDbEntity
  8
3
370
    15
390
0
  6
Continuous
 62
     1
100
AcDbLine
 10
20.830714
 20
17.443792
 30
0.0
 11
22.011627
 21
17.443792
 31
0.0
  0
LINE
  5
249
100
AcDbEntity
  8
1
370
    15
390
0
  6
PHANTOM
 62
     1
100
AcDbLine
 10
20.285545
 20
17.710232
 30
0.0
 11
20.552557
 21
17.472634
 31
0.0
  0
LINE
  5
24A
100
AcDbEntity
  8
1
370
    15
390
0
  6
PHANTOM
 62
     1
100
AcDbLine
 10
21.12048
 20
17.471692
 30
0.0
 11
20.599665
 21
18.031415
 31
0.0
  0
LINE
  5
24B
100
AcDbEntity
  8
1
370
    15
390
0
  6
PHANTOM
 62
     1
100
AcDbLine
 10
21.626756
 20
16.927594
 30
0.0
 11
21.520874
 21
17.041387
 31
0.0
  0
LINE
  5
24C
100
AcDbEntity
  8
1
370
    15
390
0
  6
PHANTOM
 62
     1
100
AcDbLine
 10
20.65601
 20
17.380576
 30
0.0
 11
21.15801
 21
16.933876
 31
0.0
  0
LINE
  5
24D
100
AcDbEntity
  8
1
370
    15
390
0
  6
PHANTOM
 62
     1
100
AcDbLine
 10
21.843737
 20
16.694404
 30
0.0
 11
21.672663
 21
16.878258
 31
0.0
  0
LINE
  5
24E
100
AcDbEntity
  8
1
370
    15
390
0
  6
PHANTOM
 62
     1
100
AcDbLine
 10
22.194885
 20
16.317023
 30
0.0
 11
21.967488
 21
16.561408
 31
0.0
  0
LINE
  5
24F
100
AcDbEntity
  8
1
370
    15
390
0
  6
PHANTOM
 62
     1
100
AcDbLine
 10
21.952261
 20
16.577773
 30
0.0
 11
21.886588
 21
16.648352
 31
0.0
  0
LINE
  5
250
100
AcDbEntity
  8
1
370
    15
390
0
  6
PHANTOM
 62
     1
100
AcDbLine
 10
21.207847
 20
16.889528
 30
0.0
 11
21.475427
 21
16.651425
 31
0.0
  0
LINE
  5
251
100
AcDbEntity
  8
1
370
    15
390
0
  6
PHANTOM
 62
     1
100
AcDbLine
 10
21.604167
 20
16.536867
 30
0.0
 11
21.917421
 21
16.25812
 31
0.0
  0
LINE
  5
252
100
AcDbEntity
  8
1
370
    15
390
0
  6
PHANTOM
 62
     1
100
AcDbLine
 10
21.958077
 20
16.221942
 30
0.0
 11
22.034974
 21
16.153516
 31
0.0
  0
LINE
  5
253
100
AcDbEntity
  8
3
370
    15
390
0
  6
Continuous
 62
     1
100
AcDbLine
 10
20.320612
 20
17.905363
 30
0.0
 11
20.065561
 21
17.905363
 31
0.0
  0
LINE
  5
254
100
AcDbEntity
  8
0
370
    15
390
0
  6
Continuous
 62
     1
100
AcDbLine
 10
21.883792
 20
15.06197
 30
0.0
 11
21.820784
 21
14.952338
 31
0.0
  0
LINE
  5
255
100
AcDbEntity
  8
0
370
    15
390
0
  6
Continuous
 62
     1
100
AcDbLine
 10
21.840434
 20
15.061971
 30
0.0
 11
21.883792
 21
15.06197
 31
0.0
  0
LINE
  5
256
100
AcDbEntity
  8
0
370
    15
390
0
  6
Continuous
 62
     1
100
AcDbLine
 10
21.82079
 20
14.952346
 30
0.0
 11
21.794588
 21
14.997728
 31
0.0
  0
LINE
  5
257
100
AcDbEntity
  8
1
370
    15
390
0
  6
Continuous
 62
     7
100
AcDbLine
 10
21.448004
 20
18.538684
 30
0.0
 11
21.493002
 21
18.493685
 31
0.0
  0
CIRCLE
  5
258
100
AcDbEntity
  8
1
370
    15
390
0
  6
PHANTOM
 62
     1
100
AcDbCircle
 10
21.47551
 20
18.521462
 30
0.0
 40
0.205477
  0
LINE
  5
259
100
AcDbEntity
  8
3
370
    15
390
0
  6
Continuous
 62
     1
100
AcDbLine
 10
21.408648
 20
18.578037
 30
0.0
 11
21.170876
 21
18.815809
 31
0.0
  0
ARC
  5
25A
100
AcDbEntity
  8
3
370
    15
390
0
  6
Continuous
 62
     1
100
AcDbCircle
 10
21.438294
 20
18.515771
 30
0.0
 40
0.343855
100
AcDbArc
 50
131.15371
 51
163.933492
  0
LINE
  5
25B
100
AcDbEntity
  8
3
370
    15
390
0
  6
Continuous
 62
     1
100
AcDbLine
 10
21.366596
 20
18.420648
 30
0.0
 11
21.493002
 21
18.493685
 31
0.0
  0
LINE
  5
25C
100
AcDbEntity
  8
3
370
    15
390
0
  6
Continuous
 62
     1
100
AcDbLine
 10
21.285926
 20
18.465231
 30
0.0
 11
21.366596
 21
18.420648
 31
0.0
  0
LINE
  5
25D
100
AcDbEntity
  8
3
370
    15
390
0
  6
Continuous
 62
     1
100
AcDbLine
 10
21.222774
 20
18.465231
 30
0.0
 11
21.285926
 21
18.465231
 31
0.0
  0
LINE
  5
25E
100
AcDbEntity
  8
1
370
    15
390
0
  6
Continuous
 62
     7
100
AcDbLine
 10
21.448004
 20
18.538684
 30
0.0
 11
21.448004
 21
18.725091
 31
0.0
  0
LINE
  5
25F
100
AcDbEntity
  8
1
370
    15
390
0
  6
Continuous
 62
     7
100
AcDbLine
 10
21.493002
 20
18.493685
 30
0.0
 11
21.493002
 21
18.316731
 31
0.0
  0
LINE
  5
260
100
AcDbEntity
  8
3
370
    15
390
0
  6
Continuous
 62
     1
100
AcDbLine
 10
21.448004
 20
18.74957
 30
0.0
 11
21.448004
 21
18.922234
 31
0.0
  0
ARC
  5
261
100
AcDbEntity
  8
3
370
    15
390
0
  6
Continuous
 62
     1
100
AcDbCircle
 10
21.453293
 20
18.515766
 30
0.0
 40
0.343862
100
AcDbArc
 50
57.236675
 51
90.048792
  0
CIRCLE
  5
262
100
AcDbEntity
  8
1
370
    15
390
0
  6
PHANTOM
 62
     1
100
AcDbCircle
 10
22.051668
 20
17.422569
 30
0.0
 40
0.125478
  0
CIRCLE
  5
263
100
AcDbEntity
  8
1
370
    15
390
0
  6
PHANTOM
 62
     1
100
AcDbCircle
 10
22.086188
 20
16.90915
 30
0.0
 40
0.090958
  0
LINE
  5
264
100
AcDbEntity
  8
1
370
    15
390
0
  6
PHANTOM
 62
     1
100
AcDbLine
 10
21.481286
 20
18.117208
 30
0.0
 11
21.300059
 21
18.414514
 31
0.0
  0
LINE
  5
265
100
AcDbEntity
  8
1
370
    15
390
0
  6
PHANTOM
 62
     1
100
AcDbLine
 10
21.427506
 20
18.132053
 30
0.0
 11
21.288612
 21
18.436079
 31
0.0
  0
LINE
  5
266
100
AcDbEntity
  8
1
370
    15
390
0
  6
PHANTOM
 62
     1
100
AcDbLine
 10
21.83212
 20
18.055741
 30
0.0
 11
21.672075
 21
18.581319
 31
0.0
  0
LINE
  5
267
100
AcDbEntity
  8
1
370
    15
390
0
  6
PHANTOM
 62
     1
100
AcDbLine
 10
21.663264
 20
18.604945
 30
0.0
 11
21.907359
 21
18.055969
 31
0.0
  0
LINE
  5
268
100
AcDbEntity
  8
1
370
    15
390
0
  6
PHANTOM
 62
     1
100
AcDbLine
 10
21.927719
 20
18.010176
 30
0.0
 11
22.021603
 21
17.799029
 31
0.0
  0
LINE
  5
269
100
AcDbEntity
  8
1
370
    15
390
0
  6
PHANTOM
 62
     1
100
AcDbLine
 10
22.072594
 20
17.68435
 30
0.0
 11
22.166323
 21
17.473549
 31
0.0
  0
LINE
  5
26A
100
AcDbEntity
  8
1
370
    15
390
0
  6
PHANTOM
 62
     1
100
AcDbLine
 10
21.986708
 20
17.54808
 30
0.0
 11
21.844653
 21
18.014583
 31
0.0
  0
LINE
  5
26B
100
AcDbEntity
  8
1
370
    15
390
0
  6
PHANTOM
 62
     1
100
AcDbLine
 10
22.173202
 20
16.935646
 30
0.0
 11
22.070405
 21
17.273223
 31
0.0
  0
LINE
  5
26C
100
AcDbEntity
  8
1
370
    15
390
0
  6
PHANTOM
 62
     1
100
AcDbLine
 10
22.056085
 20
17.320252
 30
0.0
 11
21.999211
 21
17.507024
 31
0.0
  0
LINE
  5
26D
100
AcDbEntity
  8
1
370
    15
390
0
  6
PHANTOM
 62
     1
100
AcDbLine
 10
22.003455
 20
16.871353
 30
0.0
 11
21.882148
 21
17.136884
 31
0.0
  0
LINE
  5
26E
100
AcDbEntity
  8
1
370
    15
390
0
  6
PHANTOM
 62
     1
100
AcDbLine
 10
21.822412
 20
17.267641
 30
0.0
 11
21.753387
 21
17.41873
 31
0.0
  0
LINE
  5
26F
100
AcDbEntity
  8
1
370
    15
390
0
  6
PHANTOM
 62
     1
100
AcDbLine
 10
21.728694
 20
17.472781
 30
0.0
 11
21.513936
 21
17.942865
 31
0.0
  0
LINE
  5
270
100
AcDbEntity
  8
1
370
    15
390
0
  6
PHANTOM
 62
     1
100
AcDbLine
 10
21.944526
 20
17.357259
 30
0.0
 11
21.905573
 21
17.421163
 31
0.0
  0
LINE
  5
271
100
AcDbEntity
  8
1
370
    15
390
0
  6
PHANTOM
 62
     1
100
AcDbLine
 10
21.881587
 20
17.460512
 30
0.0
 11
21.595708
 21
17.929499
 31
0.0
  0
CIRCLE
  5
272
100
AcDbEntity
  8
1
370
    15
390
0
  6
PHANTOM
 62
     1
100
AcDbCircle
 10
22.171062
 20
15.149235
 30
0.0
 40
0.102741
  0
LINE
  5
273
100
AcDbEntity
  8
3
370
    15
390
0
  6
Continuous
 62
     1
100
AcDbLine
 10
22.121017
 20
15.16104
 30
0.0
 11
21.828564
 21
15.16104
 31
0.0
  0
LINE
  5
274
100
AcDbEntity
  8
1
370
    15
390
0
  6
Continuous
 62
     1
100
AcDbLine
 10
21.828564
 20
15.16104
 30
0.0
 11
21.774722
 21
15.089794
 31
0.0
  0
LINE
  5
275
100
AcDbEntity
  8
3
370
    15
390
0
  6
Continuous
 62
     1
100
AcDbLine
 10
21.774722
 20
15.089794
 30
0.0
 11
20.873544
 21
15.089794
 31
0.0
  0
LINE
  5
276
100
AcDbEntity
  8
3
370
    15
390
0
  6
Continuous
 62
     1
100
AcDbLine
 10
20.981674
 20
15.372122
 30
0.0
 11
20.743902
 21
15.609894
 31
0.0
  0
LINE
  5
277
100
AcDbEntity
  8
3
370
    15
390
0
  6
Continuous
 62
     1
100
AcDbLine
 10
20.858953
 20
15.259316
 30
0.0
 11
20.939623
 21
15.214733
 31
0.0
  0
LINE
  5
278
100
AcDbEntity
  8
3
370
    15
390
0
  6
Continuous
 62
     1
100
AcDbLine
 10
20.795801
 20
15.259316
 30
0.0
 11
20.858953
 21
15.259316
 31
0.0
  0
LINE
  5
279
100
AcDbEntity
  8
1
370
    15
390
0
  6
Continuous
 62
     7
100
AcDbLine
 10
21.026532
 20
15.329324
 30
0.0
 11
21.06253
 21
15.293325
 31
0.0
  0
CIRCLE
  5
27A
100
AcDbEntity
  8
1
370
    15
390
0
  6
PHANTOM
 62
     1
100
AcDbCircle
 10
21.048536
 20
15.315547
 30
0.0
 40
0.164382
  0
LINE
  5
27B
100
AcDbEntity
  8
1
370
    15
390
0
  6
Continuous
 62
     7
100
AcDbLine
 10
21.026532
 20
15.329324
 30
0.0
 11
21.026532
 21
15.478449
 31
0.0
  0
LINE
  5
27C
100
AcDbEntity
  8
1
370
    15
390
0
  6
Continuous
 62
     7
100
AcDbLine
 10
21.06253
 20
15.293325
 30
0.0
 11
21.06253
 21
15.151762
 31
0.0
  0
LINE
  5
27D
100
AcDbEntity
  8
3
370
    15
390
0
  6
Continuous
 62
     1
100
AcDbLine
 10
20.939623
 20
15.214733
 30
0.0
 11
21.066029
 21
15.293325
 31
0.0
  0
LINE
  5
27E
100
AcDbEntity
  8
3
370
    15
390
0
  6
Continuous
 62
     1
100
AcDbLine
 10
21.026532
 20
15.543654
 30
0.0
 11
21.026532
 21
15.716319
 31
0.0
  0
ARC
  5
27F
100
AcDbEntity
  8
3
370
    15
390
0
  6
Continuous
 62
     1
100
AcDbCircle
 10
21.01132
 20
15.309855
 30
0.0
 40
0.343855
100
AcDbArc
 50
131.15371
 51
152.184537
  0
ARC
  5
280
100
AcDbEntity
  8
3
370
    15
390
0
  6
Continuous
 62
     1
100
AcDbCircle
 10
21.031821
 20
15.309851
 30
0.0
 40
0.343862
100
AcDbArc
 50
71.765992
 51
90.048792
  0
LINE
  5
281
100
AcDbEntity
  8
1
370
    15
390
0
  6
PHANTOM
 62
     1
100
AcDbLine
 10
22.191618
 20
15.249899
 30
0.0
 11
21.603214
 21
15.370053
 31
0.0
  0
LINE
  5
282
100
AcDbEntity
  8
1
370
    15
390
0
  6
PHANTOM
 62
     1
100
AcDbLine
 10
21.38313
 20
15.414995
 30
0.0
 11
21.081425
 21
15.476605
 31
0.0
  0
LINE
  5
283
100
AcDbEntity
  8
1
370
    15
390
0
  6
PHANTOM
 62
     1
100
AcDbLine
 10
21.814013
 20
15.079259
 30
0.0
 11
22.161548
 21
15.046935
 31
0.0
  0
LINE
  5
284
100
AcDbEntity
  8
1
370
    15
390
0
  6
PHANTOM
 62
     1
100
AcDbLine
 10
21.033313
 20
15.151871
 30
0.0
 11
21.59496
 21
15.099633
 31
0.0
  0
LINE
  5
285
100
AcDbEntity
  8
3
370
    15
390
0
  6
Continuous
 62
     1
100
AcDbLine
 10
23.194667
 20
17.676539
 30
0.0
 11
24.345794
 21
17.676539
 31
0.0
  0
LINE
  5
286
100
AcDbEntity
  8
3
370
    15
390
0
  6
Continuous
 62
     1
100
AcDbLine
 10
23.536485
 20
18.085561
 30
0.0
 11
23.536485
 21
18.446016
 31
0.0
  0
LINE
  5
287
100
AcDbEntity
  8
3
370
    15
390
0
  6
Continuous
 62
     1
100
AcDbLine
 10
23.536485
 20
18.446016
 30
0.0
 11
23.625531
 21
18.446016
 31
0.0
  0
LINE
  5
288
100
AcDbEntity
  8
1
370
    15
390
0
  6
HIDDEN
 62
     7
100
AcDbLine
 10
21.160255
 20
13.528332
 30
0.0
 11
21.160255
 21
13.362332
 31
0.0
  0
LINE
  5
289
100
AcDbEntity
  8
1
370
    15
390
0
  6
HIDDEN
 62
     7
100
AcDbLine
 10
21.553072
 20
13.528332
 30
0.0
 11
21.553072
 21
13.362332
 31
0.0
  0
LINE
  5
28A
100
AcDbEntity
  8
1
370
    15
390
0
  6
HIDDEN
 62
     7
100
AcDbLine
 10
21.160255
 20
13.362332
 30
0.0
 11
21.553072
 21
13.362332
 31
0.0
  0
LINE
  5
28B
100
AcDbEntity
  8
15
370
    15
390
0
  6
Continuous
 62
     7
100
AcDbLine
 10
21.185255
 20
13.062333
 30
0.0
 11
21.174255
 21
13.073332
 31
0.0
  0
LINE
  5
28C
100
AcDbEntity
  8
15
370
    15
390
0
  6
Continuous
 62
     7
100
AcDbLine
 10
21.185255
 20
12.921082
 30
0.0
 11
21.185255
 21
13.062333
 31
0.0
  0
LINE
  5
28D
100
AcDbEntity
  8
15
370
    15
390
0
  6
Continuous
 62
     7
100
AcDbLine
 10
21.174255
 20
13.514332
 30
0.0
 11
21.154255
 21
13.534333
 31
0.0
  0
LINE
  5
28E
100
AcDbEntity
  8
15
370
    15
390
0
  6
Continuous
 62
     7
100
AcDbLine
 10
21.174255
 20
13.073332
 30
0.0
 11
21.174255
 21
13.514332
 31
0.0
  0
LINE
  5
28F
100
AcDbEntity
  8
15
370
    15
390
0
  6
Continuous
 62
     7
100
AcDbLine
 10
21.154255
 20
13.602807
 30
0.0
 11
21.154255
 21
13.534333
 31
0.0
  0
LINE
  5
290
100
AcDbEntity
  8
15
370
    15
390
0
  6
Continuous
 62
     7
100
AcDbLine
 10
21.142255
 20
13.940333
 30
0.0
 11
21.142255
 21
13.612332
 31
0.0
  0
LINE
  5
291
100
AcDbEntity
  8
15
370
    15
390
0
  6
Continuous
 62
     7
100
AcDbLine
 10
21.134755
 20
14.190253
 30
0.0
 11
21.107255
 21
14.217753
 31
0.0
  0
LINE
  5
292
100
AcDbEntity
  8
15
370
    15
390
0
  6
Continuous
 62
     7
100
AcDbLine
 10
21.142255
 20
13.612332
 30
0.0
 11
21.148755
 21
13.612332
 31
0.0
  0
LINE
  5
293
100
AcDbEntity
  8
15
370
    15
390
0
  6
Continuous
 62
     7
100
AcDbLine
 10
21.154255
 20
13.602807
 30
0.0
 11
21.148755
 21
13.612332
 31
0.0
  0
LINE
  5
294
100
AcDbEntity
  8
15
370
    15
390
0
  6
Continuous
 62
     7
100
AcDbLine
 10
21.134755
 20
13.947833
 30
0.0
 11
21.142255
 21
13.940333
 31
0.0
  0
LINE
  5
295
100
AcDbEntity
  8
15
370
    15
390
0
  6
Continuous
 62
     7
100
AcDbLine
 10
21.134755
 20
13.947833
 30
0.0
 11
21.134755
 21
14.190253
 31
0.0
  0
LINE
  5
296
100
AcDbEntity
  8
15
370
    15
390
0
  6
Continuous
 62
     7
100
AcDbLine
 10
21.142255
 20
13.612332
 30
0.0
 11
21.571255
 21
13.612332
 31
0.0
  0
LINE
  5
297
100
AcDbEntity
  8
15
370
    15
390
0
  6
Continuous
 62
     7
100
AcDbLine
 10
21.224005
 20
12.799832
 30
0.0
 11
21.357255
 21
12.799832
 31
0.0
  0
LINE
  5
298
100
AcDbEntity
  8
15
370
    15
390
0
  6
Continuous
 62
     7
100
AcDbLine
 10
21.224005
 20
12.799832
 30
0.0
 11
21.357255
 21
12.7229
 31
0.0
  0
LINE
  5
299
100
AcDbEntity
  8
15
370
    15
390
0
  6
Continuous
 62
     7
100
AcDbLine
 10
21.528072
 20
13.062333
 30
0.0
 11
21.539072
 21
13.073332
 31
0.0
  0
LINE
  5
29A
100
AcDbEntity
  8
15
370
    15
390
0
  6
Continuous
 62
     7
100
AcDbLine
 10
21.528072
 20
12.921082
 30
0.0
 11
21.528072
 21
13.062333
 31
0.0
  0
LINE
  5
29B
100
AcDbEntity
  8
15
370
    15
390
0
  6
Continuous
 62
     7
100
AcDbLine
 10
21.539072
 20
13.514332
 30
0.0
 11
21.559072
 21
13.534333
 31
0.0
  0
LINE
  5
29C
100
AcDbEntity
  8
15
370
    15
390
0
  6
Continuous
 62
     7
100
AcDbLine
 10
21.539072
 20
13.073332
 30
0.0
 11
21.539072
 21
13.514332
 31
0.0
  0
LINE
  5
29D
100
AcDbEntity
  8
15
370
    15
390
0
  6
Continuous
 62
     7
100
AcDbLine
 10
21.559072
 20
13.602807
 30
0.0
 11
21.559072
 21
13.534333
 31
0.0
  0
LINE
  5
29E
100
AcDbEntity
  8
15
370
    15
390
0
  6
Continuous
 62
     7
100
AcDbLine
 10
21.571072
 20
13.940333
 30
0.0
 11
21.571072
 21
13.612332
 31
0.0
  0
LINE
  5
29F
100
AcDbEntity
  8
15
370
    15
390
0
  6
Continuous
 62
     7
100
AcDbLine
 10
21.578572
 20
14.190253
 30
0.0
 11
21.606072
 21
14.217753
 31
0.0
  0
LINE
  5
2A0
100
AcDbEntity
  8
15
370
    15
390
0
  6
Continuous
 62
     7
100
AcDbLine
 10
21.571072
 20
13.612332
 30
0.0
 11
21.564572
 21
13.612332
 31
0.0
  0
LINE
  5
2A1
100
AcDbEntity
  8
15
370
    15
390
0
  6
Continuous
 62
     7
100
AcDbLine
 10
21.559072
 20
13.602807
 30
0.0
 11
21.564572
 21
13.612332
 31
0.0
  0
LINE
  5
2A2
100
AcDbEntity
  8
15
370
    15
390
0
  6
Continuous
 62
     7
100
AcDbLine
 10
21.578572
 20
13.947833
 30
0.0
 11
21.571072
 21
13.940333
 31
0.0
  0
LINE
  5
2A3
100
AcDbEntity
  8
15
370
    15
390
0
  6
Continuous
 62
     7
100
AcDbLine
 10
21.578572
 20
13.947833
 30
0.0
 11
21.578572
 21
14.190253
 31
0.0
  0
LINE
  5
2A4
100
AcDbEntity
  8
15
370
    15
390
0
  6
Continuous
 62
     7
100
AcDbLine
 10
21.489322
 20
12.799832
 30
0.0
 11
21.356072
 21
12.799832
 31
0.0
  0
LINE
  5
2A5
100
AcDbEntity
  8
15
370
    15
390
0
  6
Continuous
 62
     7
100
AcDbLine
 10
21.489322
 20
12.799832
 30
0.0
 11
21.356072
 21
12.7229
 31
0.0
  0
LINE
  5
2A6
100
AcDbEntity
  8
15
370
    15
390
0
  6
Continuous
 62
     7
100
AcDbLine
 10
21.606072
 20
14.217753
 30
0.0
 11
21.606072
 21
14.294656
 31
0.0
  0
LINE
  5
2A7
100
AcDbEntity
  8
15
370
    15
390
0
  6
Continuous
 62
     7
100
AcDbLine
 10
21.606072
 20
14.294656
 30
0.0
 11
21.669163
 21
14.331082
 31
0.0
  0
LINE
  5
2A8
100
AcDbEntity
  8
15
370
    15
390
0
  6
Continuous
 62
     7
100
AcDbLine
 10
21.107255
 20
14.294656
 30
0.0
 11
21.044163
 21
14.331082
 31
0.0
  0
LINE
  5
2A9
100
AcDbEntity
  8
15
370
    15
390
0
  6
Continuous
 62
     7
100
AcDbLine
 10
21.107255
 20
14.217753
 30
0.0
 11
21.107255
 21
14.294656
 31
0.0
  0
LINE
  5
2AA
100
AcDbEntity
  8
15
370
    15
390
0
  6
Continuous
 62
     7
100
AcDbLine
 10
21.669163
 20
14.331082
 30
0.0
 11
21.044163
 21
14.331082
 31
0.0
  0
LINE
  5
2AB
100
AcDbEntity
  8
15
370
    15
390
0
  6
Continuous
 62
     7
100
AcDbLine
 10
21.107255
 20
14.217753
 30
0.0
 11
21.606072
 21
14.217753
 31
0.0
  0
LINE
  5
2AC
100
AcDbEntity
  8
15
370
    15
390
0
  6
Continuous
 62
     7
100
AcDbLine
 10
21.134755
 20
14.190253
 30
0.0
 11
21.578572
 21
14.190253
 31
0.0
  0
LINE
  5
2AD
100
AcDbEntity
  8
15
370
    15
390
0
  6
Continuous
 62
     7
100
AcDbLine
 10
21.107255
 20
14.294656
 30
0.0
 11
21.606072
 21
14.294656
 31
0.0
  0
LINE
  5
2AE
100
AcDbEntity
  8
15
370
    15
390
0
  6
Continuous
 62
     7
100
AcDbLine
 10
21.134755
 20
13.947833
 30
0.0
 11
21.578572
 21
13.947833
 31
0.0
  0
LINE
  5
2AF
100
AcDbEntity
  8
15
370
    15
390
0
  6
Continuous
 62
     7
100
AcDbLine
 10
21.142255
 20
13.940333
 30
0.0
 11
21.571072
 21
13.940333
 31
0.0
  0
LINE
  5
2B0
100
AcDbEntity
  8
15
370
    15
390
0
  6
Continuous
 62
     7
100
AcDbLine
 10
21.154255
 20
13.602807
 30
0.0
 11
21.559072
 21
13.602807
 31
0.0
  0
LINE
  5
2B1
100
AcDbEntity
  8
15
370
    15
390
0
  6
Continuous
 62
     7
100
AcDbLine
 10
21.154255
 20
13.534333
 30
0.0
 11
21.559072
 21
13.534333
 31
0.0
  0
LINE
  5
2B2
100
AcDbEntity
  8
15
370
    15
390
0
  6
Continuous
 62
     7
100
AcDbLine
 10
21.174255
 20
13.514332
 30
0.0
 11
21.539072
 21
13.514332
 31
0.0
  0
LINE
  5
2B3
100
AcDbEntity
  8
15
370
    15
390
0
  6
Continuous
 62
     7
100
AcDbLine
 10
21.174255
 20
13.073332
 30
0.0
 11
21.539072
 21
13.073332
 31
0.0
  0
LINE
  5
2B4
100
AcDbEntity
  8
15
370
    15
390
0
  6
Continuous
 62
     7
100
AcDbLine
 10
21.185255
 20
13.062333
 30
0.0
 11
21.528072
 21
13.062333
 31
0.0
  0
LINE
  5
2B5
100
AcDbEntity
  8
15
370
    15
390
0
  6
Continuous
 62
     7
100
AcDbLine
 10
21.528072
 20
12.921082
 30
0.0
 11
21.185255
 21
12.921082
 31
0.0
  0
LINE
  5
2B6
100
AcDbEntity
  8
15
370
    15
390
0
  6
Continuous
 62
     7
100
AcDbLine
 10
21.489322
 20
12.921082
 30
0.0
 11
21.489322
 21
12.799832
 31
0.0
  0
LINE
  5
2B7
100
AcDbEntity
  8
15
370
    15
390
0
  6
Continuous
 62
     7
100
AcDbLine
 10
21.224005
 20
12.921082
 30
0.0
 11
21.224005
 21
12.799832
 31
0.0
  0
LINE
  5
2B8
100
AcDbEntity
  8
15
370
    15
390
0
  6
Continuous
 62
     7
100
AcDbLine
 10
21.356663
 20
13.810074
 30
0.0
 11
21.356663
 21
13.760448
 31
0.0
  0
LINE
  5
2B9
100
AcDbEntity
  8
15
370
    15
390
0
  6
Continuous
 62
     7
100
AcDbLine
 10
21.356663
 20
13.733011
 30
0.0
 11
21.356663
 21
12.723242
 31
0.0
  0
LINE
  5
2BA
100
AcDbEntity
  8
15
370
    15
390
0
  6
Continuous
 62
     7
100
AcDbLine
 10
21.044163
 20
14.331082
 30
0.0
 11
21.044163
 21
14.398219
 31
0.0
  0
LINE
  5
2BB
100
AcDbEntity
  8
15
370
    15
390
0
  6
Continuous
 62
     7
100
AcDbLine
 10
21.356663
 20
14.435724
 30
0.0
 11
21.356663
 21
13.835125
 31
0.0
  0
LINE
  5
2BC
100
AcDbEntity
  8
15
370
    15
390
0
  6
Continuous
 62
     7
100
AcDbLine
 10
21.669163
 20
14.331082
 30
0.0
 11
21.669163
 21
14.398219
 31
0.0
  0
LINE
  5
2BD
100
AcDbEntity
  8
1
370
    15
390
0
  6
PHANTOM
 62
     1
100
AcDbLine
 10
21.327785
 20
17.2489
 30
0.0
 11
21.158755
 21
17.430558
 31
0.0
  0
LINE
  5
2BE
100
AcDbEntity
  8
3
370
    15
390
0
  6
Continuous
 62
     1
100
AcDbLine
 10
21.0183
 20
17.962675
 30
0.0
 11
20.725169
 21
17.962675
 31
0.0
  0
LINE
  5
2BF
100
AcDbEntity
  8
3
370
    15
390
0
  6
Continuous
 62
     1
100
AcDbLine
 10
21.325416
 20
17.152461
 30
0.0
 11
21.664931
 21
17.152461
 31
0.0
  0
LINE
  5
2C0
100
AcDbEntity
  8
3
370
    15
390
0
  6
Continuous
 62
     1
100
AcDbLine
 10
21.331333
 20
16.56704
 30
0.0
 11
21.668483
 21
16.56704
 31
0.0
  0
LINE
  5
2C1
100
AcDbEntity
  8
3
370
    15
390
0
  6
Continuous
 62
     1
100
AcDbLine
 10
21.325319
 20
16.169635
 30
0.0
 11
21.325319
 21
16.169635
 31
0.0
  0
LINE
  5
2C2
100
AcDbEntity
  8
3
370
    15
390
0
  6
Continuous
 62
     1
100
AcDbLine
 10
21.343459
 20
15.457409
 30
0.0
 11
21.665979
 21
15.457409
 31
0.0
  0
TEXT
  5
2C4
100
AcDbEntity
  8
0
370
    15
390
0
  6
Continuous
 62
     7
100
AcDbText
 10
19.83367
 20
17.139963
 30
0.0
 40
0.032922
  1
LET
 50
270.0
  7
Vcadd_SIMP
100
AcDbText
  0
TEXT
  5
2C5
100
AcDbEntity
  8
0
370
    15
390
0
  6
Continuous
 62
     7
100
AcDbText
 10
19.833681
 20
16.58632
 30
0.0
 40
0.032922
  1
REVISION 
 50
270.0
  7
Vcadd_SIMP
100
AcDbText
  0
TEXT
  5
2C6
100
AcDbEntity
  8
0
370
    15
390
0
  6
Continuous
 62
     7
100
AcDbText
 10
19.832667
 20
15.785738
 30
0.0
 40
0.032922
  1
DATE 
 50
270.0
  7
Vcadd_SIMP
100
AcDbText
  0
TEXT
  5
2C7
100
AcDbEntity
  8
0
370
    15
390
0
  6
Continuous
 62
     7
100
AcDbText
 10
19.83275
 20
15.578726
 30
0.0
 40
0.032922
  1
DRN CHK REL
 50
270.0
  7
Vcadd_SIMP
100
AcDbText
  0
TEXT
  5
2C8
100
AcDbEntity
  8
0
370
    15
390
0
  6
Continuous
 62
     7
100
AcDbText
 10
20.444722
 20
15.061988
 30
0.0
 40
0.031
  1
UNLESS
 50
270.0
  7
Vcadd_SIMP
100
AcDbText
  0
TEXT
  5
2C9
100
AcDbEntity
  8
0
370
    15
390
0
  6
Continuous
 62
     7
100
AcDbText
 10
20.392844
 20
15.107201
 30
0.0
 40
0.031
  1
OTHERWISE
 50
270.0
  7
Vcadd_SIMP
100
AcDbText
  0
TEXT
  5
2CA
100
AcDbEntity
  8
0
370
    15
390
0
  6
Continuous
 62
     7
100
AcDbText
 10
20.336814
 20
15.106124
 30
0.0
 40
0.031
  1
SPECIFIED
 50
270.0
  7
Vcadd_SIMP
100
AcDbText
  0
TEXT
  5
2CB
100
AcDbEntity
  8
0
370
    15
390
0
  6
Continuous
 62
     7
100
AcDbText
 10
20.438303
 20
14.701378
 30
0.0
 40
0.031
  1
TITLE
 50
270.0
  7
Vcadd_SIMP
100
AcDbText
  0
TEXT
  5
2CC
100
AcDbEntity
  8
0
370
    15
390
0
  6
Continuous
 62
     7
100
AcDbText
 10
20.438318
 20
13.200784
 30
0.0
 40
0.031
  1
REVISION
 50
270.0
  7
Vcadd_SIMP
100
AcDbText
  0
TEXT
  5
2CD
100
AcDbEntity
  8
0
370
    15
390
0
  6
Continuous
 62
     7
100
AcDbText
 10
20.228248
 20
14.705637
 30
0.0
 40
0.031
  1
SCALE
 50
270.0
  7
Vcadd_SIMP
100
AcDbText
  0
TEXT
  5
2CE
100
AcDbEntity
  8
0
370
    15
390
0
  6
Continuous
 62
     7
100
AcDbText
 10
20.228248
 20
14.705637
 30
0.0
 40
0.031
  1
      REF.                MATERIAL
 50
270.0
  7
Vcadd_SIMP
100
AcDbText
  0
TEXT
  5
2CF
100
AcDbEntity
  8
0
370
    15
390
0
  6
Continuous
 62
     7
100
AcDbText
 10
20.044571
 20
14.703104
 30
0.0
 40
0.031
  1
DRAWN    
 50
270.0
  7
Vcadd_SIMP
100
AcDbText
  0
TEXT
  5
2D0
100
AcDbEntity
  8
0
370
    15
390
0
  6
Continuous
 62
     7
100
AcDbText
 10
20.044571
 20
14.435259
 30
0.0
 40
0.031
  1
CHECK 
 50
270.0
  7
Vcadd_SIMP
100
AcDbText
  0
TEXT
  5
2D1
100
AcDbEntity
  8
0
370
    15
390
0
  6
Continuous
 62
     7
100
AcDbText
 10
20.044571
 20
14.164882
 30
0.0
 40
0.031
  1
RELEASE
 50
270.0
  7
Vcadd_SIMP
100
AcDbText
  0
TEXT
  5
2D2
100
AcDbEntity
  8
0
370
    15
390
0
  6
Continuous
 62
     7
100
AcDbText
 10
19.899961
 20
14.700088
 30
0.0
 40
0.031
  1
DATE     
 50
270.0
  7
Vcadd_SIMP
100
AcDbText
  0
TEXT
  5
2D3
100
AcDbEntity
  8
0
370
    15
390
0
  6
Continuous
 62
     7
100
AcDbText
 10
19.899961
 20
14.432243
 30
0.0
 40
0.031
  1
DATE  
 50
270.0
  7
Vcadd_SIMP
100
AcDbText
  0
TEXT
  5
2D4
100
AcDbEntity
  8
0
370
    15
390
0
  6
Continuous
 62
     7
100
AcDbText
 10
19.899961
 20
14.161867
 30
0.0
 40
0.031
  1
DATE
 50
270.0
  7
Vcadd_SIMP
100
AcDbText
  0
TEXT
  5
2D5
100
AcDbEntity
  8
0
370
    15
390
0
  6
Continuous
 62
     7
100
AcDbText
 10
20.044571
 20
13.890379
 30
0.0
 40
0.031
  1
HEAT TREAT & FINISH
 50
270.0
  7
Vcadd_SIMP
100
AcDbText
  0
TEXT
  5
2D6
100
AcDbEntity
  8
0
370
    15
390
0
  6
Continuous
 62
     7
100
AcDbText
 10
20.438318
 20
13.107784
 30
0.0
 40
0.031
  1
      PART NO.
 50
270.0
  7
Vcadd_SIMP
100
AcDbText
  0
TEXT
  5
2D7
100
AcDbEntity
  8
0
370
    15
390
0
  6
Continuous
 62
     7
100
AcDbText
 10
24.752843
 20
13.207011
 30
0.0
 40
0.031
  1
REVISION PART NO.
 50
270.0
  7
Vcadd_SIMP
100
AcDbText
  0
TEXT
  5
2D8
100
AcDbEntity
  8
0
370
    15
390
0
  6
Continuous
 62
     7
100
AcDbText
 10
20.124227
 20
14.708453
 30
0.0
 40
0.05
  1
2:1
 50
270.0
  7
Vcadd_SIMP
100
AcDbText
  0
TEXT
  5
2D9
100
AcDbEntity
  8
0
370
    15
390
0
  6
Continuous
 62
     7
100
AcDbText
 10
19.832998
 20
14.678951
 30
0.0
 40
0.03
  1
1-30-87
 50
270.0
  7
Vcadd_SIMP
100
AcDbText
  0
TEXT
  5
2DA
100
AcDbEntity
  8
4
370
    15
390
0
  6
Continuous
 62
     7
100
AcDbText
 10
20.913034
 20
16.24901
 30
0.0
 40
0.071
  1
L
  7
Vcadd_SIMP
100
AcDbText
  0
TEXT
  5
2DB
100
AcDbEntity
  8
4
370
    15
390
0
  6
Continuous
 62
     7
100
AcDbText
 10
20.984033
 20
16.24901
 30
0.0
 40
0.071
  1
.S.
  7
Vcadd_SIMP
100
AcDbText
  0
TEXT
  5
2DC
100
AcDbEntity
  8
0
370
    15
390
0
  6
Continuous
 62
     7
100
AcDbText
 10
20.147248
 20
14.439371
 30
0.0
 40
0.05
  1
SERIES 1
 50
270.0
  7
Vcadd_SIMP
100
AcDbText
  0
TEXT
  5
2DD
100
AcDbEntity
  8
4
370
    15
390
0
  6
Continuous
 62
     7
100
AcDbText
 10
22.849086
 20
13.505384
 30
0.0
 40
0.12
  1
A
  7
Vcadd_SIMP
 72
     1
 11
22.918086
 21
13.505384
 31
0.0
100
AcDbText
  0
TEXT
  5
2DE
100
AcDbEntity
  8
4
370
    15
390
0
  6
Continuous
 62
     7
100
AcDbText
 10
20.541177
 20
18.226753
 30
0.0
 40
0.071
  1
30^  
  7
Vcadd_SIMP
 72
     1
 11
20.663652
 21
18.226753
 31
0.0
100
AcDbText
  0
TEXT
  5
2DF
100
AcDbEntity
  8
4
370
    15
390
0
  6
Continuous
 62
     7
100
AcDbText
 10
20.582002
 20
18.138003
 30
0.0
 40
0.071
  1
**
  7
Vcadd_SIMP
 72
     1
 11
20.663652
 21
18.138003
 31
0.0
100
AcDbText
  0
TEXT
  5
2E0
100
AcDbEntity
  8
4
370
    15
390
0
  6
Continuous
 62
     7
100
AcDbText
 10
19.824834
 20
17.875441
 30
0.0
 40
0.071
  1
L.S.
  7
Vcadd_SIMP
 72
     1
 11
19.988134
 21
17.875441
 31
0.0
100
AcDbText
  0
TEXT
  5
2E1
100
AcDbEntity
  8
4
370
    15
390
0
  6
Continuous
 62
     7
100
AcDbText
 10
21.235385
 20
18.854006
 30
0.0
 40
0.071
  1
45^  
  7
Vcadd_SIMP
100
AcDbText
  0
TEXT
  5
2E2
100
AcDbEntity
  8
4
370
    15
390
0
  6
Continuous
 62
     7
100
AcDbText
 10
21.235385
 20
18.747506
 30
0.0
 40
0.071
  1
**
  7
Vcadd_SIMP
100
AcDbText
  0
TEXT
  5
2E3
100
AcDbEntity
  8
4
370
    15
390
0
  6
Continuous
 62
     7
100
AcDbText
 10
20.808411
 20
15.64809
 30
0.0
 40
0.071
  1
45^  
  7
Vcadd_SIMP
100
AcDbText
  0
TEXT
  5
2E4
100
AcDbEntity
  8
4
370
    15
390
0
  6
Continuous
 62
     7
100
AcDbText
 10
20.808411
 20
15.54159
 30
0.0
 40
0.071
  1
**
  7
Vcadd_SIMP
100
AcDbText
  0
TEXT
  5
2E5
100
AcDbEntity
  8
4
370
    15
390
0
  6
Continuous
 62
     7
100
AcDbText
 10
20.465839
 20
17.4118
 30
0.0
 40
0.071
  1
30,76
  7
Vcadd_SIMP
100
AcDbText
  0
TEXT
  5
2E6
100
AcDbEntity
  8
4
370
    15
390
0
  6
Continuous
 62
     7
100
AcDbText
 10
21.331879
 20
17.164342
 30
0.0
 40
0.071
  1
22,58
  7
Vcadd_SIMP
100
AcDbText
  0
TEXT
  5
2E7
100
AcDbEntity
  8
4
370
    15
390
0
  6
Continuous
 62
     7
100
AcDbText
 10
21.331879
 20
17.075592
 30
0.0
 40
0.071
  1
22,63
  7
Vcadd_SIMP
100
AcDbText
  0
TEXT
  5
2E8
100
AcDbEntity
  8
4
370
    15
390
0
  6
Continuous
 62
     7
100
AcDbText
 10
21.331879
 20
16.578921
 30
0.0
 40
0.071
  1
21,82
  7
Vcadd_SIMP
100
AcDbText
  0
TEXT
  5
2E9
100
AcDbEntity
  8
4
370
    15
390
0
  6
Continuous
 62
     7
100
AcDbText
 10
21.331879
 20
16.490171
 30
0.0
 40
0.071
  1
21,87
  7
Vcadd_SIMP
100
AcDbText
  0
TEXT
  5
2EA
100
AcDbEntity
  8
4
370
    15
390
0
  6
Continuous
 62
     7
100
AcDbText
 10
21.331879
 20
16.125707
 30
0.0
 40
0.071
  1
20,63
  7
Vcadd_SIMP
100
AcDbText
  0
TEXT
  5
2EB
100
AcDbEntity
  8
4
370
    15
390
0
  6
Continuous
 62
     7
100
AcDbText
 10
21.331879
 20
16.036957
 30
0.0
 40
0.071
  1
20,68
  7
Vcadd_SIMP
100
AcDbText
  0
TEXT
  5
2EC
100
AcDbEntity
  8
4
370
    15
390
0
  6
Continuous
 62
     7
100
AcDbText
 10
20.528199
 20
15.966725
 30
0.0
 40
0.071
  1
3,96
  7
Vcadd_SIMP
100
AcDbText
  0
TEXT
  5
2ED
100
AcDbEntity
  8
4
370
    15
390
0
  6
Continuous
 62
     7
100
AcDbText
 10
24.37387
 20
17.642036
 30
0.0
 40
0.071
  1
*36,53
  7
Vcadd_SIMP
100
AcDbText
  0
TEXT
  5
2EE
100
AcDbEntity
  8
4
370
    15
390
0
  6
Continuous
 62
     7
100
AcDbText
 10
24.37387
 20
17.553286
 30
0.0
 40
0.071
  1
 REF
  7
Vcadd_SIMP
100
AcDbText
  0
TEXT
  5
2EF
100
AcDbEntity
  8
4
370
    15
390
0
  6
Continuous
 62
     7
100
AcDbText
 10
24.45111
 20
17.402686
 30
0.0
 40
0.071
  1
30,18
  7
Vcadd_SIMP
100
AcDbText
  0
TEXT
  5
2F0
100
AcDbEntity
  8
4
370
    15
390
0
  6
Continuous
 62
     7
100
AcDbText
 10
23.617811
 20
17.213933
 30
0.0
 40
0.071
  1
6,35
  7
Vcadd_SIMP
100
AcDbText
  0
TEXT
  5
2F1
100
AcDbEntity
  8
4
370
    15
390
0
  6
Continuous
 62
     7
100
AcDbText
 10
23.609714
 20
16.62433
 30
0.0
 40
0.071
  1
7,93
  7
Vcadd_SIMP
100
AcDbText
  0
TEXT
  5
2F2
100
AcDbEntity
  8
4
370
    15
390
0
  6
Continuous
 62
     7
100
AcDbText
 10
24.500381
 20
16.393955
 30
0.0
 40
0.071
  1
4,78
  7
Vcadd_SIMP
100
AcDbText
  0
TEXT
  5
2F3
100
AcDbEntity
  8
4
370
    15
390
0
  6
Continuous
 62
     7
100
AcDbText
 10
23.609714
 20
15.901968
 30
0.0
 40
0.071
  1
17,48
  7
Vcadd_SIMP
100
AcDbText
  0
TEXT
  5
2F4
100
AcDbEntity
  8
4
370
    15
390
0
  6
Continuous
 62
     7
100
AcDbText
 10
21.331879
 20
15.469291
 30
0.0
 40
0.071
  1
18,54
  7
Vcadd_SIMP
100
AcDbText
  0
TEXT
  5
2F5
100
AcDbEntity
  8
4
370
    15
390
0
  6
Continuous
 62
     7
100
AcDbText
 10
21.331879
 20
15.380541
 30
0.0
 40
0.071
  1
18,64
  7
Vcadd_SIMP
100
AcDbText
  0
TEXT
  5
2F6
100
AcDbEntity
  8
4
370
    15
390
0
  6
Continuous
 62
     7
100
AcDbText
 10
20.511743
 20
15.059679
 30
0.0
 40
0.071
  1
27,38
  7
Vcadd_SIMP
100
AcDbText
  0
TEXT
  5
2F7
100
AcDbEntity
  8
4
370
    15
390
0
  6
Continuous
 62
     7
100
AcDbText
 10
21.331879
 20
14.964219
 30
0.0
 40
0.071
  1
17,45
  7
Vcadd_SIMP
100
AcDbText
  0
TEXT
  5
2F8
100
AcDbEntity
  8
4
370
    15
390
0
  6
Continuous
 62
     7
100
AcDbText
 10
21.331879
 20
14.875469
 30
0.0
 40
0.071
  1
17,50
  7
Vcadd_SIMP
100
AcDbText
  0
TEXT
  5
2F9
100
AcDbEntity
  8
4
370
    15
390
0
  6
Continuous
 62
     7
100
AcDbText
 10
20.508249
 20
14.868121
 30
0.0
 40
0.071
  1
35,05
  7
Vcadd_SIMP
100
AcDbText
  0
TEXT
  5
2FA
100
AcDbEntity
  8
4
370
    15
390
0
  6
Continuous
 62
     7
100
AcDbText
 10
20.508249
 20
14.779371
 30
0.0
 40
0.071
  1
35,18
  7
Vcadd_SIMP
100
AcDbText
  0
TEXT
  5
2FB
100
AcDbEntity
  8
4
370
    15
390
0
  6
Continuous
 62
     7
100
AcDbText
 10
20.508955
 20
14.583299
 30
0.0
 40
0.071
  1
41,28
  7
Vcadd_SIMP
100
AcDbText
  0
TEXT
  5
2FC
100
AcDbEntity
  8
4
370
    15
390
0
  6
Continuous
 62
     7
100
AcDbText
 10
20.866736
 20
14.456924
 30
0.0
 40
0.071
  1
0,25 x 45^ MAX
  7
Vcadd_SIMP
100
AcDbText
  0
TEXT
  5
2FD
100
AcDbEntity
  8
4
370
    15
390
0
  6
Continuous
 62
     7
100
AcDbText
 10
22.290561
 20
13.509711
 30
0.0
 40
0.12
  1
0,05
  7
Vcadd_SIMP
 72
     1
 11
22.566561
 21
13.509711
 31
0.0
100
AcDbText
  0
TEXT
  5
2FE
100
AcDbEntity
  8
4
370
    15
390
0
  6
Continuous
 62
     7
100
AcDbText
 10
21.756808
 20
17.21027
 30
0.0
 40
0.052
  1
1,6
  7
Vcadd_SIMP
100
AcDbText
  0
TEXT
  5
2FF
100
AcDbEntity
  8
4
370
    15
390
0
  6
Continuous
 62
     7
100
AcDbText
 10
21.756808
 20
16.171644
 30
0.0
 40
0.052
  1
1,6
  7
Vcadd_SIMP
100
AcDbText
  0
TEXT
  5
300
100
AcDbEntity
  8
4
370
    15
390
0
  6
Continuous
 62
     7
100
AcDbText
 10
21.756808
 20
16.62485
 30
0.0
 40
0.052
  1
1,6
  7
Vcadd_SIMP
100
AcDbText
  0
TEXT
  5
301
100
AcDbEntity
  8
4
370
    15
390
0
  6
Continuous
 62
     7
100
AcDbText
 10
21.756808
 20
15.010156
 30
0.0
 40
0.052
  1
1,6
  7
Vcadd_SIMP
100
AcDbText
  0
TEXT
  5
302
100
AcDbEntity
  8
4
370
    15
390
0
  6
Continuous
 62
     7
100
AcDbText
 10
20.49241
 20
16.874752
 30
0.0
 40
0.071
  1
17,04
  7
Vcadd_SIMP
100
AcDbText
  0
TEXT
  5
303
100
AcDbEntity
  8
4
370
    15
390
0
  6
Continuous
 62
     7
100
AcDbText
 10
20.489378
 20
15.78439
 30
0.0
 40
0.071
  1
12,70
  7
Vcadd_SIMP
100
AcDbText
  0
TEXT
  5
304
100
AcDbEntity
  8
4
370
    15
390
0
  6
Continuous
 62
     7
100
AcDbText
 10
24.467182
 20
17.021302
 30
0.0
 40
0.071
  1
20,63
  7
Vcadd_SIMP
100
AcDbText
  0
TEXT
  5
305
100
AcDbEntity
  8
4
370
    15
390
0
  6
Continuous
 62
     7
100
AcDbText
 10
24.471264
 20
15.488074
 30
0.0
 40
0.071
  1
18,26
  7
Vcadd_SIMP
100
AcDbText
  0
TEXT
  5
306
100
AcDbEntity
  8
4
370
    15
390
0
  6
Continuous
 62
     7
100
AcDbText
 10
21.256809
 20
14.713885
 30
0.0
 40
0.071
  1
13,49 %%c
  7
Vcadd_SIMP
100
AcDbText
  0
TEXT
  5
307
100
AcDbEntity
  8
4
370
    15
390
0
  6
Continuous
 62
     7
100
AcDbText
 10
21.200989
 20
16.083918
 30
0.0
 40
0.071
  1
A
  7
Vcadd_SIMP
100
AcDbText
  0
LINE
  5
308
100
AcDbEntity
  8
4
370
    15
390
0
  6
Continuous
 62
     1
100
AcDbLine
 10
21.287389
 20
16.162029
 30
0.0
 11
21.188145
 21
16.162029
 31
0.0
  0
LINE
  5
309
100
AcDbEntity
  8
4
370
    15
390
0
  6
Continuous
 62
     1
100
AcDbLine
 10
21.188145
 20
16.065622
 30
0.0
 11
21.287389
 21
16.065622
 31
0.0
  0
LINE
  5
30A
100
AcDbEntity
  8
4
370
    15
390
0
  6
Continuous
 62
     1
100
AcDbLine
 10
21.287389
 20
16.065622
 30
0.0
 11
21.287389
 21
16.162029
 31
0.0
  0
LINE
  5
30B
100
AcDbEntity
  8
4
370
    15
390
0
  6
Continuous
 62
     1
100
AcDbLine
 10
21.188145
 20
16.162029
 30
0.0
 11
21.188145
 21
16.065622
 31
0.0
  0
LINE
  5
30C
100
AcDbEntity
  8
4
370
    15
390
0
  6
Continuous
 62
     1
100
AcDbLine
 10
21.287389
 20
16.113825
 30
0.0
 11
21.664246
 21
16.113825
 31
0.0
  0
TEXT
  5
30D
100
AcDbEntity
  8
4
370
    15
390
0
  6
Continuous
 62
     7
100
AcDbText
 10
21.272713
 20
17.998421
 30
0.0
 40
0.071
  1
25,40
  7
Vcadd_SIMP
100
AcDbText
  0
TEXT
  5
30E
100
AcDbEntity
  8
4
370
    15
390
0
  6
Continuous
 62
     7
100
AcDbText
 10
20.472925
 20
15.294116
 30
0.0
 40
0.064
  1
0,50 R
  7
Vcadd_SIMP
 72
     1
 11
20.693725
 21
15.294116
 31
0.0
100
AcDbText
  0
TEXT
  5
30F
100
AcDbEntity
  8
4
370
    15
390
0
  6
Continuous
 62
     7
100
AcDbText
 10
20.620125
 20
15.198116
 30
0.0
 40
0.064
  1
**
  7
Vcadd_SIMP
 72
     1
 11
20.693725
 21
15.198116
 31
0.0
100
AcDbText
  0
TEXT
  5
310
100
AcDbEntity
  8
4
370
    15
390
0
  6
Continuous
 62
     7
100
AcDbText
 10
20.804005
 20
18.44122
 30
0.0
 40
0.064
  1
0,50 R
  7
Vcadd_SIMP
 72
     1
 11
21.024805
 21
18.44122
 31
0.0
100
AcDbText
  0
TEXT
  5
311
100
AcDbEntity
  8
4
370
    15
390
0
  6
Continuous
 62
     7
100
AcDbText
 10
20.951205
 20
18.34522
 30
0.0
 40
0.064
  1
**
  7
Vcadd_SIMP
 72
     1
 11
21.024805
 21
18.34522
 31
0.0
100
AcDbText
  0
LINE
  5
312
100
AcDbEntity
  8
4
370
    15
390
0
  6
Continuous
 62
     1
100
AcDbLine
 10
22.201138
 20
16.003977
 30
0.0
 11
22.571902
 21
15.633213
 31
0.0
  0
ARC
  5
313
100
AcDbEntity
  8
4
370
    15
390
0
  6
Continuous
 62
     1
100
AcDbCircle
 10
22.162074
 20
16.04304
 30
0.0
 40
0.498947
100
AcDbArc
 50
315.0
 51
329.858046
  0
ARC
  5
314
100
AcDbEntity
  8
4
370
    15
390
0
  6
Continuous
 62
     1
100
AcDbCircle
 10
22.162074
 20
16.04304
 30
0.0
 40
0.498947
100
AcDbArc
 50
255.476733
 51
270.0
  0
TEXT
  5
315
100
AcDbEntity
  8
4
370
    15
390
0
  6
Continuous
 62
     7
100
AcDbText
 10
22.258089
 20
15.561724
 30
0.0
 40
0.071
  1
45^  
  7
Vcadd_SIMP
100
AcDbText
  0
LINE
  5
316
100
AcDbEntity
  8
3
370
    15
390
0
  6
Continuous
 62
     1
100
AcDbLine
 10
22.576373
 20
19.036574
 30
0.0
 11
22.235673
 21
19.036574
 31
0.0
  0
LINE
  5
317
100
AcDbEntity
  8
3
370
    15
390
0
  6
Continuous
 62
     1
100
AcDbLine
 10
22.564103
 20
18.578508
 30
0.0
 11
22.426654
 21
18.578508
 31
0.0
  0
LINE
  5
318
100
AcDbEntity
  8
3
370
    15
390
0
  6
Continuous
 62
     1
100
AcDbLine
 10
22.570238
 20
18.807573
 30
0.0
 11
22.331164
 21
18.807573
 31
0.0
  0
LINE
  5
319
100
AcDbEntity
  8
3
370
    15
390
0
  6
Continuous
 62
     1
100
AcDbLine
 10
22.235673
 20
16.270041
 30
0.0
 11
22.235673
 21
19.036574
 31
0.0
  0
LINE
  5
31A
100
AcDbEntity
  8
3
370
    15
390
0
  6
Continuous
 62
     1
100
AcDbLine
 10
22.331164
 20
16.270041
 30
0.0
 11
22.331164
 21
18.807573
 31
0.0
  0
LINE
  5
31B
100
AcDbEntity
  8
3
370
    15
390
0
  6
Continuous
 62
     1
100
AcDbLine
 10
22.426654
 20
16.239039
 30
0.0
 11
22.426654
 21
18.578508
 31
0.0
  0
INSERT
  5
324
100
AcDbEntity
  8
3
370
    30
390
0
  6
Continuous
 62
     7
100
AcDbBlockReference
  2
ARROW
 10
23.48826
 20
16.926539
 30
0.0
 41
0.5
 42
0.5
 50
270.0
  0
INSERT
  5
325
100
AcDbEntity
  8
3
370
    30
390
0
  6
Continuous
 62
     7
100
AcDbBlockReference
  2
ARROW
 10
23.48826
 20
15.865038
 30
0.0
 41
0.5
 42
0.5
 50
90.0
  0
INSERT
  5
326
100
AcDbEntity
  8
3
370
    30
390
0
  6
Continuous
 62
     7
100
AcDbBlockReference
  2
ARROW
 10
23.48826
 20
15.177039
 30
0.0
 41
0.5
 42
0.5
 50
270.0
  0
INSERT
  5
327
100
AcDbEntity
  8
3
370
    30
390
0
  6
Continuous
 62
     7
100
AcDbBlockReference
  2
ARROW
 10
23.48826
 20
16.270901
 30
0.0
 41
0.5
 42
0.5
 50
270.0
  0
INSERT
  5
328
100
AcDbEntity
  8
3
370
    30
390
0
  6
Continuous
 62
     7
100
AcDbBlockReference
  2
ARROW
 10
23.48826
 20
16.582039
 30
0.0
 41
0.5
 42
0.5
 50
90.0
  0
INSERT
  5
329
100
AcDbEntity
  8
3
370
    30
390
0
  6
Continuous
 62
     7
100
AcDbBlockReference
  2
ARROW
 10
23.48826
 20
17.176539
 30
0.0
 41
0.5
 42
0.5
 50
90.0
  0
INSERT
  5
32A
100
AcDbEntity
  8
3
370
    30
390
0
  6
Continuous
 62
     7
100
AcDbBlockReference
  2
ARROW
 10
23.151892
 20
17.900274
 30
0.0
 41
0.5
 42
0.5
 50
180.0
  0
INSERT
  5
32B
100
AcDbEntity
  8
3
370
    30
390
0
  6
Continuous
 62
     7
100
AcDbBlockReference
  2
ARROW
 10
22.235673
 20
16.239039
 30
0.0
 41
0.5
 42
0.5
 50
90.0
  0
INSERT
  5
32C
100
AcDbEntity
  8
3
370
    30
390
0
  6
Continuous
 62
     7
100
AcDbBlockReference
  2
ARROW
 10
22.235673
 20
16.270041
 30
0.0
 41
-0.5
 42
0.5
 50
90.0
  0
INSERT
  5
32D
100
AcDbEntity
  8
3
370
    30
390
0
  6
Continuous
 62
     7
100
AcDbBlockReference
  2
ARROW
 10
22.028075
 20
18.033701
 30
0.0
 41
0.5
 42
0.5
  0
INSERT
  5
32E
100
AcDbEntity
  8
3
370
    30
390
0
  6
Continuous
 62
     7
100
AcDbBlockReference
  2
ARROW
 10
22.083076
 20
17.152461
 30
0.0
 41
0.5
 42
0.5
  0
INSERT
  5
32F
100
AcDbEntity
  8
3
370
    30
390
0
  6
Continuous
 62
     7
100
AcDbBlockReference
  2
ARROW
 10
22.098075
 20
16.56704
 30
0.0
 41
0.5
 42
0.5
  0
INSERT
  5
330
100
AcDbEntity
  8
3
370
    30
390
0
  6
Continuous
 62
     7
100
AcDbBlockReference
  2
ARROW
 10
22.122075
 20
16.151515
 30
0.0
 41
0.5
 42
0.5
  0
INSERT
  5
331
100
AcDbEntity
  8
3
370
    30
390
0
  6
Continuous
 62
     7
100
AcDbBlockReference
  2
ARROW
 10
22.162074
 20
15.457409
 30
0.0
 41
0.5
 42
0.5
  0
INSERT
  5
332
100
AcDbEntity
  8
3
370
    30
390
0
  6
Continuous
 62
     7
100
AcDbBlockReference
  2
ARROW
 10
22.184076
 20
14.952338
 30
0.0
 41
0.5
 42
0.5
  0
INSERT
  5
333
100
AcDbEntity
  8
3
370
    30
390
0
  6
Continuous
 62
     7
100
AcDbBlockReference
  2
ARROW
 10
22.184076
 20
14.856539
 30
0.0
 41
0.5
 42
0.5
 50
55.525879
  0
INSERT
  5
334
100
AcDbEntity
  8
3
370
    30
390
0
  6
Continuous
 62
     7
100
AcDbBlockReference
  2
ARROW
 10
22.261575
 20
14.746374
 30
0.0
 41
0.5
 42
0.5
  0
INSERT
  5
335
100
AcDbEntity
  8
3
370
    30
390
0
  6
Continuous
 62
     7
100
AcDbBlockReference
  2
ARROW
 10
21.212009
 20
18.774675
 30
0.0
 41
0.5
 42
0.5
 50
48.959015
  0
INSERT
  5
336
100
AcDbEntity
  8
3
370
     0
390
0
  6
Continuous
 62
     1
100
AcDbBlockReference
  2
ARROW
 10
21.493002
 20
18.493685
 30
0.0
 41
0.5
 42
0.5
 50
30.018935
  0
INSERT
  5
337
100
AcDbEntity
  8
3
370
    30
390
0
  6
Continuous
 62
     7
100
AcDbBlockReference
  2
ARROW
 10
21.453
 20
18.859628
 30
0.0
 41
0.5
 42
0.5
 50
172.310974
  0
INSERT
  5
338
100
AcDbEntity
  8
3
370
    30
390
0
  6
Continuous
 62
     7
100
AcDbBlockReference
  2
ARROW
 10
20.785036
 20
15.56876
 30
0.0
 41
0.5
 42
0.5
 50
48.959015
  0
INSERT
  5
339
100
AcDbEntity
  8
3
370
     0
390
0
  6
Continuous
 62
     1
100
AcDbBlockReference
  2
ARROW
 10
21.066029
 20
15.293325
 30
0.0
 41
0.5
 42
0.5
 50
30.018935
  0
INSERT
  5
33A
100
AcDbEntity
  8
3
370
    30
390
0
  6
Continuous
 62
     7
100
AcDbBlockReference
  2
ARROW
 10
21.031528
 20
15.653712
 30
0.0
 41
0.5
 42
0.5
 50
172.310974
  0
INSERT
  5
33B
100
AcDbEntity
  8
4
370
     0
390
0
  6
Continuous
 62
     1
100
AcDbBlockReference
  2
ARROW
 10
22.162074
 20
15.544093
 30
0.0
 41
0.5
 42
0.5
 50
353.715503
  0
INSERT
  5
33C
100
AcDbEntity
  8
4
370
     0
390
0
  6
Continuous
 62
     1
100
AcDbBlockReference
  2
ARROW
 10
22.514883
 20
15.690231
 30
0.0
 41
0.5
 42
0.5
 50
231.940226
  0
LINE
  5
33D
100
AcDbEntity
  8
4
370
    15
390
0
  6
Continuous
 62
     1
100
AcDbLine
 10
22.774382
 20
18.355274
 30
0.0
 11
22.64349
 21
18.355274
 31
0.0
  0
LINE
  5
33E
100
AcDbEntity
  8
4
370
    15
390
0
  6
Continuous
 62
     1
100
AcDbLine
 10
22.64349
 20
18.355274
 30
0.0
 11
22.86497
 21
18.019037
 31
0.0
  0
INSERT
  5
33F
100
AcDbEntity
  8
4
370
     0
390
0
  6
Continuous
 62
     1
100
AcDbBlockReference
  2
ARROW
 10
22.86497
 20
18.019037
 30
0.0
 41
0.5
 42
0.5
 50
303.372889
  0
TEXT
  5
340
100
AcDbEntity
  8
4
370
    15
390
0
  6
Continuous
 62
     7
100
AcDbText
 10
20.51868
 20
16.208412
 30
0.0
 40
0.071
  1
0,00
  7
Vcadd_SIMP
100
AcDbText
  0
TEXT
  5
341
100
AcDbEntity
  8
4
370
    15
390
0
  6
Continuous
 62
     7
100
AcDbText
 10
24.50085
 20
16.208293
 30
0.0
 40
0.071
  1
0,00
  7
Vcadd_SIMP
100
AcDbText
  0
CIRCLE
  5
342
100
AcDbEntity
  8
0
370
    15
390
0
  6
Continuous
 62
     1
100
AcDbCircle
 10
20.839831
 20
11.923873
 30
0.0
 40
0.034254
  0
TEXT
  5
343
100
AcDbEntity
  8
0
370
    15
390
0
  6
Continuous
 62
     7
100
AcDbText
 10
20.822527
 20
11.904155
 30
0.0
 40
0.045
  1
C
  7
Vcadd_SIMP
100
AcDbText
  0
TEXT
  5
344
100
AcDbEntity
  8
0
370
    15
390
0
  6
Continuous
 62
     7
100
AcDbText
 10
20.913504
 20
11.900687
 30
0.0
 40
0.05
  1
SUN HYDRAULICS CORPORATION
  7
Vcadd_SIMP
100
AcDbText
  0
TEXT
  5
345
100
AcDbEntity
  8
0
370
    15
390
0
  6
Continuous
 62
     7
100
AcDbText
 10
20.805351
 20
12.457522
 30
0.0
 40
0.05
  1
Wichtige Bemerkung:
  7
Vcadd_SIMP
100
AcDbText
  0
TEXT
  5
346
100
AcDbEntity
  8
0
370
    15
390
0
  6
Continuous
 62
     7
100
AcDbText
 10
20.805351
 20
12.382522
 30
0.0
 40
0.05
  1
Diese Zeichnung beschreibt ein
  7
Vcadd_SIMP
100
AcDbText
  0
TEXT
  5
347
100
AcDbEntity
  8
0
370
    15
390
0
  6
Continuous
 62
     7
100
AcDbText
 10
20.805351
 20
12.307522
 30
0.0
 40
0.05
  1
Produkt der Firma SUN Hydraulik
  7
Vcadd_SIMP
100
AcDbText
  0
TEXT
  5
348
100
AcDbEntity
  8
0
370
    15
390
0
  6
Continuous
 62
     7
100
AcDbText
 10
20.805351
 20
12.232522
 30
0.0
 40
0.05
  1
und darf nicht ohne Genehmigung
  7
Vcadd_SIMP
100
AcDbText
  0
TEXT
  5
349
100
AcDbEntity
  8
0
370
    15
390
0
  6
Continuous
 62
     7
100
AcDbText
 10
20.805351
 20
12.157522
 30
0.0
 40
0.05
  1
vervielfδltigt oder an Dritte wei-
  7
Vcadd_SIMP
100
AcDbText
  0
TEXT
  5
34A
100
AcDbEntity
  8
0
370
    15
390
0
  6
Continuous
 62
     7
100
AcDbText
 10
20.805351
 20
12.082522
 30
0.0
 40
0.05
  1
tergegeben werden. 
  7
Vcadd_SIMP
100
AcDbText
  0
TEXT
  5
34B
100
AcDbEntity
  8
4
370
    15
390
0
  6
Continuous
 62
     7
100
AcDbText
 10
21.087541
 20
12.611143
 30
0.0
 40
0.06
  1
Komplettansicht
  7
Vcadd_SIMP
100
AcDbText
  0
LINE
  5
34C
100
AcDbEntity
  8
4
370
    15
390
0
  6
Continuous
 62
   134
100
AcDbLine
 10
21.076976
 20
12.590585
 30
0.0
 11
21.668621
 21
12.590585
 31
0.0
  0
LINE
  5
34D
100
AcDbEntity
  8
4
370
    15
390
0
  6
Continuous
 62
   134
100
AcDbLine
 10
21.076976
 20
12.574138
 30
0.0
 11
21.668922
 21
12.574138
 31
0.0
  0
TEXT
  5
34E
100
AcDbEntity
  8
4
370
    15
390
0
  6
Continuous
 62
     7
100
AcDbText
 10
22.52745
 20
13.098372
 30
0.0
 40
0.066
  1
Freiraum fόr Sechskantnuss
  7
Vcadd_SIMP
100
AcDbText
  0
TEXT
  5
34F
100
AcDbEntity
  8
4
370
    15
390
0
  6
Continuous
 62
     7
100
AcDbText
 10
22.52745
 20
12.999372
 30
0.0
 40
0.066
  1
Max. empfohlene Tiefe bis zum LS-Anschlag
  7
Vcadd_SIMP
100
AcDbText
  0
TEXT
  5
350
100
AcDbEntity
  8
4
370
    15
390
0
  6
Continuous
 62
     7
100
AcDbText
 10
22.52745
 20
12.900372
 30
0.0
 40
0.066
  1
ohne Freiraum fόr Sechskantnuss
  7
Vcadd_SIMP
100
AcDbText
  0
TEXT
  5
351
100
AcDbEntity
  8
4
370
    15
390
0
  6
Continuous
 62
     7
100
AcDbText
 10
22.52745
 20
12.801372
 30
0.0
 40
0.066
  1
Min. Abstand von der Mittellinie bis zur End-
  7
Vcadd_SIMP
100
AcDbText
  0
TEXT
  5
352
100
AcDbEntity
  8
4
370
    15
390
0
  6
Continuous
 62
     7
100
AcDbText
 10
22.52745
 20
12.702372
 30
0.0
 40
0.066
  1
kante des Ventilkφrpers
  7
Vcadd_SIMP
100
AcDbText
  0
TEXT
  5
353
100
AcDbEntity
  8
4
370
    15
390
0
  6
Continuous
 62
     7
100
AcDbText
 10
22.52745
 20
12.603372
 30
0.0
 40
0.066
  1
Min. Abstand von der Mittellinie bis zur Mittel-
  7
Vcadd_SIMP
100
AcDbText
  0
TEXT
  5
354
100
AcDbEntity
  8
4
370
    15
390
0
  6
Continuous
 62
     7
100
AcDbText
 10
22.52745
 20
12.504372
 30
0.0
 40
0.066
  1
linie bei gleicher Einschraubbohrung
  7
Vcadd_SIMP
100
AcDbText
  0
TEXT
  5
355
100
AcDbEntity
  8
4
370
    15
390
0
  6
Continuous
 62
     7
100
AcDbText
 10
22.271061
 20
13.095826
 30
0.0
 40
0.066
  1
31,75
  7
Vcadd_SIMP
100
AcDbText
  0
TEXT
  5
356
100
AcDbEntity
  8
4
370
    15
390
0
  6
Continuous
 62
     7
100
AcDbText
 10
22.271061
 20
12.996826
 30
0.0
 40
0.066
  1
36,53
  7
Vcadd_SIMP
100
AcDbText
  0
TEXT
  5
357
100
AcDbEntity
  8
4
370
    15
390
0
  6
Continuous
 62
     7
100
AcDbText
 10
22.271061
 20
12.897826
 30
0.0
 40
0.066
  1
15,88
  7
Vcadd_SIMP
100
AcDbText
  0
TEXT
  5
358
100
AcDbEntity
  8
4
370
    15
390
0
  6
Continuous
 62
     7
100
AcDbText
 10
22.271061
 20
12.798826
 30
0.0
 40
0.066
  1
26,98
  7
Vcadd_SIMP
100
AcDbText
  0
TEXT
  5
359
100
AcDbEntity
  8
0
370
    15
390
0
  6
Continuous
 62
     7
100
AcDbText
 10
24.408611
 20
12.31514
 30
0.0
 40
0.06
  1
T-21A Metrisch
 50
270.0
  7
Vcadd_SIMP
 72
     1
 11
24.726531
 21
12.31514
 31
0.0
100
AcDbText
  0
TEXT
  5
35A
100
AcDbEntity
  8
0
370
    15
390
0
  6
Continuous
 62
     7
100
AcDbText
 10
24.350322
 20
12.31514
 30
0.0
 40
0.06
  1
Blatt 3 von 3
 50
270.0
  7
Vcadd_SIMP
 72
     1
 11
24.648531
 21
12.31514
 31
0.0
100
AcDbText
  0
TEXT
  5
35B
100
AcDbEntity
  8
4
370
    15
390
0
  6
Continuous
 62
     7
100
AcDbText
 10
23.092342
 20
13.575546
 30
0.0
 40
0.06
  1
Gewinde und alle
  7
Vcadd_SIMP
100
AcDbText
  0
TEXT
  5
35C
100
AcDbEntity
  8
4
370
    15
390
0
  6
Continuous
 62
     7
100
AcDbText
 10
23.092342
 20
13.497546
 30
0.0
 40
0.06
  1
Durchmesser
  7
Vcadd_SIMP
100
AcDbText
  0
LINE
  5
35D
100
AcDbEntity
  8
1
370
    15
390
0
  6
Continuous
 62
     1
100
AcDbLine
 10
22.879318
 20
14.649039
 30
0.0
 11
23.522551
 21
14.649039
 31
0.0
  0
TEXT
  5
35E
100
AcDbEntity
  8
4
370
    15
390
0
  6
Continuous
 62
     7
100
AcDbText
 10
23.542322
 20
14.615052
 30
0.0
 40
0.071
  1
40,4
  7
Vcadd_SIMP
100
AcDbText
  0
TEXT
  5
35F
100
AcDbEntity
  8
4
370
    15
390
0
  6
Continuous
 62
     7
100
AcDbText
 10
22.263722
 20
14.190756
 30
0.0
 40
0.07
  1
Anschluss #1
  7
Vcadd_SIMP
100
AcDbText
  0
TEXT
  5
360
100
AcDbEntity
  8
4
370
    15
390
0
  6
Continuous
 62
     7
100
AcDbText
 10
23.890647
 20
14.868671
 30
0.0
 40
0.06
  1
Abstόtzung
  7
Vcadd_SIMP
100
AcDbText
  0
TEXT
  5
361
100
AcDbEntity
  8
4
370
    15
390
0
  6
Continuous
 62
     7
100
AcDbText
 10
23.890647
 20
14.778671
 30
0.0
 40
0.06
  1
(fόr Ventilbuchse)
  7
Vcadd_SIMP
100
AcDbText
  0
TEXT
  5
362
100
AcDbEntity
  8
4
370
    15
390
0
  6
Continuous
 62
     7
100
AcDbText
 10
23.634785
 20
15.667921
 30
0.0
 40
0.07
  1
Anschluss #2
  7
Vcadd_SIMP
100
AcDbText
  0
TEXT
  5
363
100
AcDbEntity
  8
4
370
    15
390
0
  6
Continuous
 62
     7
100
AcDbText
 10
23.889219
 20
16.253075
 30
0.0
 40
0.06
  1
LS-Anschlag
  7
Vcadd_SIMP
 72
     1
 11
24.152126
 21
16.253075
 31
0.0
100
AcDbText
  0
TEXT
  5
364
100
AcDbEntity
  8
4
370
    15
390
0
  6
Continuous
 62
     7
100
AcDbText
 10
23.793847
 20
16.163075
 30
0.0
 40
0.06
  1
(Maίbezugskante)
  7
Vcadd_SIMP
 72
     1
 11
24.152126
 21
16.163075
 31
0.0
100
AcDbText
  0
TEXT
  5
365
100
AcDbEntity
  8
4
370
    15
390
0
  6
Continuous
 62
     7
100
AcDbText
 10
23.853863
 20
17.446085
 30
0.0
 40
0.06
  1
Mindestabstand
  7
Vcadd_SIMP
100
AcDbText
  0
TEXT
  5
366
100
AcDbEntity
  8
4
370
    15
390
0
  6
Continuous
 62
     7
100
AcDbText
 10
23.853863
 20
17.356085
 30
0.0
 40
0.06
  1
von Oberflδche
  7
Vcadd_SIMP
100
AcDbText
  0
LINE
  5
367
100
AcDbEntity
  8
3
370
    15
390
0
  6
Continuous
 62
     1
100
AcDbLine
 10
23.151892
 20
17.900274
 30
0.0
 11
23.279335
 21
17.900274
 31
0.0
  0
LINE
  5
368
100
AcDbEntity
  8
3
370
    15
390
0
  6
Continuous
 62
     1
100
AcDbLine
 10
23.775953
 20
17.901063
 30
0.0
 11
23.838307
 21
17.901063
 31
0.0
  0
LINE
  5
369
100
AcDbEntity
  8
3
370
    15
390
0
  6
Continuous
 62
     1
100
AcDbLine
 10
23.838307
 20
17.901063
 30
0.0
 11
23.838307
 21
18.001
 31
0.0
  0
LINE
  5
36A
100
AcDbEntity
  8
3
370
    15
390
0
  6
Continuous
 62
     1
100
AcDbLine
 10
23.838307
 20
18.032177
 30
0.0
 11
23.838307
 21
18.085561
 31
0.0
  0
TEXT
  5
36B
100
AcDbEntity
  8
4
370
    15
390
0
  6
Continuous
 62
     7
100
AcDbText
 10
23.281953
 20
17.869269
 30
0.0
 40
0.071
  1
31,75 %%c
  7
Vcadd_SIMP
100
AcDbText
  0
LINE
  5
36C
100
AcDbEntity
  8
3
370
    15
390
0
  6
Continuous
 62
     1
100
AcDbLine
 10
23.838307
 20
18.085561
 30
0.0
 11
23.532847
 21
18.085561
 31
0.0
  0
TEXT
  5
36D
100
AcDbEntity
  8
4
370
    15
390
0
  6
Continuous
 62
     7
100
AcDbText
 10
23.927834
 20
18.028948
 30
0.0
 40
0.06
  1
Min. Abstand des
  7
Vcadd_SIMP
100
AcDbText
  0
TEXT
  5
36E
100
AcDbEntity
  8
4
370
    15
390
0
  6
Continuous
 62
     7
100
AcDbText
 10
23.927834
 20
17.938948
 30
0.0
 40
0.06
  1
Sechskant
  7
Vcadd_SIMP
100
AcDbText
  0
TEXT
  5
36F
100
AcDbEntity
  8
4
370
    15
390
0
  6
Continuous
 62
     7
100
AcDbText
 10
24.458359
 20
17.911452
 30
0.0
 40
0.071
  1
45,24
  7
Vcadd_SIMP
100
AcDbText
  0
TEXT
  5
370
100
AcDbEntity
  8
4
370
    15
390
0
  6
Continuous
 62
     7
100
AcDbText
 10
23.695011
 20
18.45589
 30
0.0
 40
0.05
  1
*
  7
Vcadd_SIMP
100
AcDbText
  0
TEXT
  5
371
100
AcDbEntity
  8
4
370
    15
390
0
  6
Continuous
 62
     7
100
AcDbText
 10
23.779126
 20
18.455183
 30
0.0
 40
0.06
  1
Freiraum fόr
  7
Vcadd_SIMP
100
AcDbText
  0
TEXT
  5
372
100
AcDbEntity
  8
4
370
    15
390
0
  6
Continuous
 62
     7
100
AcDbText
 10
23.779126
 20
18.365183
 30
0.0
 40
0.06
  1
Sechskantnuss
  7
Vcadd_SIMP
100
AcDbText
  0
TEXT
  5
373
100
AcDbEntity
  8
4
370
    15
390
0
  6
Continuous
 62
     7
100
AcDbText
 10
22.822737
 20
18.32658
 30
0.0
 40
0.071
  1
SW 22,40
  7
Vcadd_SIMP
100
AcDbText
  0
TEXT
  5
374
100
AcDbEntity
  8
4
370
    15
390
0
  6
Continuous
 62
     7
100
AcDbText
 10
21.387372
 20
19.672213
 30
0.0
 40
0.06
  1
T-
  7
Vcadd_SIMP
100
AcDbText
  0
TEXT
  5
375
100
AcDbEntity
  8
4
370
    15
390
0
  6
Continuous
 62
     7
100
AcDbText
 10
21.742372
 20
19.672213
 30
0.0
 40
0.06
  1
Einschraubventilbohrung
  7
Vcadd_SIMP
100
AcDbText
  0
LINE
  5
376
100
AcDbEntity
  8
3
370
    15
390
0
  6
Continuous
 62
     1
100
AcDbLine
 10
21.360937
 20
19.643866
 30
0.0
 11
23.169549
 21
19.643866
 31
0.0
  0
TEXT
  5
377
100
AcDbEntity
  8
4
370
    15
390
0
  6
Continuous
 62
     7
100
AcDbText
 10
21.284365
 20
19.546667
 30
0.0
 40
0.06
  1
(alle Abmessungen in Millimeter)
  7
Vcadd_SIMP
100
AcDbText
  0
TEXT
  5
378
100
AcDbEntity
  8
4
370
    15
390
0
  6
Continuous
 62
     7
100
AcDbText
 10
21.268498
 20
19.404752
 30
0.0
 40
0.06
  1
M
  7
Vcadd_SIMP
100
AcDbText
  0
TEXT
  5
379
100
AcDbEntity
  8
4
370
    15
390
0
  6
Continuous
 62
     7
100
AcDbText
 10
21.481499
 20
19.404752
 30
0.0
 40
0.06
  1
X
  7
Vcadd_SIMP
100
AcDbText
  0
TEXT
  5
37A
100
AcDbEntity
  8
4
370
    15
390
0
  6
Continuous
 62
     7
100
AcDbText
 10
21.552498
 20
19.404752
 30
0.0
 40
0.06
  1
1.5
  7
Vcadd_SIMP
100
AcDbText
  0
TEXT
  5
37B
100
AcDbEntity
  8
4
370
    15
390
0
  6
Continuous
 62
     7
100
AcDbText
 10
21.765499
 20
19.404752
 30
0.0
 40
0.06
  1
-6H ISO (Metrisch) Gewinde
  7
Vcadd_SIMP
100
AcDbText
  0
LINE
  5
37C
100
AcDbEntity
  8
4
370
    15
390
0
  6
Continuous
 62
     7
100
AcDbLine
 10
21.155796
 20
19.409604
 30
0.0
 11
21.192081
 21
19.472451
 31
0.0
  0
LINE
  5
37D
100
AcDbEntity
  8
4
370
    15
390
0
  6
Continuous
 62
     7
100
AcDbLine
 10
21.228366
 20
19.409604
 30
0.0
 11
21.192081
 21
19.472451
 31
0.0
  0
LINE
  5
37E
100
AcDbEntity
  8
4
370
    15
390
0
  6
Continuous
 62
     7
100
AcDbLine
 10
21.155796
 20
19.409604
 30
0.0
 11
21.228366
 21
19.409604
 31
0.0
  0
TEXT
  5
37F
100
AcDbEntity
  8
4
370
    15
390
0
  6
Continuous
 62
     7
100
AcDbText
 10
21.339499
 20
19.404752
 30
0.0
 40
0.06
  1
20
  7
Vcadd_SIMP
100
AcDbText
  0
TEXT
  5
380
100
AcDbEntity
  8
4
370
    15
390
0
  6
Continuous
 62
     7
100
AcDbText
 10
21.461177
 20
19.32638
 30
0.0
 40
0.06
  1
19,026/19,216 PITCH DIA.
  7
Vcadd_SIMP
 72
     1
 11
22.289177
 21
19.32638
 31
0.0
100
AcDbText
  0
TEXT
  5
381
100
AcDbEntity
  8
4
370
    15
390
0
  6
Continuous
 62
     7
100
AcDbText
 10
21.519997
 20
19.669504
 30
0.0
 40
0.06
  1
21A
  7
Vcadd_SIMP
100
AcDbText
  0
TEXT
  5
382
100
AcDbEntity
  8
4
370
    15
390
0
  6
Continuous
 62
     7
100
AcDbText
 10
20.309391
 20
14.583305
 30
0.0
 40
0.06
  1
Abmessungen,Werkzeuge,Anschlόsse
 50
270.0
  7
Vcadd_SIMP
100
AcDbText
  0
TEXT
  5
383
100
AcDbEntity
  8
4
370
    15
390
0
  6
Continuous
 62
     7
100
AcDbText
 10
20.402715
 20
14.44495
 30
0.0
 40
0.07
  1
T-21A Einschraubbohrung
 50
270.0
  7
Vcadd_SIMP
100
AcDbText
  0
TEXT
  5
384
100
AcDbEntity
  8
0
370
    15
390
0
  6
Continuous
 62
     7
100
AcDbText
 10
19.894907
 20
15.149775
 30
0.0
 40
0.031
  1
REMOVE ALL
 50
270.0
 41
1.25
  7
Vcadd_SIMP
100
AcDbText
  0
TEXT
  5
385
100
AcDbEntity
  8
0
370
    15
390
0
  6
Continuous
 62
     7
100
AcDbText
 10
19.842683
 20
15.067821
 30
0.0
 40
0.031
  1
BURRS
 50
270.0
 41
1.25
  7
Vcadd_SIMP
100
AcDbText
  0
TEXT
  5
386
100
AcDbEntity
  8
0
370
    15
390
0
  6
Continuous
 62
     7
100
AcDbText
 10
20.011509
 20
14.969909
 30
0.0
 40
0.0275
  1
DIM. TOLERANCE
 50
270.0
 41
1.1725
  7
Vcadd_SIMP
 72
     1
 11
20.271071
 21
14.969909
 31
0.0
100
AcDbText
  0
TEXT
  5
387
100
AcDbEntity
  8
0
370
    15
390
0
  6
Continuous
 62
     7
100
AcDbText
 10
20.031379
 20
14.969909
 30
0.0
 40
0.0275
  1
+\- 0,13 mm
 50
270.0
 41
1.1725
  7
Vcadd_SIMP
 72
     1
 11
20.235321
 21
14.969909
 31
0.0
100
AcDbText
  0
TEXT
  5
388
100
AcDbEntity
  8
0
370
    15
390
0
  6
Continuous
 62
     7
100
AcDbText
 10
20.08833
 20
14.969909
 30
0.0
 40
0.0275
  1
UNLESS
 50
270.0
 41
1.1725
  7
Vcadd_SIMP
 72
     1
 11
20.199571
 21
14.969909
 31
0.0
100
AcDbText
  0
TEXT
  5
389
100
AcDbEntity
  8
0
370
    15
390
0
  6
Continuous
 62
     7
100
AcDbText
 10
19.99696
 20
14.969909
 30
0.0
 40
0.0275
  1
SPECIFIED
 50
270.0
 41
1.1725
  7
Vcadd_SIMP
 72
     1
 11
20.163821
 21
14.969909
 31
0.0
100
AcDbText
  0
LINE
  5
38A
100
AcDbEntity
  8
0
370
    15
390
0
  6
Continuous
 62
     7
100
AcDbLine
 10
20.091839
 20
14.828698
 30
0.0
 11
20.091839
 21
14.802411
 31
0.0
  0
LINE
  5
38B
100
AcDbEntity
  8
0
370
    15
390
0
  6
Continuous
 62
     7
100
AcDbLine
 10
20.109427
 20
14.828698
 30
0.0
 11
20.109427
 21
14.802411
 31
0.0
  0
LINE
  5
38C
100
AcDbEntity
  8
0
370
    15
390
0
  6
Continuous
 62
     7
100
AcDbLine
 10
20.117244
 20
14.815554
 30
0.0
 11
20.10161
 21
14.815554
 31
0.0
  0
LINE
  5
38D
100
AcDbEntity
  8
0
370
    15
390
0
  6
Continuous
 62
     7
100
AcDbLine
 10
20.12506
 20
14.755469
 30
0.0
 11
20.091839
 21
14.778001
 31
0.0
  0
TEXT
  5
38E
100
AcDbEntity
  8
0
370
    15
390
0
  6
Continuous
 62
     7
100
AcDbText
 10
20.091605
 20
15.186199
 30
0.0
 40
0.031
  1
ANGLE TOL
 50
270.0
 41
1.25
  7
Vcadd_SIMP
100
AcDbText
  0
TEXT
  5
38F
100
AcDbEntity
  8
0
370
    15
390
0
  6
Continuous
 62
     7
100
AcDbText
 10
20.109427
 20
14.783634
 30
0.0
 40
0.015981
  1
1 
 50
270.0
 41
1.25
  7
Vcadd_SIMP
100
AcDbText
  0
TEXT
  5
390
100
AcDbEntity
  8
0
370
    15
390
0
  6
Continuous
 62
     7
100
AcDbText
 10
20.089451
 20
14.763658
 30
0.0
 40
0.015981
  1
2
 50
270.0
 41
1.25
  7
Vcadd_SIMP
100
AcDbText
  0
LINE
  5
391
100
AcDbEntity
  8
0
370
    15
390
0
  6
Continuous
 62
     7
100
AcDbLine
 10
20.057939
 20
14.815162
 30
0.0
 11
20.060851
 21
14.809876
 31
0.0
  0
LINE
  5
392
100
AcDbEntity
  8
0
370
    15
390
0
  6
Continuous
 62
     7
100
AcDbLine
 10
20.060851
 20
14.809876
 30
0.0
 11
20.040139
 21
14.793395
 31
0.0
  0
LINE
  5
393
100
AcDbEntity
  8
0
370
    15
390
0
  6
Continuous
 62
     7
100
AcDbLine
 10
20.040139
 20
14.793395
 30
0.0
 11
20.070561
 21
14.760432
 31
0.0
  0
TEXT
  5
394
100
AcDbEntity
  8
0
370
    15
390
0
  6
Continuous
 62
     7
100
AcDbText
 10
20.039548
 20
15.169808
 30
0.0
 40
0.031
  1
FINISH
 50
270.0
 41
1.25
  7
Vcadd_SIMP
100
AcDbText
  0
TEXT
  5
395
100
AcDbEntity
  8
0
370
    15
390
0
  6
Continuous
 62
     7
100
AcDbText
 10
19.862128
 20
14.968204
 30
0.0
 40
0.031
  1
UNLESS
 50
270.0
 41
1.25
  7
Vcadd_SIMP
 72
     1
 11
19.995816
 21
14.968204
 31
0.0
100
AcDbText
  0
TEXT
  5
396
100
AcDbEntity
  8
0
370
    15
390
0
  6
Continuous
 62
     7
100
AcDbText
 10
19.754985
 20
14.968204
 30
0.0
 40
0.031
  1
SPECIFIED
 50
270.0
 41
1.25
  7
Vcadd_SIMP
 72
     1
 11
19.955516
 21
14.968204
 31
0.0
100
AcDbText
  0
TEXT
  5
397
100
AcDbEntity
  8
0
370
    15
390
0
  6
Continuous
 62
     7
100
AcDbText
 10
20.039548
 20
14.90572
 30
0.0
 40
0.031
  1
2,0
 50
270.0
 41
1.25
  7
Vcadd_SIMP
100
AcDbText
  0
CIRCLE
  5
398
100
AcDbEntity
  8
0
370
    15
390
0
  6
Continuous
 62
     7
100
AcDbCircle
 10
20.173089
 20
12.015058
 30
0.0
 40
0.027193
  0
CIRCLE
  5
399
100
AcDbEntity
  8
0
370
    15
390
0
  6
Continuous
 62
     2
100
AcDbCircle
 10
20.083968
 20
12.912918
 30
0.0
 40
0.156
  0
LINE
  5
39A
100
AcDbEntity
  8
0
370
    15
390
0
  6
Continuous
 62
     7
100
AcDbLine
 10
20.116472
 20
12.971811
 30
0.0
 11
20.143705
 21
12.971811
 31
0.0
  0
LINE
  5
39B
100
AcDbEntity
  8
0
370
    15
390
0
  6
Continuous
 62
     7
100
AcDbLine
 10
20.116472
 20
13.018386
 30
0.0
 11
20.116472
 21
12.971811
 31
0.0
  0
LINE
  5
39C
100
AcDbEntity
  8
0
370
    15
390
0
  6
Continuous
 62
     7
100
AcDbLine
 10
20.097718
 20
13.018386
 30
0.0
 11
20.116472
 21
13.018386
 31
0.0
  0
LINE
  5
39D
100
AcDbEntity
  8
0
370
    15
390
0
  6
Continuous
 62
     7
100
AcDbLine
 10
20.097718
 20
12.971811
 30
0.0
 11
20.097718
 21
13.018386
 31
0.0
  0
LINE
  5
39E
100
AcDbEntity
  8
0
370
    15
390
0
  6
Continuous
 62
     7
100
AcDbLine
 10
20.02423
 20
12.971811
 30
0.0
 11
20.097718
 21
12.971811
 31
0.0
  0
LINE
  5
39F
100
AcDbEntity
  8
0
370
    15
390
0
  6
Continuous
 62
     7
100
AcDbLine
 10
20.02423
 20
13.045887
 30
0.0
 11
20.02423
 21
12.971811
 31
0.0
  0
LINE
  5
3A0
100
AcDbEntity
  8
0
370
    15
390
0
  6
Continuous
 62
     7
100
AcDbLine
 10
20.051751
 20
13.045887
 30
0.0
 11
20.02423
 21
13.045887
 31
0.0
  0
LINE
  5
3A1
100
AcDbEntity
  8
0
370
    15
390
0
  6
Continuous
 62
     7
100
AcDbLine
 10
20.051751
 20
12.999311
 30
0.0
 11
20.051751
 21
13.045887
 31
0.0
  0
LINE
  5
3A2
100
AcDbEntity
  8
0
370
    15
390
0
  6
Continuous
 62
     7
100
AcDbLine
 10
20.070027
 20
12.999311
 30
0.0
 11
20.051751
 21
12.999311
 31
0.0
  0
LINE
  5
3A3
100
AcDbEntity
  8
0
370
    15
390
0
  6
Continuous
 62
     7
100
AcDbLine
 10
20.070027
 20
13.045887
 30
0.0
 11
20.070027
 21
12.999311
 31
0.0
  0
LINE
  5
3A4
100
AcDbEntity
  8
0
370
    15
390
0
  6
Continuous
 62
     7
100
AcDbLine
 10
20.143705
 20
13.045887
 30
0.0
 11
20.070027
 21
13.045887
 31
0.0
  0
LINE
  5
3A5
100
AcDbEntity
  8
0
370
    15
390
0
  6
Continuous
 62
     7
100
AcDbLine
 10
20.143705
 20
13.045887
 30
0.0
 11
20.143705
 21
12.971811
 31
0.0
  0
LINE
  5
3A6
100
AcDbEntity
  8
0
370
    15
390
0
  6
Continuous
 62
     7
100
AcDbLine
 10
20.143705
 20
12.875881
 30
0.0
 11
20.143705
 21
12.903734
 31
0.0
  0
LINE
  5
3A7
100
AcDbEntity
  8
0
370
    15
390
0
  6
Continuous
 62
     7
100
AcDbLine
 10
20.02423
 20
12.875881
 30
0.0
 11
20.143705
 21
12.875881
 31
0.0
  0
LINE
  5
3A8
100
AcDbEntity
  8
0
370
    15
390
0
  6
Continuous
 62
     7
100
AcDbLine
 10
20.02423
 20
12.949956
 30
0.0
 11
20.02423
 21
12.875881
 31
0.0
  0
LINE
  5
3A9
100
AcDbEntity
  8
0
370
    15
390
0
  6
Continuous
 62
     7
100
AcDbLine
 10
20.143705
 20
12.949956
 30
0.0
 11
20.02423
 21
12.949956
 31
0.0
  0
LINE
  5
3AA
100
AcDbEntity
  8
0
370
    15
390
0
  6
Continuous
 62
     7
100
AcDbLine
 10
20.143705
 20
12.922496
 30
0.0
 11
20.143705
 21
12.949956
 31
0.0
  0
LINE
  5
3AB
100
AcDbEntity
  8
0
370
    15
390
0
  6
Continuous
 62
     7
100
AcDbLine
 10
20.05173
 20
12.922496
 30
0.0
 11
20.143705
 21
12.922496
 31
0.0
  0
LINE
  5
3AC
100
AcDbEntity
  8
0
370
    15
390
0
  6
Continuous
 62
     7
100
AcDbLine
 10
20.05173
 20
12.903734
 30
0.0
 11
20.05173
 21
12.922496
 31
0.0
  0
LINE
  5
3AD
100
AcDbEntity
  8
0
370
    15
390
0
  6
Continuous
 62
     7
100
AcDbLine
 10
20.05173
 20
12.903734
 30
0.0
 11
20.143705
 21
12.903734
 31
0.0
  0
LINE
  5
3AE
100
AcDbEntity
  8
0
370
    15
390
0
  6
Continuous
 62
     7
100
AcDbLine
 10
20.02423
 20
12.825092
 30
0.0
 11
20.02423
 21
12.852945
 31
0.0
  0
LINE
  5
3AF
100
AcDbEntity
  8
0
370
    15
390
0
  6
Continuous
 62
     7
100
AcDbLine
 10
20.116204
 20
12.825092
 30
0.0
 11
20.02423
 21
12.825092
 31
0.0
  0
LINE
  5
3B0
100
AcDbEntity
  8
0
370
    15
390
0
  6
Continuous
 62
     7
100
AcDbLine
 10
20.116204
 20
12.806329
 30
0.0
 11
20.116204
 21
12.825092
 31
0.0
  0
LINE
  5
3B1
100
AcDbEntity
  8
0
370
    15
390
0
  6
Continuous
 62
     7
100
AcDbLine
 10
20.02423
 20
12.806329
 30
0.0
 11
20.116204
 21
12.806329
 31
0.0
  0
LINE
  5
3B2
100
AcDbEntity
  8
0
370
    15
390
0
  6
Continuous
 62
     7
100
AcDbLine
 10
20.02423
 20
12.778869
 30
0.0
 11
20.02423
 21
12.806329
 31
0.0
  0
LINE
  5
3B3
100
AcDbEntity
  8
0
370
    15
390
0
  6
Continuous
 62
     7
100
AcDbLine
 10
20.143705
 20
12.778869
 30
0.0
 11
20.02423
 21
12.778869
 31
0.0
  0
LINE
  5
3B4
100
AcDbEntity
  8
0
370
    15
390
0
  6
Continuous
 62
     7
100
AcDbLine
 10
20.143705
 20
12.852945
 30
0.0
 11
20.143705
 21
12.778869
 31
0.0
  0
LINE
  5
3B5
100
AcDbEntity
  8
0
370
    15
390
0
  6
Continuous
 62
     7
100
AcDbLine
 10
20.143705
 20
12.852945
 30
0.0
 11
20.02423
 21
12.852945
 31
0.0
  0
LINE
  5
3B6
100
AcDbEntity
  8
0
370
    15
390
0
  6
Continuous
 62
     7
100
AcDbLine
 10
20.131968
 20
12.670789
 30
0.0
 11
20.165309
 21
12.670789
 31
0.0
  0
LINE
  5
3B7
100
AcDbEntity
  8
0
370
    15
390
0
  6
Continuous
 62
     7
100
AcDbLine
 10
20.131968
 20
12.630609
 30
0.0
 11
20.131968
 21
12.670789
 31
0.0
  0
LINE
  5
3B8
100
AcDbEntity
  8
0
370
    15
390
0
  6
Continuous
 62
     7
100
AcDbLine
 10
20.033967
 20
12.630609
 30
0.0
 11
20.131968
 21
12.630609
 31
0.0
  0
LINE
  5
3B9
100
AcDbEntity
  8
0
370
    15
390
0
  6
Continuous
 62
     7
100
AcDbLine
 10
20.033967
 20
12.650699
 30
0.0
 11
20.033967
 21
12.630609
 31
0.0
  0
LINE
  5
3BA
100
AcDbEntity
  8
0
370
    15
390
0
  6
Continuous
 62
     7
100
AcDbLine
 10
20.111878
 20
12.650699
 30
0.0
 11
20.033967
 21
12.650699
 31
0.0
  0
LINE
  5
3BB
100
AcDbEntity
  8
0
370
    15
390
0
  6
Continuous
 62
     7
100
AcDbLine
 10
20.111878
 20
12.670789
 30
0.0
 11
20.111878
 21
12.650699
 31
0.0
  0
LINE
  5
3BC
100
AcDbEntity
  8
0
370
    15
390
0
  6
Continuous
 62
     7
100
AcDbLine
 10
20.033967
 20
12.670789
 30
0.0
 11
20.111878
 21
12.670789
 31
0.0
  0
LINE
  5
3BD
100
AcDbEntity
  8
0
370
    15
390
0
  6
Continuous
 62
     7
100
AcDbLine
 10
20.033967
 20
12.690879
 30
0.0
 11
20.033967
 21
12.670789
 31
0.0
  0
LINE
  5
3BE
100
AcDbEntity
  8
0
370
    15
390
0
  6
Continuous
 62
     7
100
AcDbLine
 10
20.165309
 20
12.690879
 30
0.0
 11
20.033967
 21
12.690879
 31
0.0
  0
LINE
  5
3BF
100
AcDbEntity
  8
0
370
    15
390
0
  6
Continuous
 62
     7
100
AcDbLine
 10
20.165309
 20
12.690879
 30
0.0
 11
20.165309
 21
12.670789
 31
0.0
  0
LINE
  5
3C0
100
AcDbEntity
  8
0
370
    15
390
0
  6
Continuous
 62
     7
100
AcDbLine
 10
20.054057
 20
12.590429
 30
0.0
 11
20.131968
 21
12.590429
 31
0.0
  0
LINE
  5
3C1
100
AcDbEntity
  8
0
370
    15
390
0
  6
Continuous
 62
     7
100
AcDbLine
 10
20.054057
 20
12.570339
 30
0.0
 11
20.054057
 21
12.590429
 31
0.0
  0
LINE
  5
3C2
100
AcDbEntity
  8
0
370
    15
390
0
  6
Continuous
 62
     7
100
AcDbLine
 10
20.131968
 20
12.570339
 30
0.0
 11
20.054057
 21
12.570339
 31
0.0
  0
LINE
  5
3C3
100
AcDbEntity
  8
0
370
    15
390
0
  6
Continuous
 62
     7
100
AcDbLine
 10
20.131968
 20
12.550249
 30
0.0
 11
20.131968
 21
12.570339
 31
0.0
  0
LINE
  5
3C4
100
AcDbEntity
  8
0
370
    15
390
0
  6
Continuous
 62
     7
100
AcDbLine
 10
19.994138
 20
12.550249
 30
0.0
 11
20.131968
 21
12.550249
 31
0.0
  0
LINE
  5
3C5
100
AcDbEntity
  8
0
370
    15
390
0
  6
Continuous
 62
     7
100
AcDbLine
 10
19.993787
 20
12.589208
 30
0.0
 11
19.994138
 21
12.550249
 31
0.0
  0
LINE
  5
3C6
100
AcDbEntity
  8
0
370
    15
390
0
  6
Continuous
 62
     7
100
AcDbLine
 10
20.013877
 20
12.589208
 30
0.0
 11
19.993787
 21
12.589208
 31
0.0
  0
LINE
  5
3C7
100
AcDbEntity
  8
0
370
    15
390
0
  6
Continuous
 62
     7
100
AcDbLine
 10
20.013877
 20
12.570339
 30
0.0
 11
20.013877
 21
12.589208
 31
0.0
  0
LINE
  5
3C8
100
AcDbEntity
  8
0
370
    15
390
0
  6
Continuous
 62
     7
100
AcDbLine
 10
20.033967
 20
12.570339
 30
0.0
 11
20.013877
 21
12.570339
 31
0.0
  0
LINE
  5
3C9
100
AcDbEntity
  8
0
370
    15
390
0
  6
Continuous
 62
     7
100
AcDbLine
 10
20.033967
 20
12.610519
 30
0.0
 11
20.033967
 21
12.570339
 31
0.0
  0
LINE
  5
3CA
100
AcDbEntity
  8
0
370
    15
390
0
  6
Continuous
 62
     7
100
AcDbLine
 10
20.131968
 20
12.610519
 30
0.0
 11
20.033967
 21
12.610519
 31
0.0
  0
LINE
  5
3CB
100
AcDbEntity
  8
0
370
    15
390
0
  6
Continuous
 62
     7
100
AcDbLine
 10
20.131968
 20
12.610519
 30
0.0
 11
20.131968
 21
12.590429
 31
0.0
  0
LINE
  5
3CC
100
AcDbEntity
  8
0
370
    15
390
0
  6
Continuous
 62
     7
100
AcDbLine
 10
20.165309
 20
12.489221
 30
0.0
 11
20.131968
 21
12.489221
 31
0.0
  0
LINE
  5
3CD
100
AcDbEntity
  8
0
370
    15
390
0
  6
Continuous
 62
     7
100
AcDbLine
 10
20.165309
 20
12.469129
 30
0.0
 11
20.165309
 21
12.489221
 31
0.0
  0
LINE
  5
3CE
100
AcDbEntity
  8
0
370
    15
390
0
  6
Continuous
 62
     7
100
AcDbLine
 10
20.033967
 20
12.469129
 30
0.0
 11
20.165309
 21
12.469129
 31
0.0
  0
LINE
  5
3CF
100
AcDbEntity
  8
0
370
    15
390
0
  6
Continuous
 62
     7
100
AcDbLine
 10
20.033967
 20
12.529401
 30
0.0
 11
20.033967
 21
12.469129
 31
0.0
  0
LINE
  5
3D0
100
AcDbEntity
  8
0
370
    15
390
0
  6
Continuous
 62
     7
100
AcDbLine
 10
20.131968
 20
12.529401
 30
0.0
 11
20.033967
 21
12.529401
 31
0.0
  0
LINE
  5
3D1
100
AcDbEntity
  8
0
370
    15
390
0
  6
Continuous
 62
     7
100
AcDbLine
 10
20.131968
 20
12.529401
 30
0.0
 11
20.131968
 21
12.489221
 31
0.0
  0
LINE
  5
3D2
100
AcDbEntity
  8
0
370
    15
390
0
  6
Continuous
 62
     7
100
AcDbLine
 10
20.111878
 20
12.489221
 30
0.0
 11
20.054057
 21
12.489221
 31
0.0
  0
LINE
  5
3D3
100
AcDbEntity
  8
0
370
    15
390
0
  6
Continuous
 62
     7
100
AcDbLine
 10
20.054057
 20
12.509309
 30
0.0
 11
20.054057
 21
12.489221
 31
0.0
  0
LINE
  5
3D4
100
AcDbEntity
  8
0
370
    15
390
0
  6
Continuous
 62
     7
100
AcDbLine
 10
20.111878
 20
12.509309
 30
0.0
 11
20.054057
 21
12.509309
 31
0.0
  0
LINE
  5
3D5
100
AcDbEntity
  8
0
370
    15
390
0
  6
Continuous
 62
     7
100
AcDbLine
 10
20.111878
 20
12.509309
 30
0.0
 11
20.111878
 21
12.489221
 31
0.0
  0
LINE
  5
3D6
100
AcDbEntity
  8
0
370
    15
390
0
  6
Continuous
 62
     7
100
AcDbLine
 10
20.111878
 20
12.408861
 30
0.0
 11
20.131968
 21
12.408861
 31
0.0
  0
LINE
  5
3D7
100
AcDbEntity
  8
0
370
    15
390
0
  6
Continuous
 62
     7
100
AcDbLine
 10
20.111878
 20
12.428951
 30
0.0
 11
20.111878
 21
12.408861
 31
0.0
  0
LINE
  5
3D8
100
AcDbEntity
  8
0
370
    15
390
0
  6
Continuous
 62
     7
100
AcDbLine
 10
20.033967
 20
12.428951
 30
0.0
 11
20.111878
 21
12.428951
 31
0.0
  0
LINE
  5
3D9
100
AcDbEntity
  8
0
370
    15
390
0
  6
Continuous
 62
     7
100
AcDbLine
 10
20.033967
 20
12.449041
 30
0.0
 11
20.033967
 21
12.428951
 31
0.0
  0
LINE
  5
3DA
100
AcDbEntity
  8
0
370
    15
390
0
  6
Continuous
 62
     7
100
AcDbLine
 10
20.131968
 20
12.449041
 30
0.0
 11
20.033967
 21
12.449041
 31
0.0
  0
LINE
  5
3DB
100
AcDbEntity
  8
0
370
    15
390
0
  6
Continuous
 62
     7
100
AcDbLine
 10
20.131968
 20
12.449041
 30
0.0
 11
20.131968
 21
12.408861
 31
0.0
  0
LINE
  5
3DC
100
AcDbEntity
  8
0
370
    15
390
0
  6
Continuous
 62
     7
100
AcDbLine
 10
20.054057
 20
12.28832
 30
0.0
 11
20.131968
 21
12.28832
 31
0.0
  0
LINE
  5
3DD
100
AcDbEntity
  8
0
370
    15
390
0
  6
Continuous
 62
     7
100
AcDbLine
 10
20.054057
 20
12.26823
 30
0.0
 11
20.054057
 21
12.28832
 31
0.0
  0
LINE
  5
3DE
100
AcDbEntity
  8
0
370
    15
390
0
  6
Continuous
 62
     7
100
AcDbLine
 10
20.131968
 20
12.26823
 30
0.0
 11
20.054057
 21
12.26823
 31
0.0
  0
LINE
  5
3DF
100
AcDbEntity
  8
0
370
    15
390
0
  6
Continuous
 62
     7
100
AcDbLine
 10
20.131968
 20
12.24814
 30
0.0
 11
20.131968
 21
12.26823
 31
0.0
  0
LINE
  5
3E0
100
AcDbEntity
  8
0
370
    15
390
0
  6
Continuous
 62
     7
100
AcDbLine
 10
20.033967
 20
12.24814
 30
0.0
 11
20.131968
 21
12.24814
 31
0.0
  0
LINE
  5
3E1
100
AcDbEntity
  8
0
370
    15
390
0
  6
Continuous
 62
     7
100
AcDbLine
 10
20.033967
 20
12.30841
 30
0.0
 11
20.033967
 21
12.24814
 31
0.0
  0
LINE
  5
3E2
100
AcDbEntity
  8
0
370
    15
390
0
  6
Continuous
 62
     7
100
AcDbLine
 10
20.131968
 20
12.30841
 30
0.0
 11
20.033967
 21
12.30841
 31
0.0
  0
LINE
  5
3E3
100
AcDbEntity
  8
0
370
    15
390
0
  6
Continuous
 62
     7
100
AcDbLine
 10
20.131968
 20
12.30841
 30
0.0
 11
20.131968
 21
12.28832
 31
0.0
  0
LINE
  5
3E4
100
AcDbEntity
  8
0
370
    15
390
0
  6
Continuous
 62
     7
100
AcDbLine
 10
20.033967
 20
12.20796
 30
0.0
 11
20.165309
 21
12.20796
 31
0.0
  0
LINE
  5
3E5
100
AcDbEntity
  8
0
370
    15
390
0
  6
Continuous
 62
     7
100
AcDbLine
 10
20.033967
 20
12.22805
 30
0.0
 11
20.033967
 21
12.20796
 31
0.0
  0
LINE
  5
3E6
100
AcDbEntity
  8
0
370
    15
390
0
  6
Continuous
 62
     7
100
AcDbLine
 10
20.165309
 20
12.22805
 30
0.0
 11
20.033967
 21
12.22805
 31
0.0
  0
LINE
  5
3E7
100
AcDbEntity
  8
0
370
    15
390
0
  6
Continuous
 62
     7
100
AcDbLine
 10
20.165309
 20
12.22805
 30
0.0
 11
20.165309
 21
12.20796
 31
0.0
  0
LINE
  5
3E8
100
AcDbEntity
  8
0
370
    15
390
0
  6
Continuous
 62
     7
100
AcDbLine
 10
20.145219
 20
12.167779
 30
0.0
 11
20.165309
 21
12.167779
 31
0.0
  0
LINE
  5
3E9
100
AcDbEntity
  8
0
370
    15
390
0
  6
Continuous
 62
     7
100
AcDbLine
 10
20.145219
 20
12.18787
 30
0.0
 11
20.145219
 21
12.167779
 31
0.0
  0
LINE
  5
3EA
100
AcDbEntity
  8
0
370
    15
390
0
  6
Continuous
 62
     7
100
AcDbLine
 10
20.165309
 20
12.18787
 30
0.0
 11
20.145219
 21
12.18787
 31
0.0
  0
LINE
  5
3EB
100
AcDbEntity
  8
0
370
    15
390
0
  6
Continuous
 62
     7
100
AcDbLine
 10
20.165309
 20
12.18787
 30
0.0
 11
20.165309
 21
12.167779
 31
0.0
  0
LINE
  5
3EC
100
AcDbEntity
  8
0
370
    15
390
0
  6
Continuous
 62
     7
100
AcDbLine
 10
20.033967
 20
12.167779
 30
0.0
 11
20.131968
 21
12.167779
 31
0.0
  0
LINE
  5
3ED
100
AcDbEntity
  8
0
370
    15
390
0
  6
Continuous
 62
     7
100
AcDbLine
 10
20.033967
 20
12.18787
 30
0.0
 11
20.033967
 21
12.167779
 31
0.0
  0
LINE
  5
3EE
100
AcDbEntity
  8
0
370
    15
390
0
  6
Continuous
 62
     7
100
AcDbLine
 10
20.131968
 20
12.18787
 30
0.0
 11
20.033967
 21
12.18787
 31
0.0
  0
LINE
  5
3EF
100
AcDbEntity
  8
0
370
    15
390
0
  6
Continuous
 62
     7
100
AcDbLine
 10
20.131968
 20
12.18787
 30
0.0
 11
20.131968
 21
12.167779
 31
0.0
  0
LINE
  5
3F0
100
AcDbEntity
  8
0
370
    15
390
0
  6
Continuous
 62
     7
100
AcDbLine
 10
20.111878
 20
12.089819
 30
0.0
 11
20.131968
 21
12.089819
 31
0.0
  0
LINE
  5
3F1
100
AcDbEntity
  8
0
370
    15
390
0
  6
Continuous
 62
     7
100
AcDbLine
 10
20.111878
 20
12.127599
 30
0.0
 11
20.111878
 21
12.089819
 31
0.0
  0
LINE
  5
3F2
100
AcDbEntity
  8
0
370
    15
390
0
  6
Continuous
 62
     7
100
AcDbLine
 10
20.054057
 20
12.127599
 30
0.0
 11
20.111878
 21
12.127599
 31
0.0
  0
LINE
  5
3F3
100
AcDbEntity
  8
0
370
    15
390
0
  6
Continuous
 62
     7
100
AcDbLine
 10
20.054057
 20
12.089819
 30
0.0
 11
20.054057
 21
12.127599
 31
0.0
  0
LINE
  5
3F4
100
AcDbEntity
  8
0
370
    15
390
0
  6
Continuous
 62
     7
100
AcDbLine
 10
20.033967
 20
12.089819
 30
0.0
 11
20.054057
 21
12.089819
 31
0.0
  0
LINE
  5
3F5
100
AcDbEntity
  8
0
370
    15
390
0
  6
Continuous
 62
     7
100
AcDbLine
 10
20.033967
 20
12.147689
 30
0.0
 11
20.033967
 21
12.089819
 31
0.0
  0
LINE
  5
3F6
100
AcDbEntity
  8
0
370
    15
390
0
  6
Continuous
 62
     7
100
AcDbLine
 10
20.131968
 20
12.147689
 30
0.0
 11
20.033967
 21
12.147689
 31
0.0
  0
LINE
  5
3F7
100
AcDbEntity
  8
0
370
    15
390
0
  6
Continuous
 62
     7
100
AcDbLine
 10
20.131968
 20
12.147689
 30
0.0
 11
20.131968
 21
12.089819
 31
0.0
  0
LINE
  5
3F8
100
AcDbEntity
  8
0
370
    15
390
0
  6
Continuous
 62
     7
100
AcDbLine
 10
20.111878
 20
12.006088
 30
0.0
 11
20.131968
 21
12.006088
 31
0.0
  0
LINE
  5
3F9
100
AcDbEntity
  8
0
370
    15
390
0
  6
Continuous
 62
     7
100
AcDbLine
 10
20.111878
 20
12.049638
 30
0.0
 11
20.111878
 21
12.006088
 31
0.0
  0
LINE
  5
3FA
100
AcDbEntity
  8
0
370
    15
390
0
  6
Continuous
 62
     7
100
AcDbLine
 10
20.093013
 20
12.049638
 30
0.0
 11
20.111878
 21
12.049638
 31
0.0
  0
LINE
  5
3FB
100
AcDbEntity
  8
0
370
    15
390
0
  6
Continuous
 62
     7
100
AcDbLine
 10
20.093013
 20
12.006088
 30
0.0
 11
20.093013
 21
12.049638
 31
0.0
  0
LINE
  5
3FC
100
AcDbEntity
  8
0
370
    15
390
0
  6
Continuous
 62
     7
100
AcDbLine
 10
20.033967
 20
12.006088
 30
0.0
 11
20.093013
 21
12.006088
 31
0.0
  0
LINE
  5
3FD
100
AcDbEntity
  8
0
370
    15
390
0
  6
Continuous
 62
     7
100
AcDbLine
 10
20.033967
 20
12.069728
 30
0.0
 11
20.033967
 21
12.006088
 31
0.0
  0
LINE
  5
3FE
100
AcDbEntity
  8
0
370
    15
390
0
  6
Continuous
 62
     7
100
AcDbLine
 10
20.054057
 20
12.069728
 30
0.0
 11
20.033967
 21
12.069728
 31
0.0
  0
LINE
  5
3FF
100
AcDbEntity
  8
0
370
    15
390
0
  6
Continuous
 62
     7
100
AcDbLine
 10
20.054057
 20
12.026178
 30
0.0
 11
20.054057
 21
12.069728
 31
0.0
  0
LINE
  5
400
100
AcDbEntity
  8
0
370
    15
390
0
  6
Continuous
 62
     7
100
AcDbLine
 10
20.072923
 20
12.026178
 30
0.0
 11
20.054057
 21
12.026178
 31
0.0
  0
LINE
  5
401
100
AcDbEntity
  8
0
370
    15
390
0
  6
Continuous
 62
     7
100
AcDbLine
 10
20.072923
 20
12.069728
 30
0.0
 11
20.072923
 21
12.026178
 31
0.0
  0
LINE
  5
402
100
AcDbEntity
  8
0
370
    15
390
0
  6
Continuous
 62
     7
100
AcDbLine
 10
20.131968
 20
12.069728
 30
0.0
 11
20.072923
 21
12.069728
 31
0.0
  0
LINE
  5
403
100
AcDbEntity
  8
0
370
    15
390
0
  6
Continuous
 62
     7
100
AcDbLine
 10
20.131968
 20
12.069728
 30
0.0
 11
20.131968
 21
12.006088
 31
0.0
  0
LINE
  5
404
100
AcDbEntity
  8
0
370
    15
390
0
  6
Continuous
 62
     7
100
AcDbLine
 10
20.033967
 20
12.3285
 30
0.0
 11
20.131968
 21
12.3285
 31
0.0
  0
LINE
  5
405
100
AcDbEntity
  8
0
370
    15
390
0
  6
Continuous
 62
     7
100
AcDbLine
 10
20.033967
 20
12.388771
 30
0.0
 11
20.033967
 21
12.3285
 31
0.0
  0
LINE
  5
406
100
AcDbEntity
  8
0
370
    15
390
0
  6
Continuous
 62
     7
100
AcDbLine
 10
20.094238
 20
12.388771
 30
0.0
 11
20.033967
 21
12.388771
 31
0.0
  0
LINE
  5
407
100
AcDbEntity
  8
0
370
    15
390
0
  6
Continuous
 62
     7
100
AcDbLine
 10
20.094238
 20
12.34859
 30
0.0
 11
20.094238
 21
12.388771
 31
0.0
  0
LINE
  5
408
100
AcDbEntity
  8
0
370
    15
390
0
  6
Continuous
 62
     7
100
AcDbLine
 10
20.111878
 20
12.34859
 30
0.0
 11
20.094238
 21
12.34859
 31
0.0
  0
LINE
  5
409
100
AcDbEntity
  8
0
370
    15
390
0
  6
Continuous
 62
     7
100
AcDbLine
 10
20.111878
 20
12.379882
 30
0.0
 11
20.111878
 21
12.34859
 31
0.0
  0
LINE
  5
40A
100
AcDbEntity
  8
0
370
    15
390
0
  6
Continuous
 62
     7
100
AcDbLine
 10
20.131968
 20
12.379882
 30
0.0
 11
20.111878
 21
12.379882
 31
0.0
  0
LINE
  5
40B
100
AcDbEntity
  8
0
370
    15
390
0
  6
Continuous
 62
     7
100
AcDbLine
 10
20.131968
 20
12.379882
 30
0.0
 11
20.131968
 21
12.3285
 31
0.0
  0
LINE
  5
40C
100
AcDbEntity
  8
0
370
    15
390
0
  6
Continuous
 62
     7
100
AcDbLine
 10
20.054057
 20
12.34859
 30
0.0
 11
20.074147
 21
12.34859
 31
0.0
  0
LINE
  5
40D
100
AcDbEntity
  8
0
370
    15
390
0
  6
Continuous
 62
     7
100
AcDbLine
 10
20.054057
 20
12.368681
 30
0.0
 11
20.054057
 21
12.34859
 31
0.0
  0
LINE
  5
40E
100
AcDbEntity
  8
0
370
    15
390
0
  6
Continuous
 62
     7
100
AcDbLine
 10
20.074147
 20
12.368681
 30
0.0
 11
20.054057
 21
12.368681
 31
0.0
  0
LINE
  5
40F
100
AcDbEntity
  8
0
370
    15
390
0
  6
Continuous
 62
     7
100
AcDbLine
 10
20.074147
 20
12.368681
 30
0.0
 11
20.074147
 21
12.34859
 31
0.0
  0
HATCH
  5
410
100
AcDbEntity
  8
0
370
    15
390
0
  6
Continuous
 62
   174
100
AcDbHatch
 10
0.0
 20
0.0
 30
0.0
210
0.0
220
0.0
230
1.0
  2
SOLID
 70
     1
 71
     0
 91
        4
 92
        1
 93
        1
 72
     2
 10
20.083968383119085
 20
12.912917647717734
 40
0.1560001373291016
 50
0.0
 51
359.999994
 73
     1
 97
        0
 92
        1
 93
       12
 72
     1
 10
20.116471511170843
 20
12.971810851453085
 11
20.14370463495014
 21
12.971810851453085
 72
     1
 10
20.14370463495014
 20
12.971810851453085
 11
20.14370463495014
 21
13.045886550305624
 72
     1
 10
20.14370463495014
 20
13.045886550305624
 11
20.070026618287542
 21
13.045886550305624
 72
     1
 10
20.070026618287542
 20
13.045886550305624
 11
20.070026618287542
 21
12.999311004040976
 72
     1
 10
20.070026618287542
 20
12.999311004040976
 11
20.051751357362249
 21
12.999311004040976
 72
     1
 10
20.051751357362249
 20
12.999311004040976
 11
20.051751357362249
 21
13.045886550305624
 72
     1
 10
20.051751357362249
 20
13.045886550305624
 11
20.024230223939398
 21
13.045886550305624
 72
     1
 10
20.024230223939398
 20
13.045886550305624
 11
20.024230223939398
 21
12.971810851453085
 72
     1
 10
20.024230223939398
 20
12.971810851453085
 11
20.097718459413031
 21
12.971810851453085
 72
     1
 10
20.097718459413031
 20
12.971810851453085
 11
20.097718459413031
 21
13.018386397717734
 72
     1
 10
20.097718459413031
 20
13.018386397717734
 11
20.116471511170843
 21
13.018386397717734
 72
     1
 10
20.116471511170843
 20
13.018386397717734
 11
20.116471511170843
 21
12.971810851453085
 97
        0
 92
        1
 93
        8
 72
     1
 10
20.14370463495014
 20
12.875880751965781
 11
20.14370463495014
 21
12.903733764050742
 72
     1
 10
20.14370463495014
 20
12.903733764050742
 11
20.051730376527289
 21
12.903733764050742
 72
     1
 10
20.051730376527289
 20
12.903733764050742
 11
20.051730376527289
 21
12.922496352551718
 72
     1
 10
20.051730376527289
 20
12.922496352551718
 11
20.14370463495014
 21
12.922496352551718
 72
     1
 10
20.14370463495014
 20
12.922496352551718
 11
20.14370463495014
 21
12.94995645081832
 72
     1
 10
20.14370463495014
 20
12.94995645081832
 11
20.024230223939398
 21
12.94995645081832
 72
     1
 10
20.024230223939398
 20
12.94995645081832
 11
20.024230223939398
 21
12.875880751965781
 72
     1
 10
20.024230223939398
 20
12.875880751965781
 11
20.14370463495014
 21
12.875880751965781
 97
        0
 92
        1
 93
        8
 72
     1
 10
20.024230223939398
 20
12.825091872571249
 11
20.024230223939398
 21
12.85294488465621
 72
     1
 10
20.024230223939398
 20
12.85294488465621
 11
20.14370463495014
 21
12.85294488465621
 72
     1
 10
20.14370463495014
 20
12.85294488465621
 11
20.14370463495014
 21
12.778869185803671
 72
     1
 10
20.14370463495014
 20
12.778869185803671
 11
20.024230223939398
 21
12.778869185803671
 72
     1
 10
20.024230223939398
 20
12.778869185803671
 11
20.024230223939398
 21
12.806329284070273
 72
     1
 10
20.024230223939398
 20
12.806329284070273
 11
20.116204482362249
 21
12.806329284070273
 72
     1
 10
20.116204482362249
 20
12.806329284070273
 11
20.116204482362249
 21
12.825091872571249
 72
     1
 10
20.116204482362249
 20
12.825091872571249
 11
20.024230223939398
 21
12.825091872571249
 97
        0
 75
     0
 76
     1
 98
        1
 10
0.0
 20
0.0
  0
HATCH
  5
411
100
AcDbEntity
  8
0
370
    15
390
0
  6
Continuous
 62
   174
100
AcDbHatch
 10
0.0
 20
0.0
 30
0.0
210
0.0
220
0.0
230
1.0
  2
SOLID
 70
     1
 71
     0
 91
        4
 92
        1
 93
       10
 72
     1
 10
20.131967765138128
 20
12.670789275525351
 11
20.165309172914011
 21
12.670789275525351
 72
     1
 10
20.165309172914011
 20
12.670789275525351
 11
20.165309172914011
 21
12.690879378674765
 72
     1
 10
20.165309172914011
 20
12.690879378674765
 11
20.033967238709906
 21
12.690879378674765
 72
     1
 10
20.033967238709906
 20
12.690879378674765
 11
20.033967238709906
 21
12.670789275525351
 72
     1
 10
20.033967238709906
 20
12.670789275525351
 11
20.111877661988714
 21
12.670789275525351
 72
     1
 10
20.111877661988714
 20
12.670789275525351
 11
20.111877661988714
 21
12.650699172375937
 72
     1
 10
20.111877661988714
 20
12.650699172375937
 11
20.033967238709906
 21
12.650699172375937
 72
     1
 10
20.033967238709906
 20
12.650699172375937
 11
20.033967238709906
 21
12.630609069226523
 72
     1
 10
20.033967238709906
 20
12.630609069226523
 11
20.131967765138128
 21
12.630609069226523
 72
     1
 10
20.131967765138128
 20
12.630609069226523
 11
20.131967765138128
 21
12.670789275525351
 97
        0
 92
        1
 93
       12
 72
     1
 10
20.05405734185932
 20
12.590428862927695
 11
20.131967765138128
 21
12.590428862927695
 72
     1
 10
20.131967765138128
 20
12.590428862927695
 11
20.131967765138128
 21
12.610518966077109
 72
     1
 10
20.131967765138128
 20
12.610518966077109
 11
20.033967238709906
 21
12.610518966077109
 72
     1
 10
20.033967238709906
 20
12.610518966077109
 11
20.033967238709906
 21
12.570338759778281
 72
     1
 10
20.033967238709906
 20
12.570338759778281
 11
20.013877135560492
 21
12.570338759778281
 72
     1
 10
20.013877135560492
 20
12.570338759778281
 11
20.013877135560492
 21
12.589208159802695
 72
     1
 10
20.013877135560492
 20
12.589208159802695
 11
19.993787032411078
 21
12.589208159802695
 72
     1
 10
19.993787032411078
 20
12.589208159802695
 11
19.994137984559515
 21
12.550248656628867
 72
     1
 10
19.994137984559515
 20
12.550248656628867
 11
20.131967765138128
 21
12.550248656628867
 72
     1
 10
20.131967765138128
 20
12.550248656628867
 11
20.131967765138128
 21
12.570338759778281
 72
     1
 10
20.131967765138128
 20
12.570338759778281
 11
20.05405734185932
 21
12.570338759778281
 72
     1
 10
20.05405734185932
 20
12.570338759778281
 11
20.05405734185932
 21
12.590428862927695
 97
        0
 92
        1
 93
        6
 72
     1
 10
20.165309172914011
 20
12.489221129773398
 11
20.131967765138128
 21
12.489221129773398
 72
     1
 10
20.131967765138128
 20
12.489221129773398
 11
20.131967765138128
 21
12.529401336072226
 72
     1
 10
20.131967765138128
 20
12.529401336072226
 11
20.033967238709906
 21
12.529401336072226
 72
     1
 10
20.033967238709906
 20
12.529401336072226
 11
20.033967238709906
 21
12.469129119275351
 72
     1
 10
20.033967238709906
 20
12.469129119275351
 11
20.165309172914011
 21
12.469129119275351
 72
     1
 10
20.165309172914011
 20
12.469129119275351
 11
20.165309172914011
 21
12.489221129773398
 97
        0
 92
        1
 93
        4
 72
     1
 10
20.111877661988714
 20
12.489221129773398
 11
20.05405734185932
 21
12.489221129773398
 72
     1
 10
20.05405734185932
 20
12.489221129773398
 11
20.05405734185932
 21
12.509309325574179
 72
     1
 10
20.05405734185932
 20
12.509309325574179
 11
20.111877661988714
 21
12.509309325574179
 72
     1
 10
20.111877661988714
 20
12.509309325574179
 11
20.111877661988714
 21
12.489221129773398
 97
        0
 75
     0
 76
     1
 98
        1
 10
0.0
 20
0.0
  0
HATCH
  5
412
100
AcDbEntity
  8
0
370
    15
390
0
  6
Continuous
 62
   174
100
AcDbHatch
 10
0.0
 20
0.0
 30
0.0
210
0.0
220
0.0
230
1.0
  2
SOLID
 70
     1
 71
     0
 91
        8
 92
        1
 93
        6
 72
     1
 10
20.111877661988714
 20
12.408860717175742
 11
20.131967765138128
 21
12.408860717175742
 72
     1
 10
20.131967765138128
 20
12.408860717175742
 11
20.131967765138128
 21
12.44904092347457
 72
     1
 10
20.131967765138128
 20
12.44904092347457
 11
20.033967238709906
 21
12.44904092347457
 72
     1
 10
20.033967238709906
 20
12.44904092347457
 11
20.033967238709906
 21
12.428950820325156
 72
     1
 10
20.033967238709906
 20
12.428950820325156
 11
20.111877661988714
 21
12.428950820325156
 72
     1
 10
20.111877661988714
 20
12.428950820325156
 11
20.111877661988714
 21
12.408860717175742
 97
        0
 92
        1
 93
        8
 72
     1
 10
20.05405734185932
 20
12.288320098279257
 11
20.131967765138128
 21
12.288320098279257
 72
     1
 10
20.131967765138128
 20
12.288320098279257
 11
20.131967765138128
 21
12.308410201428671
 72
     1
 10
20.131967765138128
 20
12.308410201428671
 11
20.033967238709906
 21
12.308410201428671
 72
     1
 10
20.033967238709906
 20
12.308410201428671
 11
20.033967238709906
 21
12.248139891980429
 72
     1
 10
20.033967238709906
 20
12.248139891980429
 11
20.131967765138128
 21
12.248139891980429
 72
     1
 10
20.131967765138128
 20
12.248139891980429
 11
20.131967765138128
 21
12.268229995129843
 72
     1
 10
20.131967765138128
 20
12.268229995129843
 11
20.05405734185932
 21
12.268229995129843
 72
     1
 10
20.05405734185932
 20
12.268229995129843
 11
20.05405734185932
 21
12.288320098279257
 97
        0
 92
        1
 93
        4
 72
     1
 10
20.033967238709906
 20
12.207959685681601
 11
20.165309172914011
 21
12.207959685681601
 72
     1
 10
20.165309172914011
 20
12.207959685681601
 11
20.165309172914011
 21
12.228049788831015
 72
     1
 10
20.165309172914011
 20
12.228049788831015
 11
20.033967238709906
 21
12.228049788831015
 72
     1
 10
20.033967238709906
 20
12.228049788831015
 11
20.033967238709906
 21
12.207959685681601
 97
        0
 92
        1
 93
        4
 72
     1
 10
20.145219069764593
 20
12.167779479382773
 11
20.165309172914011
 21
12.167779479382773
 72
     1
 10
20.165309172914011
 20
12.167779479382773
 11
20.165309172914011
 21
12.187869582532187
 72
     1
 10
20.165309172914011
 20
12.187869582532187
 11
20.145219069764593
 21
12.187869582532187
 72
     1
 10
20.145219069764593
 20
12.187869582532187
 11
20.145219069764593
 21
12.167779479382773
 97
        0
 92
        1
 93
        4
 72
     1
 10
20.033967238709906
 20
12.167779479382773
 11
20.131967765138128
 21
12.167779479382773
 72
     1
 10
20.131967765138128
 20
12.167779479382773
 11
20.131967765138128
 21
12.187869582532187
 72
     1
 10
20.131967765138128
 20
12.187869582532187
 11
20.033967238709906
 21
12.187869582532187
 72
     1
 10
20.033967238709906
 20
12.187869582532187
 11
20.033967238709906
 21
12.167779479382773
 97
        0
 92
        1
 93
        8
 72
     1
 10
20.111877661988714
 20
12.089818511365195
 11
20.131967765138128
 21
12.089818511365195
 72
     1
 10
20.131967765138128
 20
12.089818511365195
 11
20.131967765138128
 21
12.147689376233359
 72
     1
 10
20.131967765138128
 20
12.147689376233359
 11
20.033967238709906
 21
12.147689376233359
 72
     1
 10
20.033967238709906
 20
12.147689376233359
 11
20.033967238709906
 21
12.089818511365195
 72
     1
 10
20.033967238709906
 20
12.089818511365195
 11
20.05405734185932
 21
12.089818511365195
 72
     1
 10
20.05405734185932
 20
12.089818511365195
 11
20.05405734185932
 21
12.127599273083945
 72
     1
 10
20.05405734185932
 20
12.127599273083945
 11
20.111877661988714
 21
12.127599273083945
 72
     1
 10
20.111877661988714
 20
12.127599273083945
 11
20.111877661988714
 21
12.089818511365195
 97
        0
 92
        1
 93
        8
 72
     1
 10
20.033967238709906
 20
12.328500304578085
 11
20.131967765138128
 21
12.328500304578085
 72
     1
 10
20.131967765138128
 20
12.328500304578085
 11
20.131967765138128
 21
12.379882369397421
 72
     1
 10
20.131967765138128
 20
12.379882369397421
 11
20.111877661988714
 21
12.379882369397421
 72
     1
 10
20.111877661988714
 20
12.379882369397421
 11
20.111877661988714
 21
12.348590407727499
 72
     1
 10
20.111877661988714
 20
12.348590407727499
 11
20.094237548158148
 21
12.348590407727499
 72
     1
 10
20.094237548158148
 20
12.348590407727499
 11
20.094237548158148
 21
12.388770614026328
 72
     1
 10
20.094237548158148
 20
12.388770614026328
 11
20.033967238709906
 21
12.388770614026328
 72
     1
 10
20.033967238709906
 20
12.388770614026328
 11
20.033967238709906
 21
12.328500304578085
 97
        0
 92
        1
 93
        4
 72
     1
 10
20.05405734185932
 20
12.348590407727499
 11
20.074147445008734
 21
12.348590407727499
 72
     1
 10
20.074147445008734
 20
12.348590407727499
 11
20.074147445008734
 21
12.368680510876914
 72
     1
 10
20.074147445008734
 20
12.368680510876914
 11
20.05405734185932
 21
12.368680510876914
 72
     1
 10
20.05405734185932
 20
12.368680510876914
 11
20.05405734185932
 21
12.348590407727499
 97
        0
 75
     0
 76
     1
 98
        1
 10
0.0
 20
0.0
  0
HATCH
  5
413
100
AcDbEntity
  8
0
370
    15
390
0
  6
Continuous
 62
   174
100
AcDbHatch
 10
0.0
 20
0.0
 30
0.0
210
0.0
220
0.0
230
1.0
  2
SOLID
 70
     1
 71
     0
 91
        1
 92
        1
 93
       12
 72
     1
 10
20.111877661988714
 20
12.006087813733359
 11
20.131967765138128
 21
12.006087813733359
 72
     1
 10
20.131967765138128
 20
12.006087813733359
 11
20.131967765138128
 21
12.069728408215781
 72
     1
 10
20.131967765138128
 20
12.069728408215781
 11
20.072922927186468
 21
12.069728408215781
 72
     1
 10
20.072922927186468
 20
12.069728408215781
 11
20.072922927186468
 21
12.026177916882773
 72
     1
 10
20.072922927186468
 20
12.026177916882773
 11
20.05405734185932
 21
12.026177916882773
 72
     1
 10
20.05405734185932
 20
12.026177916882773
 11
20.05405734185932
 21
12.069728408215781
 72
     1
 10
20.05405734185932
 20
12.069728408215781
 11
20.033967238709906
 21
12.069728408215781
 72
     1
 10
20.033967238709906
 20
12.069728408215781
 11
20.033967238709906
 21
12.006087813733359
 72
     1
 10
20.033967238709906
 20
12.006087813733359
 11
20.093013030335882
 21
12.006087813733359
 72
     1
 10
20.093013030335882
 20
12.006087813733359
 11
20.093013030335882
 21
12.049638305066367
 72
     1
 10
20.093013030335882
 20
12.049638305066367
 11
20.111877661988714
 21
12.049638305066367
 72
     1
 10
20.111877661988714
 20
12.049638305066367
 11
20.111877661988714
 21
12.006087813733359
 97
        0
 75
     0
 76
     1
 98
        1
 10
0.0
 20
0.0
  0
TEXT
  5
414
100
AcDbEntity
  8
0
370
    15
390
0
  6
Continuous
 62
     7
100
AcDbText
 10
20.161419
 20
12.02403
 30
0.0
 40
0.02303
  1
R
 50
270.0
 41
1.125
  7
Vcadd_SIMP
100
AcDbText
  0
TEXT
  5
415
100
AcDbEntity
  8
0
370
    15
390
0
  6
Continuous
 62
     7
100
AcDbText
 10
19.98476
 20
12.344404
 30
0.0
 40
0.031
  1
CORPORATION
 50
270.0
  7
Vcadd_SIMP
100
AcDbText
  0
TEXT
  5
416
100
AcDbEntity
  8
0
370
    15
390
0
  6
Continuous
 62
     7
100
AcDbText
 10
19.938936
 20
12.728562
 30
0.0
 40
0.031
  1
1500 WEST UNIVERSITY PKWY
 50
270.0
  7
Vcadd_SIMP
100
AcDbText
  0
TEXT
  5
417
100
AcDbEntity
  8
0
370
    15
390
0
  6
Continuous
 62
     7
100
AcDbText
 10
19.892436
 20
12.728562
 30
0.0
 40
0.031
  1
SARASOTA, FLORIDA 34243, USA
 50
270.0
  7
Vcadd_SIMP
100
AcDbText
  0
TEXT
  5
418
100
AcDbEntity
  8
0
370
    15
390
0
  6
Continuous
 62
     7
100
AcDbText
 10
19.845936
 20
12.728562
 30
0.0
 40
0.031
  1
TELEPHONE (941) 355-2983
 50
270.0
  7
Vcadd_SIMP
100
AcDbText
  0
TEXT
  5
419
100
AcDbEntity
  8
0
370
    15
390
0
  6
Continuous
 62
     7
100
AcDbText
 10
19.954714
 20
12.259865
 30
0.0
 40
0.055
  1
T-21A Metrisch
 50
270.0
  7
Vcadd_SIMP
 72
     1
 11
20.397464
 21
12.259865
 31
0.0
100
AcDbText
  0
TEXT
  5
41A
100
AcDbEntity
  8
0
370
    15
390
0
  6
Continuous
 62
     7
100
AcDbText
 10
19.914839
 20
12.259865
 30
0.0
 40
0.055
  1
Blatt 3 von 3
 50
270.0
  7
Vcadd_SIMP
 72
     1
 11
20.325964
 21
12.259865
 31
0.0
100
AcDbText
  0
LINE
  5
41B
100
AcDbEntity
  8
4
370
    15
390
0
  6
Continuous
 62
     7
100
AcDbLine
 10
21.957343
 20
15.646145
 30
0.0
 11
21.993628
 21
15.708992
 31
0.0
  0
LINE
  5
41C
100
AcDbEntity
  8
4
370
    15
390
0
  6
Continuous
 62
     7
100
AcDbLine
 10
22.029912
 20
15.646145
 30
0.0
 11
21.993628
 21
15.708992
 31
0.0
  0
LINE
  5
41D
100
AcDbEntity
  8
4
370
    15
390
0
  6
Continuous
 62
     7
100
AcDbLine
 10
21.957343
 20
15.646145
 30
0.0
 11
22.029912
 21
15.646145
 31
0.0
  0
TEXT
  5
41E
100
AcDbEntity
  8
4
370
    15
390
0
  6
Continuous
 62
     7
100
AcDbText
 10
22.282181
 20
13.248996
 30
0.0
 40
0.066
  1
Freiraum fόr Sechskant-Steckschlόssel
  7
Vcadd_SIMP
100
AcDbText
  0
TEXT
  5
41F
100
AcDbEntity
  8
4
370
    15
390
0
  6
Continuous
 62
     7
100
AcDbText
 10
22.274798
 20
12.099775
 30
0.0
 40
0.066
  1
Alle O-Ring-Einfόhrungsschrδgen mόssen
  7
Vcadd_SIMP
100
AcDbText
  0
TEXT
  5
420
100
AcDbEntity
  8
4
370
    15
390
0
  6
Continuous
 62
     7
100
AcDbText
 10
22.274798
 20
12.000775
 30
0.0
 40
0.066
  1
glatt und frei von Kerben und Kanten sein.
  7
Vcadd_SIMP
100
AcDbText
  0
TEXT
  5
421
100
AcDbEntity
  8
4
370
    15
390
0
  6
Continuous
 62
     7
100
AcDbText
 10
22.284331
 20
12.367141
 30
0.0
 40
0.066
  1
Name in Bohrtabelle: SUN STD T-21A CAVITY
  7
Vcadd_SIMP
100
AcDbText
  0
TEXT
  5
422
100
AcDbEntity
  8
4
370
    15
390
0
  6
Continuous
 62
     7
100
AcDbText
 10
22.284331
 20
12.268141
 30
0.0
 40
0.066
  1
Code in Bohrtabelle: T21A
  7
Vcadd_SIMP
100
AcDbText
  0
TEXT
  5
423
100
AcDbEntity
  8
4
370
    15
390
0
  6
Continuous
 62
     7
100
AcDbText
 10
22.098309
 20
13.246887
 30
0.0
 40
0.066
  1
*
  7
Vcadd_SIMP
100
AcDbText
  0
TEXT
  5
424
100
AcDbEntity
  8
4
370
    15
390
0
  6
Continuous
 62
     7
100
AcDbText
 10
22.098309
 20
12.096208
 30
0.0
 40
0.066
  1
**
  7
Vcadd_SIMP
100
AcDbText
  0
TEXT
  5
425
100
AcDbEntity
  8
4
370
    15
390
0
  6
Continuous
 62
     7
100
AcDbText
 10
23.89388
 20
14.6237
 30
0.0
 40
0.06
  1
Min. Tiefe von
  7
Vcadd_SIMP
100
AcDbText
  0
TEXT
  5
426
100
AcDbEntity
  8
4
370
    15
390
0
  6
Continuous
 62
     7
100
AcDbText
 10
23.89388
 20
14.5337
 30
0.0
 40
0.06
  1
13,49  %%c (Ventil-
  7
Vcadd_SIMP
100
AcDbText
  0
TEXT
  5
427
100
AcDbEntity
  8
4
370
    15
390
0
  6
Continuous
 62
     7
100
AcDbText
 10
23.89388
 20
14.4437
 30
0.0
 40
0.06
  1
arbeitsbereich)
  7
Vcadd_SIMP
100
AcDbText
  0
TEXT
  5
428
100
AcDbEntity
  8
4
370
    15
390
0
  6
Continuous
 62
     7
100
AcDbText
 10
23.614575
 20
16.476333
 30
0.0
 40
0.07
  1
Anschluss #3
  7
Vcadd_SIMP
100
AcDbText
  0
TEXT
  5
429
100
AcDbEntity
  8
4
370
    15
390
0
  6
Continuous
 62
     7
100
AcDbText
 10
23.621446
 20
17.089108
 30
0.0
 40
0.07
  1
Anschluss #4
  7
Vcadd_SIMP
100
AcDbText
  0
LINE
  5
42A
100
AcDbEntity
  8
3
370
    15
390
0
  6
Continuous
 62
     1
100
AcDbLine
 10
22.110276
 20
15.739039
 30
0.0
 11
22.029087
 21
15.739039
 31
0.0
  0
LINE
  5
42B
100
AcDbEntity
  8
3
370
    15
390
0
  6
Continuous
 62
     1
100
AcDbLine
 10
21.950541
 20
15.813624
 30
0.0
 11
20.842586
 21
15.813624
 31
0.0
  0
LINE
  5
42C
100
AcDbEntity
  8
3
370
    15
390
0
  6
Continuous
 62
     1
100
AcDbLine
 10
22.029087
 20
15.739039
 30
0.0
 11
21.950541
 21
15.813624
 31
0.0
  0
TEXT
  5
42D
100
AcDbEntity
  8
4
370
    15
390
0
  6
Continuous
 62
     7
100
AcDbText
 10
20.871288
 20
15.829019
 30
0.0
 40
0.06
  1
Min. Abstand fόr Bereich mit
  7
Vcadd_SIMP
100
AcDbText
  0
TEXT
  5
42E
100
AcDbEntity
  8
4
370
    15
390
0
  6
Continuous
 62
     7
100
AcDbText
 10
20.871288
 20
15.739019
 30
0.0
 40
0.06
  1
vollstδndigen Gewindegδngen
  7
Vcadd_SIMP
100
AcDbText
  0
TEXT
  5
42F
100
AcDbEntity
  8
0
370
    15
390
0
  6
Continuous
 62
     7
100
AcDbText
 10
20.310227
 20
13.105973
 30
0.0
 40
0.071
  1
F
 50
270.0
  7
Vcadd_SIMP
100
AcDbText
  0
TEXT
  5
430
100
AcDbEntity
  8
0
370
    15
390
0
  6
Continuous
 62
     7
100
AcDbText
 10
24.65931
 20
13.105973
 30
0.0
 40
0.071
  1
F
 50
270.0
  7
Vcadd_SIMP
100
AcDbText
  0
TEXT
  5
431
100
AcDbEntity
  8
4
370
    15
390
0
  6
Continuous
 62
     7
100
AcDbText
 10
22.605068
 20
18.771443
 30
0.0
 40
0.06
  1
Formbohrer
  7
Vcadd_SIMP
100
AcDbText
  0
TEXT
  5
432
100
AcDbEntity
  8
4
370
    15
390
0
  6
Continuous
 62
     7
100
AcDbText
 10
22.605068
 20
18.681443
 30
0.0
 40
0.06
  1
994-021-***
  7
Vcadd_SIMP
100
AcDbText
  0
TEXT
  5
433
100
AcDbEntity
  8
4
370
    15
390
0
  6
Continuous
 62
     7
100
AcDbText
 10
22.620537
 20
18.534328
 30
0.0
 40
0.06
  1
Formreibahle
  7
Vcadd_SIMP
100
AcDbText
  0
TEXT
  5
434
100
AcDbEntity
  8
4
370
    15
390
0
  6
Continuous
 62
     7
100
AcDbText
 10
22.620537
 20
18.444328
 30
0.0
 40
0.06
  1
995-021-***
  7
Vcadd_SIMP
100
AcDbText
  0
LINE
  5
435
100
AcDbEntity
  8
0
370
    15
390
0
  6
Continuous
 62
     7
100
AcDbLine
 10
19.966543
 20
17.033051
 30
0.0
 11
19.966543
 21
15.845551
 31
0.0
  0
LINE
  5
436
100
AcDbEntity
  8
0
370
    15
390
0
  6
Continuous
 62
     7
100
AcDbLine
 10
20.122543
 20
17.033051
 30
0.0
 11
20.122543
 21
15.845551
 31
0.0
  0
LINE
  5
437
100
AcDbEntity
  8
0
370
    15
390
0
  6
Continuous
 62
     7
100
AcDbLine
 10
20.200543
 20
17.033051
 30
0.0
 11
20.200543
 21
15.845551
 31
0.0
  0
LINE
  5
438
100
AcDbEntity
  8
0
370
    15
390
0
  6
Continuous
 62
     7
100
AcDbLine
 10
20.278543
 20
17.033051
 30
0.0
 11
20.278543
 21
15.845551
 31
0.0
  0
LINE
  5
439
100
AcDbEntity
  8
0
370
    15
390
0
  6
Continuous
 62
     7
100
AcDbLine
 10
20.356543
 20
17.033051
 30
0.0
 11
20.356543
 21
15.845551
 31
0.0
  0
LINE
  5
43A
100
AcDbEntity
  8
0
370
    15
390
0
  6
Continuous
 62
     7
100
AcDbLine
 10
20.434543
 20
17.033051
 30
0.0
 11
20.434543
 21
15.845551
 31
0.0
  0
TEXT
  5
43B
100
AcDbEntity
  8
0
370
     0
390
0
  6
Continuous
 62
     7
100
AcDbText
 10
19.989681
 20
17.012905
 30
0.0
 40
0.032922
  1
REVISED TOOLING P/N. REVISED DIMS FOR
 50
270.0
 41
0.9
  7
Vcadd_SIMP
100
AcDbText
  0
TEXT
  5
43C
100
AcDbEntity
  8
0
370
     0
390
0
  6
Continuous
 62
     7
100
AcDbText
 10
19.911681
 20
17.012905
 30
0.0
 40
0.032922
  1
CAVITY / TOOLING CONSISTENCY.
 50
270.0
 41
0.9
  7
Vcadd_SIMP
100
AcDbText
  0
TEXT
  5
43D
100
AcDbEntity
  8
0
370
     0
390
0
  6
Continuous
 62
     7
100
AcDbText
 10
19.970741
 20
17.095551
 30
0.0
 40
0.032922
  1
F
 50
270.0
  7
Vcadd_SIMP
 72
     1
 11
19.989671
 21
17.095551
 31
0.0
100
AcDbText
  0
TEXT
  5
43E
100
AcDbEntity
  8
0
370
     0
390
0
  6
Continuous
 62
     7
100
AcDbText
 10
19.85716
 20
15.720551
 30
0.0
 40
0.032922
  1
01JUN11
 50
270.0
  7
Vcadd_SIMP
 72
     1
 11
19.989671
 21
15.720551
 31
0.0
100
AcDbText
  0
TEXT
  5
43F
100
AcDbEntity
  8
0
370
     0
390
0
  6
Continuous
 62
     7
100
AcDbText
 10
19.932881
 20
15.533051
 30
0.0
 40
0.032922
  1
JRS
 50
270.0
  7
Vcadd_SIMP
 72
     1
 11
19.989671
 21
15.533051
 31
0.0
100
AcDbText
  0
TEXT
  5
440
100
AcDbEntity
  8
0
370
     0
390
0
  6
Continuous
 62
     7
100
AcDbText
 10
19.932881
 20
15.408051
 30
0.0
 40
0.032922
  1
RCL
 50
270.0
  7
Vcadd_SIMP
 72
     1
 11
19.989671
 21
15.408051
 31
0.0
100
AcDbText
  0
TEXT
  5
441
100
AcDbEntity
  8
0
370
     0
390
0
  6
Continuous
 62
     7
100
AcDbText
 10
19.923415
 20
15.283051
 30
0.0
 40
0.032922
  1
10164
 50
270.0
 41
0.7
  7
Vcadd_SIMP
 72
     1
 11
19.989671
 21
15.283051
 31
0.0
100
AcDbText
  0
LINE
  5
442
100
AcDbEntity
  8
0
370
    15
390
0
  6
Continuous
 62
     7
100
AcDbLine
 10
20.498043
 20
15.845551
 30
0.0
 11
19.810543
 21
15.845551
 31
0.0
  0
LINE
  5
443
100
AcDbEntity
  8
0
370
    15
390
0
  6
Continuous
 62
     7
100
AcDbLine
 10
20.044543
 20
17.158051
 30
0.0
 11
20.044543
 21
15.220551
 31
0.0
  0
INSERT
  5
449
100
AcDbEntity
  8
4
370
     0
390
0
  6
Continuous
 62
     7
100
AcDbBlockReference
  2
DIASYM
 10
21.698019
 20
18.035366
 30
0.0
 41
0.625
 42
0.625
  0
INSERT
  5
44A
100
AcDbEntity
  8
4
370
     0
390
0
  6
Continuous
 62
     7
100
AcDbBlockReference
  2
DIASYM
 10
21.088926
 20
17.957108
 30
0.0
 41
0.625
 42
0.625
  0
INSERT
  5
44B
100
AcDbEntity
  8
4
370
     0
390
0
  6
Continuous
 62
     7
100
AcDbBlockReference
  2
DIASYM
 10
21.708065
 20
17.152298
 30
0.0
 41
0.625
 42
0.625
  0
INSERT
  5
44C
100
AcDbEntity
  8
4
370
     0
390
0
  6
Continuous
 62
     7
100
AcDbBlockReference
  2
DIASYM
 10
21.712715
 20
16.567628
 30
0.0
 41
0.625
 42
0.625
  0
INSERT
  5
44D
100
AcDbEntity
  8
4
370
     0
390
0
  6
Continuous
 62
     7
100
AcDbBlockReference
  2
DIASYM
 10
21.711983
 20
16.113359
 30
0.0
 41
0.625
 42
0.625
  0
INSERT
  5
44E
100
AcDbEntity
  8
4
370
     0
390
0
  6
Continuous
 62
     7
100
AcDbBlockReference
  2
DIASYM
 10
21.708072
 20
15.45838
 30
0.0
 41
0.625
 42
0.625
  0
INSERT
  5
44F
100
AcDbEntity
  8
4
370
     0
390
0
  6
Continuous
 62
     7
100
AcDbBlockReference
  2
DIASYM
 10
21.715057
 20
14.951152
 30
0.0
 41
0.625
 42
0.625
  0
LINE
  5
450
100
AcDbEntity
  8
3
370
    30
390
0
  6
Continuous
 62
     1
100
AcDbLine
 10
22.073075
 20
16.239039
 30
0.0
 11
20.817115
 21
16.239039
 31
0.0
  0
LINE
  5
451
100
AcDbEntity
  8
3
370
    30
390
0
  6
Continuous
 62
     1
100
AcDbLine
 10
22.998782
 20
16.239039
 30
0.0
 11
24.479365
 21
16.239039
 31
0.0
  0
TEXT
  5
452
100
AcDbEntity
  8
4
370
    15
390
0
  6
Continuous
 62
     7
100
AcDbText
 10
20.703168
 20
17.973421
 30
0.0
 40
0.071
  1
21,13
  7
Vcadd_SIMP
100
AcDbText
  0
TEXT
  5
453
100
AcDbEntity
  8
4
370
    15
390
0
  6
Continuous
 62
     7
100
AcDbText
 10
20.703168
 20
17.884671
 30
0.0
 40
0.071
  1
21,18
  7
Vcadd_SIMP
100
AcDbText
  0
TEXT
  5
454
100
AcDbEntity
  8
4
370
    15
390
0
  6
Continuous
 62
     7
100
AcDbText
 10
22.632402
 20
19.054007
 30
0.0
 40
0.06
  1
Formreibahle 0,79 mm tiefer
  7
Vcadd_SIMP
100
AcDbText
  0
TEXT
  5
455
100
AcDbEntity
  8
4
370
    15
390
0
  6
Continuous
 62
     7
100
AcDbText
 10
22.632402
 20
18.979007
 30
0.0
 40
0.06
  1
einfόhren als Formbohrer
  7
Vcadd_SIMP
100
AcDbText
  0
ENDSEC
  0
SECTION
  2
OBJECTS
  0
DICTIONARY
  5
19
100
AcDbDictionary
280
     0
281
     1
  3
ACAD_GROUP
350
1A
  3
ACAD_MLINESTYLE
350
1B
  3
ACAD_LAYOUT
350
1E
  3
ACAD_PLOTSETTINGS
350
22
  3
ACAD_PLOTSTYLENAME
350
1F
  3
ACAD_WIPEOUT_VARS
350
23
  0
DICTIONARY
  5
1A
102
{ACAD_REACTORS
330
19
102
}
100
AcDbDictionary
280
     0
281
     1
  0
DICTIONARY
  5
1B
102
{ACAD_REACTORS
330
19
102
}
100
AcDbDictionary
280
     0
281
     1
  3
Standard
350
1C
  0
MLINESTYLE
  5
1C
102
{ACAD_REACTORS
330
1B
102
}
100
AcDbMlineStyle
  2
Standard
 70
     0
  3

 62
     0
 51
90.0
 52
90.0
 71
     2
 49
0.5
 62
   256
  6
ByLayer
 49
-0.5
 62
   256
  6
ByLayer
  0
ACDBDICTIONARYWDFLT
  5
1F
102
{ACAD_REACTORS
330
19
102
}
100
AcDbDictionary
281
     1
  3
Normal
350
1D
100
AcDbDictionaryWithDefault
340
1D
  0
ACDBPLACEHOLDER
  5
1D
102
{ACAD_REACTORS
330
1F
102
}
  0
LAYOUT
  5
20
102
{ACAD_REACTORS
330
1E
102
}
100
AcDbPlotSettings
  1

  2

  4

  6

 40
0.0
 41
0.0
 42
0.0
 43
0.0
 44
0.0
 45
0.0
 46
0.0
 47
0.0
 48
0.0
 49
0.0
140
0.0
141
0.0
142
1.0
143
1.0
 70
  1024
 72
     0
 73
     0
 74
     0
  7

 75
     0
147
1.0
148
0.0
149
0.0
100
AcDbLayout
  1
Model
 70
     0
 71
     0
 10
0.0
 20
0.0
 11
0.0
 21
0.0
 12
0.0
 22
0.0
 32
0.0
 14
0.0
 24
0.0
 34
0.0
 15
0.0
 25
0.0
 35
0.0
146
0.0
 13
0.0
 23
0.0
 33
0.0
 16
0.0
 26
0.0
 36
0.0
 17
0.0
 27
0.0
 37
0.0
 76
     0
330
A
331
0
345
0
346
0
  0
LAYOUT
  5
21
102
{ACAD_REACTORS
330
1E
102
}
100
AcDbPlotSettings
  1

  2

  4

  6

 40
0.0
 41
0.0
 42
0.0
 43
0.0
 44
0.0
 45
0.0
 46
0.0
 47
0.0
 48
0.0
 49
0.0
140
0.0
141
0.0
142
1.0
143
1.0
 70
     0
 72
     0
 73
     0
 74
     0
  7

 75
     0
147
1.0
148
0.0
149
0.0
100
AcDbLayout
  1
Layout1
 70
     0
 71
     0
 10
0.0
 20
0.0
 11
0.0
 21
0.0
 12
0.0
 22
0.0
 32
0.0
 14
0.0
 24
0.0
 34
0.0
 15
0.0
 25
0.0
 35
0.0
146
0.0
 13
0.0
 23
0.0
 33
0.0
 16
0.0
 26
0.0
 36
0.0
 17
0.0
 27
0.0
 37
0.0
 76
     0
330
B
331
0
345
0
346
0
  0
DICTIONARY
  5
1E
102
{ACAD_REACTORS
330
19
102
}
100
AcDbDictionary
280
     0
281
     1
  3
Layout1
350
21
  3
Model
350
20
  0
DICTIONARY
  5
22
102
{ACAD_REACTORS
330
19
102
}
100
AcDbDictionary
280
     0
281
     1
  0
WIPEOUTVARIABLES
  5
23
100
AcDbWipeoutVariables
 70
     1
  0
ENDSEC
  0
EOF
