  0
SECTION
  2
HEADER
  9
$ACADVER
  1
AC1015
  9
$ACADMAINTVER
 70
     6
  9
$DWGCODEPAGE
  3
ANSI_1252
  9
$INSBASE
 10
0.0
 20
0.0
 30
0.0
  9
$EXTMIN
 10
15.006625
 20
-0.490068
 30
0.0
  9
$EXTMAX
 10
25.011788
 20
15.513638
 30
0.0
  9
$LIMMIN
 10
0.0
 20
0.0
  9
$LIMMAX
 10
0.0
 20
0.0
  9
$ORTHOMODE
 70
     0
  9
$REGENMODE
 70
     1
  9
$FILLMODE
 70
     1
  9
$QTEXTMODE
 70
     0
  9
$MIRRTEXT
 70
     1
  9
$LTSCALE
 40
1.0
  9
$ATTMODE
 70
     1
  9
$TEXTSIZE
 40
0.2
  9
$TRACEWID
 40
0.05
  9
$TEXTSTYLE
  7
Standard
  9
$CLAYER
  8
0
  9
$CELTYPE
  6
Continuous
  9
$CECOLOR
 62
   256
  9
$CELTSCALE
 40
1.0
  9
$DISPSILH
 70
     0
  9
$DIMSCALE
 40
1.0
  9
$DIMASZ
 40
0.18
  9
$DIMEXO
 40
0.0625
  9
$DIMDLI
 40
0.38
  9
$DIMRND
 40
0.0
  9
$DIMDLE
 40
0.0
  9
$DIMEXE
 40
0.18
  9
$DIMTP
 40
0.0
  9
$DIMTM
 40
0.0
  9
$DIMTXT
 40
0.18
  9
$DIMCEN
 40
0.09
  9
$DIMTSZ
 40
0.0
  9
$DIMTOL
 70
     0
  9
$DIMLIM
 70
     0
  9
$DIMTIH
 70
     1
  9
$DIMTOH
 70
     1
  9
$DIMSE1
 70
     0
  9
$DIMSE2
 70
     0
  9
$DIMTAD
 70
     0
  9
$DIMZIN
 70
     0
  9
$DIMBLK
  1

  9
$DIMASO
 70
     1
  9
$DIMSHO
 70
     1
  9
$DIMPOST
  1

  9
$DIMAPOST
  1

  9
$DIMALT
 70
     0
  9
$DIMALTD
 70
     2
  9
$DIMALTF
 40
25.4
  9
$DIMLFAC
 40
1.0
  9
$DIMTOFL
 70
     0
  9
$DIMTVP
 40
0.0
  9
$DIMTIX
 70
     0
  9
$DIMSOXD
 70
     0
  9
$DIMSAH
 70
     0
  9
$DIMBLK1
  1

  9
$DIMBLK2
  1

  9
$DIMSTYLE
  2
Standard
  9
$DIMCLRD
 70
     0
  9
$DIMCLRE
 70
     0
  9
$DIMCLRT
 70
     0
  9
$DIMTFAC
 40
1.0
  9
$DIMGAP
 40
0.09
  9
$DIMJUST
 70
     0
  9
$DIMSD1
 70
     0
  9
$DIMSD2
 70
     0
  9
$DIMTOLJ
 70
     1
  9
$DIMTZIN
 70
     0
  9
$DIMALTZ
 70
     0
  9
$DIMALTTZ
 70
     0
  9
$DIMUPT
 70
     0
  9
$DIMDEC
 70
     4
  9
$DIMTDEC
 70
     4
  9
$DIMALTU
 70
     2
  9
$DIMALTTD
 70
     2
  9
$DIMTXSTY
  7
Standard
  9
$DIMAUNIT
 70
     0
  9
$DIMADEC
 70
     0
  9
$DIMALTRND
 40
0.0
  9
$DIMAZIN
 70
     0
  9
$DIMDSEP
 70
     0
  9
$DIMATFIT
 70
     3
  9
$DIMFRAC
 70
     0
  9
$DIMLDRBLK
  1

  9
$DIMLUNIT
 70
     2
  9
$DIMLWD
 70
     0
  9
$DIMLWE
 70
     0
  9
$DIMTMOVE
 70
     0
  9
$LUNITS
 70
     2
  9
$LUPREC
 70
     4
  9
$SKETCHINC
 40
0.1
  9
$FILLETRAD
 40
0.0
  9
$AUNITS
 70
     0
  9
$AUPREC
 70
     0
  9
$MENU
  1
acad
  9
$ELEVATION
 40
0.0
  9
$PELEVATION
 40
0.0
  9
$THICKNESS
 40
0.0
  9
$LIMCHECK
 70
     0
  9
$CHAMFERA
 40
0.0
  9
$CHAMFERB
 40
0.0
  9
$CHAMFERC
 40
0.0
  9
$CHAMFERD
 40
0.0
  9
$SKPOLY
 70
     0
  9
$TDCREATE
 40
0.000000000
  9
$TDUCREATE
 40
0.000000000
  9
$TDUPDATE
 40
0.000000000
  9
$TDUUPDATE
 40
0.000000000
  9
$TDINDWG
 40
0.0000000000
  9
$TDUSRTIMER
 40
0.0000000000
  9
$USRTIMER
 70
     1
  9
$ANGBASE
 50
0.0
  9
$ANGDIR
 70
     0
  9
$PDMODE
 70
     2
  9
$PDSIZE
 40
-1.0
  9
$PLINEWID
 40
0.0
  9
$SPLFRAME
 70
     0
  9
$SPLINETYPE
 70
     6
  9
$SPLINESEGS
 70
     8
  9
$HANDSEED
  5
544
  9
$SURFTAB1
 70
     6
  9
$SURFTAB2
 70
     6
  9
$SURFTYPE
 70
     6
  9
$SURFU
 70
     6
  9
$SURFV
 70
     6
  9
$UCSBASE
  2

  9
$UCSNAME
  2

  9
$UCSORG
 10
0.0
 20
0.0
 30
0.0
  9
$UCSXDIR
 10
1.0
 20
0.0
 30
0.0
  9
$UCSYDIR
 10
0.0
 20
1.0
 30
0.0
  9
$UCSORTHOREF
  2

  9
$UCSORTHOVIEW
 70
     0
  9
$UCSORGTOP
 10
0.0
 20
0.0
 30
0.0
  9
$UCSORGBOTTOM
 10
0.0
 20
0.0
 30
0.0
  9
$UCSORGLEFT
 10
0.0
 20
0.0
 30
0.0
  9
$UCSORGRIGHT
 10
0.0
 20
0.0
 30
0.0
  9
$UCSORGFRONT
 10
0.0
 20
0.0
 30
0.0
  9
$UCSORGBACK
 10
0.0
 20
0.0
 30
0.0
  9
$PUCSBASE
  2

  9
$PUCSNAME
  2

  9
$PUCSORG
 10
0.0
 20
0.0
 30
0.0
  9
$PUCSXDIR
 10
1.0
 20
0.0
 30
0.0
  9
$PUCSYDIR
 10
0.0
 20
1.0
 30
0.0
  9
$PUCSORTHOREF
  2

  9
$PUCSORTHOVIEW
 70
     0
  9
$PUCSORGTOP
 10
0.0
 20
0.0
 30
0.0
  9
$PUCSORGBOTTOM
 10
0.0
 20
0.0
 30
0.0
  9
$PUCSORGLEFT
 10
0.0
 20
0.0
 30
0.0
  9
$PUCSORGRIGHT
 10
0.0
 20
0.0
 30
0.0
  9
$PUCSORGFRONT
 10
0.0
 20
0.0
 30
0.0
  9
$PUCSORGBACK
 10
0.0
 20
0.0
 30
0.0
  9
$USERI1
 70
     0
  9
$USERI2
 70
     0
  9
$USERI3
 70
     0
  9
$USERI4
 70
     0
  9
$USERI5
 70
     0
  9
$USERR1
 40
0.0
  9
$USERR2
 40
0.0
  9
$USERR3
 40
0.0
  9
$USERR4
 40
0.0
  9
$USERR5
 40
0.0
  9
$WORLDVIEW
 70
     1
  9
$SHADEDGE
 70
     3
  9
$SHADEDIF
 70
    70
  9
$TILEMODE
 70
     1
  9
$MAXACTVP
 70
    16
  9
$PINSBASE
 10
0.0
 20
0.0
 30
0.0
  9
$PLIMCHECK
 70
     0
  9
$PEXTMIN
 10
1.000000E+20
 20
1.000000E+20
 30
1.000000E+20
  9
$PEXTMAX
 10
-1.000000E+20
 20
-1.000000E+20
 30
-1.000000E+20
  9
$PLIMMIN
 10
0.0
 20
0.0
  9
$PLIMMAX
 10
12.0
 20
9.0
  9
$UNITMODE
 70
     0
  9
$VISRETAIN
 70
     0
  9
$PLINEGEN
 70
     1
  9
$PSLTSCALE
 70
     0
  9
$TREEDEPTH
 70
  3020
  9
$CMLSTYLE
  2
Standard
  9
$CMLJUST
 70
     0
  9
$CMLSCALE
 40
1.0
  9
$PROXYGRAPHICS
 70
     0
  9
$MEASUREMENT
 70
     0
  9
$CELWEIGHT
370
     0
  9
$ENDCAPS
280
     0
  9
$JOINSTYLE
280
     0
  9
$LWDISPLAY
290
     1
  9
$INSUNITS
 70
     0
  9
$HYPERLINKBASE
  1

  9
$STYLESHEET
  1

  9
$XEDIT
290
     1
  9
$CEPSNTYPE
380
     0
  9
$PSTYLEMODE
290
     1
  9
$FINGERPRINTGUID
  2

  9
$VERSIONGUID
  2

  9
$EXTNAMES
290
     1
  9
$PSVPSCALE
 40
0.0
  0
ENDSEC
  0
SECTION
  2
CLASSES
  0
CLASS
  1
LWPOLYLINE
  2
AcDbPolyline
  3
AutoCAD 2000
 90
        0
280
     0
281
     1
  0
CLASS
  1
IMAGE
  2
AcDbRasterImage
  3
ISM
 90
      127
280
     0
281
     1
  0
CLASS
  1
OLE2FRAME
  2
AcDbOle2Frame
  3
AutoCAD 2000
 90
        0
280
     0
281
     1
  0
CLASS
  1
HATCH
  2
AcDbHatch
  3
AutoCAD 2000
 90
        0
280
     0
281
     1
  0
CLASS
  1
DICTIONARYVAR
  2
AcDbDictionaryVar
  3
AutoCAD 2000
 90
        0
280
     0
281
     0
  0
CLASS
  1
RASTERVARIABLES
  2
AcDbRasterVariables
  3
ISM
 90
        0
280
     0
281
     0
  0
CLASS
  1
IMAGEDEF
  2
AcDbRasterImageDef
  3
ISM
 90
        0
280
     0
281
     0
  0
CLASS
  1
IMAGEDEF_REACTOR
  2
AcDbRasterImageDefReactor
  3
ISM
 90
        1
280
     0
281
     0
  0
CLASS
  1
IDBUFFER
  2
AcDbIdBuffer
  3
AutoCAD 2000
 90
        0
280
     0
281
     0
  0
CLASS
  1
SPATIAL_FILTER
  2
AcDbSpatialFilter
  3
AutoCAD 2000
 90
        0
280
     0
281
     0
  0
CLASS
  1
XRECORD
  2
AcDbXrecord
  3
AutoCAD 2000
 90
        0
280
     0
281
     0
  0
CLASS
  1
SORTENTSTABLE
  2
AcDbSortentsTable
  3
AutoCAD 2000
 90
        0
280
     0
281
     0
  0
CLASS
  1
LAYER_INDEX
  2
AcDbLayerIndex
  3
AutoCAD 2000
 90
        0
280
     0
281
     0
  0
CLASS
  1
SPATIAL_INDEX
  2
AcDbSpatialIndex
  3
AutoCAD 2000
 90
        0
280
     0
281
     0
  0
CLASS
  1
OBJECT_PTR
  2
CAseDLPNTableRecord
  3
"ASE-LPNTableRecord"
 90
        1
280
     0
281
     0
  0
CLASS
  1
LAYOUT
  2
AcDbLayout
  3
AutoCAD 2000
 90
        0
280
     0
281
     0
  0
CLASS
  1
PLOTSETTINGS
  2
AcDbPlotSettings
  3
AutoCAD 2000
 90
        0
280
     0
281
     0
  0
CLASS
  1
ACDBDICTIONARYWDFLT
  2
AcDbDictionaryWithDefault
  3
AutoCAD 2000
 90
        0
280
     0
281
     0
  0
CLASS
  1
ACDBPLACEHOLDER
  2
AcDbPlaceHolder
  3
AutoCAD 2000
 90
        0
280
     0
281
     0
  0
CLASS
  1
VBA_PROJECT
  2
AcDbVbaProject
  3
acadvba
 90
        0
280
     0
281
     0
  0
CLASS
  1
WIPEOUT
  2
AcDbWipeout
  3
WipeOut|AutoCAD Express Tool|expresstools@autodesk.com
 90
      127
280
     0
281
     1
  0
CLASS
  1
WIPEOUTVARIABLES
  2
AcDbWipeoutVariables
  3
WipeOut|AutoCAD Express Tool|expresstools@autodesk.com
 90
        0
280
     0
281
     0
  0
CLASS
  1
RTEXT
  2
RText
  3
RText|AutoCAD Express Tool|expresstools@autodesk.com
 90
        0
280
     0
281
     1
  0
CLASS
  1
ARCALIGNEDTEXT
  2
AcDbArcAlignedText
  3
ATEXT|AutoCAD Express Tool|expresstools@autodesk.com
 90
        0
280
     0
281
     1
  0
ENDSEC
  0
SECTION
  2
TABLES
  0
TABLE
  2
VPORT
  5
7
100
AcDbSymbolTable
 70
     2
  0
VPORT
  5
15
100
AcDbSymbolTableRecord
100
AcDbViewportTableRecord
  2
*ACTIVE
 70
     0
 10
0.0
 20
0.0
 11
1.0
 21
1.0
 12
6.591288
 22
4.579184
 13
0.0
 23
0.0
 14
1.0
 24
1.0
 15
0.0
 25
0.0
 16
0.0
 26
0.0
 36
1.0
 17
0.0
 27
0.0
 37
0.0
 40
9.158369
 41
0.688564
 42
50.0
 43
0.0
 44
0.0
 50
0.0
 51
0.0
 71
     0
 72
   100
 73
     1
 74
     1
 75
     0
 76
     0
 77
     0
 78
     0
281
     0
 65
     0
110
0.0
120
0.0
130
0.0
111
1.0
121
0.0
131
0.0
112
0.0
122
1.0
132
0.0
345
0
346
0
 79
     0
146
0.0
  0
VPORT
  5
543
100
AcDbSymbolTableRecord
100
AcDbViewportTableRecord
  2
MYVPORT
 70
     0
 10
0.0
 20
0.0
 11
1.0
 21
1.0
 12
6.21
 22
9.02
 13
0.0
 23
0.0
 14
1.0
 24
1.0
 15
0.0
 25
0.0
 16
0.0
 26
0.0
 36
1.0
 17
0.0
 27
0.0
 37
0.0
 40
18.04
 41
0.688564
 42
50.0
 43
0.0
 44
0.0
 50
0.0
 51
0.0
 71
     0
 72
   100
 73
     1
 74
     1
 75
     0
 76
     0
 77
     0
 78
     0
281
     0
 65
     0
110
0.0
120
0.0
130
0.0
111
1.0
121
0.0
131
0.0
112
0.0
122
1.0
132
0.0
345
0
346
0
 79
     0
146
0.0
  0
ENDTAB
  0
TABLE
  2
LTYPE
  5
4
100
AcDbSymbolTable
 70
     6
  0
LTYPE
  5
11
100
AcDbSymbolTableRecord
100
AcDbLinetypeTableRecord
  2
ByBlock
 70
    64
  3

 72
    65
 73
     0
 40
0.0
  0
LTYPE
  5
12
100
AcDbSymbolTableRecord
100
AcDbLinetypeTableRecord
  2
ByLayer
 70
    64
  3

 72
    65
 73
     0
 40
0.0
  0
LTYPE
  5
13
100
AcDbSymbolTableRecord
100
AcDbLinetypeTableRecord
  2
Continuous
 70
    64
  3
Solid line
 72
    65
 73
     0
 40
0.0
  0
LTYPE
  5
178
100
AcDbSymbolTableRecord
100
AcDbLinetypeTableRecord
  2
CL____X1
 70
    64
  3
Visual CADD Translation
 72
    65
 73
     4
 40
1.33
 49
0.05
 74
     0
 49
-0.05
 74
     0
 49
1.18
 74
     0
 49
-0.05
 74
     0
  0
LTYPE
  5
1EE
100
AcDbSymbolTableRecord
100
AcDbLinetypeTableRecord
  2
DIVIDE
 70
    64
  3
Visual CADD Translation
 72
    65
 73
     6
 40
1.0
 49
0.6
 74
     0
 49
-0.133
 74
     0
 49
0.0
 74
     0
 49
-0.134
 74
     0
 49
0.0
 74
     0
 49
-0.133
 74
     0
  0
LTYPE
  5
27D
100
AcDbSymbolTableRecord
100
AcDbLinetypeTableRecord
  2
TYPE___8
 70
    64
  3
Visual CADD Translation
 72
    65
 73
     6
 40
1.0
 49
0.6
 74
     0
 49
-0.08
 74
     0
 49
0.08
 74
     0
 49
-0.08
 74
     0
 49
0.08
 74
     0
 49
-0.08
 74
     0
  0
ENDTAB
  0
TABLE
  2
LAYER
  5
2
100
AcDbSymbolTable
 70
    77
  0
LAYER
  5
14
100
AcDbSymbolTableRecord
100
AcDbLayerTableRecord
  2
0
 70
     0
 62
     7
  6
Continuous
290
     1
370
    -3
390
1D
  0
LAYER
  5
24
100
AcDbSymbolTableRecord
100
AcDbLayerTableRecord
  2
DEFAULT_1
 70
     0
 62
     7
  6
Continuous
290
     1
370
    -3
390
1D
  0
LAYER
  5
25
100
AcDbSymbolTableRecord
100
AcDbLayerTableRecord
  2
DEFAULT_2
 70
     0
 62
     7
  6
Continuous
290
     1
370
    -3
390
1D
  0
LAYER
  5
26
100
AcDbSymbolTableRecord
100
AcDbLayerTableRecord
  2
DEFAULT_3
 70
     0
 62
     7
  6
Continuous
290
     1
370
    -3
390
1D
  0
LAYER
  5
27
100
AcDbSymbolTableRecord
100
AcDbLayerTableRecord
  2
_2D_DELETED_OBJS
 70
     0
 62
     7
  6
Continuous
290
     1
370
    -3
390
1D
  0
LAYER
  5
28
100
AcDbSymbolTableRecord
100
AcDbLayerTableRecord
  2
PISTON_ROD
 70
     0
 62
     7
  6
Continuous
290
     1
370
    -3
390
1D
  0
LAYER
  5
29
100
AcDbSymbolTableRecord
100
AcDbLayerTableRecord
  2
END_CAP
 70
     0
 62
     7
  6
Continuous
290
     1
370
    -3
390
1D
  0
LAYER
  5
2A
100
AcDbSymbolTableRecord
100
AcDbLayerTableRecord
  2
128-001_FEATURES
 70
     0
 62
     7
  6
Continuous
290
     1
370
    -3
390
1D
  0
LAYER
  5
2B
100
AcDbSymbolTableRecord
100
AcDbLayerTableRecord
  2
128-001_REF_GEOMETRY
 70
     0
 62
     7
  6
Continuous
290
     1
370
    -3
390
1D
  0
LAYER
  5
2C
100
AcDbSymbolTableRecord
100
AcDbLayerTableRecord
  2
128-004_FEATURES
 70
     0
 62
     7
  6
Continuous
290
     1
370
    -3
390
1D
  0
LAYER
  5
2D
100
AcDbSymbolTableRecord
100
AcDbLayerTableRecord
  2
128-004_REF_GEOMETRY
 70
     0
 62
     7
  6
Continuous
290
     1
370
    -3
390
1D
  0
LAYER
  5
2E
100
AcDbSymbolTableRecord
100
AcDbLayerTableRecord
  2
128-017_FEATURES
 70
     0
 62
     7
  6
Continuous
290
     1
370
    -3
390
1D
  0
LAYER
  5
2F
100
AcDbSymbolTableRecord
100
AcDbLayerTableRecord
  2
128-017_REF_GEOMETRY
 70
     0
 62
     7
  6
Continuous
290
     1
370
    -3
390
1D
  0
LAYER
  5
30
100
AcDbSymbolTableRecord
100
AcDbLayerTableRecord
  2
128-400_FEATURES
 70
     0
 62
     7
  6
Continuous
290
     1
370
    -3
390
1D
  0
LAYER
  5
31
100
AcDbSymbolTableRecord
100
AcDbLayerTableRecord
  2
128-400_REF_GEOMETRY
 70
     0
 62
     7
  6
Continuous
290
     1
370
    -3
390
1D
  0
LAYER
  5
32
100
AcDbSymbolTableRecord
100
AcDbLayerTableRecord
  2
128-401_FEATURES
 70
     0
 62
     7
  6
Continuous
290
     1
370
    -3
390
1D
  0
LAYER
  5
33
100
AcDbSymbolTableRecord
100
AcDbLayerTableRecord
  2
128-401_REF_GEOMETRY
 70
     0
 62
     7
  6
Continuous
290
     1
370
    -3
390
1D
  0
LAYER
  5
34
100
AcDbSymbolTableRecord
100
AcDbLayerTableRecord
  2
128-402_FEATURES
 70
     0
 62
     7
  6
Continuous
290
     1
370
    -3
390
1D
  0
LAYER
  5
35
100
AcDbSymbolTableRecord
100
AcDbLayerTableRecord
  2
128-402_REF_GEOMETRY
 70
     0
 62
     7
  6
Continuous
290
     1
370
    -3
390
1D
  0
LAYER
  5
36
100
AcDbSymbolTableRecord
100
AcDbLayerTableRecord
  2
128-403_FEATURES
 70
     0
 62
     7
  6
Continuous
290
     1
370
    -3
390
1D
  0
LAYER
  5
37
100
AcDbSymbolTableRecord
100
AcDbLayerTableRecord
  2
128-403_REF_GEOMETRY
 70
     0
 62
     7
  6
Continuous
290
     1
370
    -3
390
1D
  0
LAYER
  5
38
100
AcDbSymbolTableRecord
100
AcDbLayerTableRecord
  2
128-404_FEATURES
 70
     0
 62
     7
  6
Continuous
290
     1
370
    -3
390
1D
  0
LAYER
  5
39
100
AcDbSymbolTableRecord
100
AcDbLayerTableRecord
  2
128-404_REF_GEOMETRY
 70
     0
 62
     7
  6
Continuous
290
     1
370
    -3
390
1D
  0
LAYER
  5
3A
100
AcDbSymbolTableRecord
100
AcDbLayerTableRecord
  2
128-405_FEATURES
 70
     0
 62
     7
  6
Continuous
290
     1
370
    -3
390
1D
  0
LAYER
  5
3B
100
AcDbSymbolTableRecord
100
AcDbLayerTableRecord
  2
128-405_REF_GEOMETRY
 70
     0
 62
     7
  6
Continuous
290
     1
370
    -3
390
1D
  0
LAYER
  5
3C
100
AcDbSymbolTableRecord
100
AcDbLayerTableRecord
  2
128-406_FEATURES
 70
     0
 62
     7
  6
Continuous
290
     1
370
    -3
390
1D
  0
LAYER
  5
3D
100
AcDbSymbolTableRecord
100
AcDbLayerTableRecord
  2
128-406_REF_GEOMETRY
 70
     0
 62
     7
  6
Continuous
290
     1
370
    -3
390
1D
  0
LAYER
  5
3E
100
AcDbSymbolTableRecord
100
AcDbLayerTableRecord
  2
128-407_FEATURES
 70
     0
 62
     7
  6
Continuous
290
     1
370
    -3
390
1D
  0
LAYER
  5
3F
100
AcDbSymbolTableRecord
100
AcDbLayerTableRecord
  2
128-407_REF_GEOMETRY
 70
     0
 62
     7
  6
Continuous
290
     1
370
    -3
390
1D
  0
LAYER
  5
40
100
AcDbSymbolTableRecord
100
AcDbLayerTableRecord
  2
128-408_FEATURES
 70
     0
 62
     7
  6
Continuous
290
     1
370
    -3
390
1D
  0
LAYER
  5
41
100
AcDbSymbolTableRecord
100
AcDbLayerTableRecord
  2
128-408_REF_GEOMETRY
 70
     0
 62
     7
  6
Continuous
290
     1
370
    -3
390
1D
  0
LAYER
  5
42
100
AcDbSymbolTableRecord
100
AcDbLayerTableRecord
  2
250-19_BSPP_PORT_PER_S-186
 70
     0
 62
     7
  6
Continuous
290
     1
370
    -3
390
1D
  0
LAYER
  5
43
100
AcDbSymbolTableRecord
100
AcDbLayerTableRecord
  2
DRIVENDIMENSIONS
 70
     0
 62
     7
  6
Continuous
290
     1
370
    -3
390
1D
  0
LAYER
  5
44
100
AcDbSymbolTableRecord
100
AcDbLayerTableRecord
  2
PARTREFERENCEDIMENSIONS
 70
     0
 62
     7
  6
Continuous
290
     1
370
    -3
390
1D
  0
LAYER
  5
45
100
AcDbSymbolTableRecord
100
AcDbLayerTableRecord
  2
REFERENCEDIMENSIONS
 70
     0
 62
     7
  6
Continuous
290
     1
370
    -3
390
1D
  0
LAYER
  5
46
100
AcDbSymbolTableRecord
100
AcDbLayerTableRecord
  2
SYMBOLS
 70
     0
 62
     7
  6
Continuous
290
     1
370
    -3
390
1D
  0
LAYER
  5
47
100
AcDbSymbolTableRecord
100
AcDbLayerTableRecord
  2
AXIS
 70
     0
 62
     7
  6
Continuous
290
     1
370
    -3
390
1D
  0
LAYER
  5
48
100
AcDbSymbolTableRecord
100
AcDbLayerTableRecord
  2
CHAMFERS
 70
     0
 62
     7
  6
Continuous
290
     1
370
    -3
390
1D
  0
LAYER
  5
49
100
AcDbSymbolTableRecord
100
AcDbLayerTableRecord
  2
COORD_SYS
 70
     0
 62
     7
  6
Continuous
290
     1
370
    -3
390
1D
  0
LAYER
  5
4A
100
AcDbSymbolTableRecord
100
AcDbLayerTableRecord
  2
CORN_CHAMFERS
 70
     0
 62
     7
  6
Continuous
290
     1
370
    -3
390
1D
  0
LAYER
  5
4B
100
AcDbSymbolTableRecord
100
AcDbLayerTableRecord
  2
COSMESTIC
 70
     0
 62
     7
  6
Continuous
290
     1
370
    -3
390
1D
  0
LAYER
  5
4C
100
AcDbSymbolTableRecord
100
AcDbLayerTableRecord
  2
CURVE
 70
     0
 62
     7
  6
Continuous
290
     1
370
    -3
390
1D
  0
LAYER
  5
4D
100
AcDbSymbolTableRecord
100
AcDbLayerTableRecord
  2
COSMETIC
 70
     0
 62
     7
  6
Continuous
290
     1
370
    -3
390
1D
  0
LAYER
  5
4E
100
AcDbSymbolTableRecord
100
AcDbLayerTableRecord
  2
DATUM_CURVES
 70
     0
 62
     7
  6
Continuous
290
     1
370
    -3
390
1D
  0
LAYER
  5
4F
100
AcDbSymbolTableRecord
100
AcDbLayerTableRecord
  2
CURVES
 70
     0
 62
     7
  6
Continuous
290
     1
370
    -3
390
1D
  0
LAYER
  5
50
100
AcDbSymbolTableRecord
100
AcDbLayerTableRecord
  2
DATUMCURVES
 70
     0
 62
     7
  6
Continuous
290
     1
370
    -3
390
1D
  0
LAYER
  5
51
100
AcDbSymbolTableRecord
100
AcDbLayerTableRecord
  2
DATUM_PLANES
 70
     0
 62
     7
  6
Continuous
290
     1
370
    -3
390
1D
  0
LAYER
  5
52
100
AcDbSymbolTableRecord
100
AcDbLayerTableRecord
  2
DIMENSIONS
 70
     0
 62
     7
  6
Continuous
290
     1
370
    -3
390
1D
  0
LAYER
  5
53
100
AcDbSymbolTableRecord
100
AcDbLayerTableRecord
  2
DRAFTITEMS
 70
     0
 62
     7
  6
Continuous
290
     1
370
    -3
390
1D
  0
LAYER
  5
54
100
AcDbSymbolTableRecord
100
AcDbLayerTableRecord
  2
DRAWINGNOTES
 70
     0
 62
     7
  6
Continuous
290
     1
370
    -3
390
1D
  0
LAYER
  5
55
100
AcDbSymbolTableRecord
100
AcDbLayerTableRecord
  2
DTM
 70
     0
 62
     7
  6
Continuous
290
     1
370
    -3
390
1D
  0
LAYER
  5
56
100
AcDbSymbolTableRecord
100
AcDbLayerTableRecord
  2
DTM230
 70
     0
 62
     7
  6
Continuous
290
     1
370
    -3
390
1D
  0
LAYER
  5
57
100
AcDbSymbolTableRecord
100
AcDbLayerTableRecord
  2
DTM_500001
 70
     0
 62
     7
  6
Continuous
290
     1
370
    -3
390
1D
  0
LAYER
  5
58
100
AcDbSymbolTableRecord
100
AcDbLayerTableRecord
  2
DTM_500002
 70
     0
 62
     7
  6
Continuous
290
     1
370
    -3
390
1D
  0
LAYER
  5
59
100
AcDbSymbolTableRecord
100
AcDbLayerTableRecord
  2
DTM_515002
 70
     0
 62
     7
  6
Continuous
290
     1
370
    -3
390
1D
  0
LAYER
  5
5A
100
AcDbSymbolTableRecord
100
AcDbLayerTableRecord
  2
DTM_SPRING_RH
 70
     0
 62
     7
  6
Continuous
290
     1
370
    -3
390
1D
  0
LAYER
  5
5B
100
AcDbSymbolTableRecord
100
AcDbLayerTableRecord
  2
DTM_SP_RH_CONSTR
 70
     0
 62
     7
  6
Continuous
290
     1
370
    -3
390
1D
  0
LAYER
  5
5C
100
AcDbSymbolTableRecord
100
AcDbLayerTableRecord
  2
GEOMETRICTOLERANCES
 70
     0
 62
     7
  6
Continuous
290
     1
370
    -3
390
1D
  0
LAYER
  5
5D
100
AcDbSymbolTableRecord
100
AcDbLayerTableRecord
  2
PARAMETERDIMENSIONS
 70
     0
 62
     7
  6
Continuous
290
     1
370
    -3
390
1D
  0
LAYER
  5
5E
100
AcDbSymbolTableRecord
100
AcDbLayerTableRecord
  2
PLANE
 70
     0
 62
     7
  6
Continuous
290
     1
370
    -3
390
1D
  0
LAYER
  5
5F
100
AcDbSymbolTableRecord
100
AcDbLayerTableRecord
  2
S-164_NPTF_PORT
 70
     0
 62
     7
  6
Continuous
290
     1
370
    -3
390
1D
  0
LAYER
  5
60
100
AcDbSymbolTableRecord
100
AcDbLayerTableRecord
  2
SUN_STD_SAE-4_PORT
 70
     0
 62
     7
  6
Continuous
290
     1
370
    -3
390
1D
  0
LAYER
  5
61
100
AcDbSymbolTableRecord
100
AcDbLayerTableRecord
  2
THREAD
 70
     0
 62
     7
  6
Continuous
290
     1
370
    -3
390
1D
  0
LAYER
  5
62
100
AcDbSymbolTableRecord
100
AcDbLayerTableRecord
  2
XSEC_DATUMS
 70
     0
 62
     7
  6
Continuous
290
     1
370
    -3
390
1D
  0
LAYER
  5
63
100
AcDbSymbolTableRecord
100
AcDbLayerTableRecord
  2
HOLES
 70
     0
 62
     7
  6
Continuous
290
     1
370
    -3
390
1D
  0
LAYER
  5
64
100
AcDbSymbolTableRecord
100
AcDbLayerTableRecord
  2
LAY0001
 70
     0
 62
     7
  6
Continuous
290
     1
370
    -3
390
1D
  0
LAYER
  5
65
100
AcDbSymbolTableRecord
100
AcDbLayerTableRecord
  2
LAY0002
 70
     0
 62
     7
  6
Continuous
290
     1
370
    -3
390
1D
  0
LAYER
  5
66
100
AcDbSymbolTableRecord
100
AcDbLayerTableRecord
  2
NOTE
 70
     0
 62
     7
  6
Continuous
290
     1
370
    -3
390
1D
  0
LAYER
  5
67
100
AcDbSymbolTableRecord
100
AcDbLayerTableRecord
  2
REFDIM
 70
     0
 62
     7
  6
Continuous
290
     1
370
    -3
390
1D
  0
LAYER
  5
68
100
AcDbSymbolTableRecord
100
AcDbLayerTableRecord
  2
ROUNDS
 70
     0
 62
     7
  6
Continuous
290
     1
370
    -3
390
1D
  0
LAYER
  5
69
100
AcDbSymbolTableRecord
100
AcDbLayerTableRecord
  2
SHELLS
 70
     0
 62
     7
  6
Continuous
290
     1
370
    -3
390
1D
  0
LAYER
  5
6A
100
AcDbSymbolTableRecord
100
AcDbLayerTableRecord
  2
SKELETON_GEOM
 70
     0
 62
     7
  6
Continuous
290
     1
370
    -3
390
1D
  0
LAYER
  5
6B
100
AcDbSymbolTableRecord
100
AcDbLayerTableRecord
  2
STD_SAE-4_PORT
 70
     0
 62
     7
  6
Continuous
290
     1
370
    -3
390
1D
  0
LAYER
  5
6C
100
AcDbSymbolTableRecord
100
AcDbLayerTableRecord
  2
STD_SAE-6_PORT
 70
     0
 62
     7
  6
Continuous
290
     1
370
    -3
390
1D
  0
LAYER
  5
6D
100
AcDbSymbolTableRecord
100
AcDbLayerTableRecord
  2
SURFACE_FEAT
 70
     0
 62
     7
  6
Continuous
290
     1
370
    -3
390
1D
  0
LAYER
  5
6E
100
AcDbSymbolTableRecord
100
AcDbLayerTableRecord
  2
T-8A_CAVITY
 70
     0
 62
     7
  6
Continuous
290
     1
370
    -3
390
1D
  0
LAYER
  5
6F
100
AcDbSymbolTableRecord
100
AcDbLayerTableRecord
  2
T-8A_CAVITY_REF_GEOMETRY
 70
     0
 62
     7
  6
Continuous
290
     1
370
    -3
390
1D
  0
ENDTAB
  0
TABLE
  2
STYLE
  5
3
100
AcDbSymbolTable
 70
     2
  0
STYLE
  5
17
100
AcDbSymbolTableRecord
100
AcDbTextStyleTableRecord
  2
Standard
 70
     0
 40
0.0
 41
1.0
 50
0.0
 71
     0
 42
0.0
  3
txt
  4

  0
STYLE
  5
77
100
AcDbSymbolTableRecord
100
AcDbTextStyleTableRecord
  2
Vcadd_SIMP
 70
     0
 40
0.0
 41
1.0
 50
0.0
 71
     0
 42
0.0
  3
SIMP
  4

  0
ENDTAB
  0
TABLE
  2
VIEW
  5
5
100
AcDbSymbolTable
 70
     0
  0
ENDTAB
  0
TABLE
  2
UCS
  5
6
100
AcDbSymbolTable
 70
     1
  0
UCS
  5
542
100
AcDbSymbolTableRecord
100
AcDbUCSTableRecord
  2
MYUCS
 70
     0
 10
0.0
 20
0.0
 30
0.0
 11
0.0
 21
1.0
 31
0.0
 12
0.0
 22
0.0
 32
1.0
 79
     0
146
0.0
  0
ENDTAB
  0
TABLE
  2
APPID
  5
8
100
AcDbSymbolTable
 70
     1
  0
APPID
  5
16
100
AcDbSymbolTableRecord
100
AcDbRegAppTableRecord
  2
ACAD
 70
     0
  0
ENDTAB
  0
TABLE
  2
DIMSTYLE
  5
9
100
AcDbSymbolTable
 70
     2
100
AcDbDimStyleTable
 71
     0
  0
DIMSTYLE
105
18
100
AcDbSymbolTableRecord
100
AcDbDimStyleTableRecord
  2
Standard
 70
     0
  3

  4

 40
1.0
 41
0.18
 42
0.0625
 43
0.38
 44
0.18
 45
0.0
 46
0.0
 47
0.0
 48
0.0
 71
     0
 72
     0
 73
     1
 74
     1
 75
     0
 76
     0
 77
     0
 78
     0
 79
     0
140
0.18
141
0.09
142
0.0
143
25.4
144
1.0
145
0.0
146
1.0
147
0.09
148
0.0
170
     0
171
     2
172
     0
173
     0
174
     0
175
     0
176
     0
177
     0
178
     0
179
     0
271
     4
272
     4
273
     2
274
     2
275
     0
276
     0
277
     2
278
    46
279
     0
280
     0
281
     0
282
     0
283
     1
284
     0
285
     0
286
     0
288
     0
289
     3
340
17
341
0
342
0
343
0
344
0
371
    -2
372
    -2
  0
DIMSTYLE
105
78
100
AcDbSymbolTableRecord
100
AcDbDimStyleTableRecord
  2
VCADD_DIMSTYLE
 70
     0
  3

  4

 40
1.0
 41
0.188
 42
0.0
 43
0.0
 44
0.0
 45
0.0
 46
0.0
 47
0.0
 48
0.0
 71
     0
 72
     0
 73
     1
 74
     1
 75
     0
 76
     0
 77
     0
 78
     3
 79
     1
140
0.142
141
0.0
142
0.0
143
1.0
144
1.0
145
0.0
146
1.0
147
0.5
148
0.0
170
     0
171
     3
172
     0
173
     0
174
     1
175
     0
176
     1
177
     1
178
     7
179
     3
271
     3
272
     4
273
     2
274
     2
275
     0
276
     0
277
     2
278
    46
279
     0
280
     0
281
     0
282
     0
283
     1
284
     0
285
     0
286
     0
288
     0
289
     3
340
77
341
0
342
0
343
0
344
0
371
    -2
372
    -2
  0
ENDTAB
  0
TABLE
  2
BLOCK_RECORD
  5
1
100
AcDbSymbolTable
 70
     7
  0
BLOCK_RECORD
  5
A
100
AcDbSymbolTableRecord
100
AcDbBlockTableRecord
  2
*MODEL_SPACE
340
20
  0
BLOCK_RECORD
  5
B
100
AcDbSymbolTableRecord
100
AcDbBlockTableRecord
  2
*PAPER_SPACE
340
21
  0
BLOCK_RECORD
  5
70
100
AcDbSymbolTableRecord
100
AcDbBlockTableRecord
  2
_CLOSED
340
0
  0
BLOCK_RECORD
  5
B3
100
AcDbSymbolTableRecord
100
AcDbBlockTableRecord
  2
LOGOFIX
340
0
102
{BLKREFS
331
137
102
}
  0
BLOCK_RECORD
  5
16B
100
AcDbSymbolTableRecord
100
AcDbBlockTableRecord
  2
DELTA
340
0
102
{BLKREFS
331
172
331
21D
102
}
  0
BLOCK_RECORD
  5
259
100
AcDbSymbolTableRecord
100
AcDbBlockTableRecord
  2
MAU
340
0
102
{BLKREFS
331
266
331
277
102
}
  0
BLOCK_RECORD
  5
268
100
AcDbSymbolTableRecord
100
AcDbBlockTableRecord
  2
MAL
340
0
102
{BLKREFS
331
275
102
}
  0
BLOCK_RECORD
  5
2B9
100
AcDbSymbolTableRecord
100
AcDbBlockTableRecord
  2
ARROW
340
0
102
{BLKREFS
331
2D8
331
2D9
331
2DA
331
2DB
331
2DC
331
2DD
331
2DE
331
2DF
331
2E0
331
2E1
331
2E2
331
2E3
331
2E4
331
2E5
331
2E6
331
2E7
331
2E8
331
2E9
331
2EA
331
2EB
331
2EC
331
32E
331
33A
331
33F
331
345
331
34D
331
34E
331
359
331
37F
331
39C
331
3AF
331
3B1
331
3D8
331
3D9
331
3E9
331
3F4
331
4E4
102
}
  0
BLOCK_RECORD
  5
532
100
AcDbSymbolTableRecord
100
AcDbBlockTableRecord
  2
STAR
340
0
102
{BLKREFS
331
53F
331
540
331
541
102
}
  0
ENDTAB
  0
ENDSEC
  0
SECTION
  2
BLOCKS
  0
BLOCK
  5
D
100
AcDbEntity
  8
0
390
0
100
AcDbBlockBegin
  2
*MODEL_SPACE
 70
     0
 10
0.0
 20
0.0
 30
0.0
  3
*MODEL_SPACE
  1

  0
ENDBLK
  5
E
100
AcDbEntity
  8
0
390
0
100
AcDbBlockEnd
  0
BLOCK
  5
F
100
AcDbEntity
 67
     1
  8
0
390
0
100
AcDbBlockBegin
  2
*PAPER_SPACE
 70
     0
 10
0.0
 20
0.0
 30
0.0
  3
*PAPER_SPACE
  1

  0
ENDBLK
  5
10
100
AcDbEntity
 67
     1
  8
0
390
0
100
AcDbBlockEnd
  0
BLOCK
  5
71
100
AcDbEntity
  8
0
390
0
100
AcDbBlockBegin
  2
_CLOSED
 70
     0
 10
0.0
 20
0.0
 30
0.0
  3
_CLOSED
  1

  0
LINE
  5
72
100
AcDbEntity
  8
0
370
    -2
390
0
  6
ByBlock
 62
     0
100
AcDbLine
 10
-1.0
 20
0.166667
 30
0.0
 11
0.0
 21
0.0
 31
0.0
  0
LINE
  5
73
100
AcDbEntity
  8
0
370
    -2
390
0
  6
ByBlock
 62
     0
100
AcDbLine
 10
0.0
 20
0.0
 30
0.0
 11
-1.0
 21
-0.166667
 31
0.0
  0
LINE
  5
74
100
AcDbEntity
  8
0
370
    -2
390
0
  6
ByBlock
 62
     0
100
AcDbLine
 10
-1.0
 20
0.166667
 30
0.0
 11
-1.0
 21
-0.166667
 31
0.0
  0
LINE
  5
75
100
AcDbEntity
  8
0
370
    -2
390
0
  6
ByBlock
 62
     0
100
AcDbLine
 10
0.0
 20
0.0
 30
0.0
 11
-1.0
 21
0.0
 31
0.0
  0
ENDBLK
  5
76
100
AcDbEntity
  8
0
390
0
100
AcDbBlockEnd
  0
BLOCK
  5
B4
100
AcDbEntity
  8
0
390
0
100
AcDbBlockBegin
  2
LOGOFIX
 70
     0
 10
0.0
 20
0.0
 30
0.0
  3
LOGOFIX
  1

  0
CIRCLE
  5
B5
100
AcDbEntity
  8
0
370
    15
390
0
  6
Continuous
 62
     7
100
AcDbCircle
 10
-0.339016
 20
0.725093
 30
0.0
 40
0.054385
  0
CIRCLE
  5
B6
100
AcDbEntity
  8
0
370
    15
390
0
  6
Continuous
 62
     2
100
AcDbCircle
 10
-2.134735
 20
0.546851
 30
0.0
 40
0.312
  0
LINE
  5
B7
100
AcDbEntity
  8
0
370
    15
390
0
  6
Continuous
 62
     7
100
AcDbLine
 10
-2.252522
 20
0.611857
 30
0.0
 11
-2.252522
 21
0.666324
 31
0.0
  0
LINE
  5
B8
100
AcDbEntity
  8
0
370
    15
390
0
  6
Continuous
 62
     7
100
AcDbLine
 10
-2.345673
 20
0.611857
 30
0.0
 11
-2.252522
 21
0.611857
 31
0.0
  0
LINE
  5
B9
100
AcDbEntity
  8
0
370
    15
390
0
  6
Continuous
 62
     7
100
AcDbLine
 10
-2.345673
 20
0.574351
 30
0.0
 11
-2.345673
 21
0.611857
 31
0.0
  0
LINE
  5
BA
100
AcDbEntity
  8
0
370
    15
390
0
  6
Continuous
 62
     7
100
AcDbLine
 10
-2.252522
 20
0.574351
 30
0.0
 11
-2.345673
 21
0.574351
 31
0.0
  0
LINE
  5
BB
100
AcDbEntity
  8
0
370
    15
390
0
  6
Continuous
 62
     7
100
AcDbLine
 10
-2.252522
 20
0.427375
 30
0.0
 11
-2.252522
 21
0.574351
 31
0.0
  0
LINE
  5
BC
100
AcDbEntity
  8
0
370
    15
390
0
  6
Continuous
 62
     7
100
AcDbLine
 10
-2.400673
 20
0.427375
 30
0.0
 11
-2.252522
 21
0.427375
 31
0.0
  0
LINE
  5
BD
100
AcDbEntity
  8
0
370
    15
390
0
  6
Continuous
 62
     7
100
AcDbLine
 10
-2.400673
 20
0.482417
 30
0.0
 11
-2.400673
 21
0.427375
 31
0.0
  0
LINE
  5
BE
100
AcDbEntity
  8
0
370
    15
390
0
  6
Continuous
 62
     7
100
AcDbLine
 10
-2.307522
 20
0.482417
 30
0.0
 11
-2.400673
 21
0.482417
 31
0.0
  0
LINE
  5
BF
100
AcDbEntity
  8
0
370
    15
390
0
  6
Continuous
 62
     7
100
AcDbLine
 10
-2.307522
 20
0.518968
 30
0.0
 11
-2.307522
 21
0.482417
 31
0.0
  0
LINE
  5
C0
100
AcDbEntity
  8
0
370
    15
390
0
  6
Continuous
 62
     7
100
AcDbLine
 10
-2.400673
 20
0.518968
 30
0.0
 11
-2.307522
 21
0.518968
 31
0.0
  0
LINE
  5
C1
100
AcDbEntity
  8
0
370
    15
390
0
  6
Continuous
 62
     7
100
AcDbLine
 10
-2.400673
 20
0.666324
 30
0.0
 11
-2.400673
 21
0.518968
 31
0.0
  0
LINE
  5
C2
100
AcDbEntity
  8
0
370
    15
390
0
  6
Continuous
 62
     7
100
AcDbLine
 10
-2.400673
 20
0.666324
 30
0.0
 11
-2.252522
 21
0.666324
 31
0.0
  0
LINE
  5
C3
100
AcDbEntity
  8
0
370
    15
390
0
  6
Continuous
 62
     7
100
AcDbLine
 10
-2.060661
 20
0.666324
 30
0.0
 11
-2.116367
 21
0.666324
 31
0.0
  0
LINE
  5
C4
100
AcDbEntity
  8
0
370
    15
390
0
  6
Continuous
 62
     7
100
AcDbLine
 10
-2.060661
 20
0.427375
 30
0.0
 11
-2.060661
 21
0.666324
 31
0.0
  0
LINE
  5
C5
100
AcDbEntity
  8
0
370
    15
390
0
  6
Continuous
 62
     7
100
AcDbLine
 10
-2.208813
 20
0.427375
 30
0.0
 11
-2.060661
 21
0.427375
 31
0.0
  0
LINE
  5
C6
100
AcDbEntity
  8
0
370
    15
390
0
  6
Continuous
 62
     7
100
AcDbLine
 10
-2.208813
 20
0.666324
 30
0.0
 11
-2.208813
 21
0.427375
 31
0.0
  0
LINE
  5
C7
100
AcDbEntity
  8
0
370
    15
390
0
  6
Continuous
 62
     7
100
AcDbLine
 10
-2.153893
 20
0.666324
 30
0.0
 11
-2.208813
 21
0.666324
 31
0.0
  0
LINE
  5
C8
100
AcDbEntity
  8
0
370
    15
390
0
  6
Continuous
 62
     7
100
AcDbLine
 10
-2.153893
 20
0.482375
 30
0.0
 11
-2.153893
 21
0.666324
 31
0.0
  0
LINE
  5
C9
100
AcDbEntity
  8
0
370
    15
390
0
  6
Continuous
 62
     7
100
AcDbLine
 10
-2.116367
 20
0.482375
 30
0.0
 11
-2.153893
 21
0.482375
 31
0.0
  0
LINE
  5
CA
100
AcDbEntity
  8
0
370
    15
390
0
  6
Continuous
 62
     7
100
AcDbLine
 10
-2.116367
 20
0.482375
 30
0.0
 11
-2.116367
 21
0.666324
 31
0.0
  0
LINE
  5
CB
100
AcDbEntity
  8
0
370
    15
390
0
  6
Continuous
 62
     7
100
AcDbLine
 10
-1.959084
 20
0.427375
 30
0.0
 11
-2.01479
 21
0.427375
 31
0.0
  0
LINE
  5
CC
100
AcDbEntity
  8
0
370
    15
390
0
  6
Continuous
 62
     7
100
AcDbLine
 10
-1.959084
 20
0.611323
 30
0.0
 11
-1.959084
 21
0.427375
 31
0.0
  0
LINE
  5
CD
100
AcDbEntity
  8
0
370
    15
390
0
  6
Continuous
 62
     7
100
AcDbLine
 10
-1.921558
 20
0.611323
 30
0.0
 11
-1.959084
 21
0.611323
 31
0.0
  0
LINE
  5
CE
100
AcDbEntity
  8
0
370
    15
390
0
  6
Continuous
 62
     7
100
AcDbLine
 10
-1.921558
 20
0.427375
 30
0.0
 11
-1.921558
 21
0.611323
 31
0.0
  0
LINE
  5
CF
100
AcDbEntity
  8
0
370
    15
390
0
  6
Continuous
 62
     7
100
AcDbLine
 10
-1.866638
 20
0.427375
 30
0.0
 11
-1.921558
 21
0.427375
 31
0.0
  0
LINE
  5
D0
100
AcDbEntity
  8
0
370
    15
390
0
  6
Continuous
 62
     7
100
AcDbLine
 10
-1.866638
 20
0.666324
 30
0.0
 11
-1.866638
 21
0.427375
 31
0.0
  0
LINE
  5
D1
100
AcDbEntity
  8
0
370
    15
390
0
  6
Continuous
 62
     7
100
AcDbLine
 10
-2.01479
 20
0.666324
 30
0.0
 11
-1.866638
 21
0.666324
 31
0.0
  0
LINE
  5
D2
100
AcDbEntity
  8
0
370
    15
390
0
  6
Continuous
 62
     7
100
AcDbLine
 10
-2.01479
 20
0.666324
 30
0.0
 11
-2.01479
 21
0.427375
 31
0.0
  0
LINE
  5
D3
100
AcDbEntity
  8
0
370
    15
390
0
  6
Continuous
 62
     7
100
AcDbLine
 10
-1.650478
 20
0.64285
 30
0.0
 11
-1.650478
 21
0.709533
 31
0.0
  0
LINE
  5
D4
100
AcDbEntity
  8
0
370
    15
390
0
  6
Continuous
 62
     7
100
AcDbLine
 10
-1.570118
 20
0.64285
 30
0.0
 11
-1.650478
 21
0.64285
 31
0.0
  0
LINE
  5
D5
100
AcDbEntity
  8
0
370
    15
390
0
  6
Continuous
 62
     7
100
AcDbLine
 10
-1.570118
 20
0.446849
 30
0.0
 11
-1.570118
 21
0.64285
 31
0.0
  0
LINE
  5
D6
100
AcDbEntity
  8
0
370
    15
390
0
  6
Continuous
 62
     7
100
AcDbLine
 10
-1.610298
 20
0.446849
 30
0.0
 11
-1.570118
 21
0.446849
 31
0.0
  0
LINE
  5
D7
100
AcDbEntity
  8
0
370
    15
390
0
  6
Continuous
 62
     7
100
AcDbLine
 10
-1.610298
 20
0.60267
 30
0.0
 11
-1.610298
 21
0.446849
 31
0.0
  0
LINE
  5
D8
100
AcDbEntity
  8
0
370
    15
390
0
  6
Continuous
 62
     7
100
AcDbLine
 10
-1.650478
 20
0.60267
 30
0.0
 11
-1.610298
 21
0.60267
 31
0.0
  0
LINE
  5
D9
100
AcDbEntity
  8
0
370
    15
390
0
  6
Continuous
 62
     7
100
AcDbLine
 10
-1.650478
 20
0.446849
 30
0.0
 11
-1.650478
 21
0.60267
 31
0.0
  0
LINE
  5
DA
100
AcDbEntity
  8
0
370
    15
390
0
  6
Continuous
 62
     7
100
AcDbLine
 10
-1.690659
 20
0.446849
 30
0.0
 11
-1.650478
 21
0.446849
 31
0.0
  0
LINE
  5
DB
100
AcDbEntity
  8
0
370
    15
390
0
  6
Continuous
 62
     7
100
AcDbLine
 10
-1.690659
 20
0.709533
 30
0.0
 11
-1.690659
 21
0.446849
 31
0.0
  0
LINE
  5
DC
100
AcDbEntity
  8
0
370
    15
390
0
  6
Continuous
 62
     7
100
AcDbLine
 10
-1.690659
 20
0.709533
 30
0.0
 11
-1.650478
 21
0.709533
 31
0.0
  0
LINE
  5
DD
100
AcDbEntity
  8
0
370
    15
390
0
  6
Continuous
 62
     7
100
AcDbLine
 10
-1.489758
 20
0.487029
 30
0.0
 11
-1.489758
 21
0.64285
 31
0.0
  0
LINE
  5
DE
100
AcDbEntity
  8
0
370
    15
390
0
  6
Continuous
 62
     7
100
AcDbLine
 10
-1.449577
 20
0.487029
 30
0.0
 11
-1.489758
 21
0.487029
 31
0.0
  0
LINE
  5
DF
100
AcDbEntity
  8
0
370
    15
390
0
  6
Continuous
 62
     7
100
AcDbLine
 10
-1.449577
 20
0.64285
 30
0.0
 11
-1.449577
 21
0.487029
 31
0.0
  0
LINE
  5
E0
100
AcDbEntity
  8
0
370
    15
390
0
  6
Continuous
 62
     7
100
AcDbLine
 10
-1.409397
 20
0.64285
 30
0.0
 11
-1.449577
 21
0.64285
 31
0.0
  0
LINE
  5
E1
100
AcDbEntity
  8
0
370
    15
390
0
  6
Continuous
 62
     7
100
AcDbLine
 10
-1.409397
 20
0.36719
 30
0.0
 11
-1.409397
 21
0.64285
 31
0.0
  0
LINE
  5
E2
100
AcDbEntity
  8
0
370
    15
390
0
  6
Continuous
 62
     7
100
AcDbLine
 10
-1.487316
 20
0.366488
 30
0.0
 11
-1.409397
 21
0.36719
 31
0.0
  0
LINE
  5
E3
100
AcDbEntity
  8
0
370
    15
390
0
  6
Continuous
 62
     7
100
AcDbLine
 10
-1.487316
 20
0.406669
 30
0.0
 11
-1.487316
 21
0.366488
 31
0.0
  0
LINE
  5
E4
100
AcDbEntity
  8
0
370
    15
390
0
  6
Continuous
 62
     7
100
AcDbLine
 10
-1.449577
 20
0.406669
 30
0.0
 11
-1.487316
 21
0.406669
 31
0.0
  0
LINE
  5
E5
100
AcDbEntity
  8
0
370
    15
390
0
  6
Continuous
 62
     7
100
AcDbLine
 10
-1.449577
 20
0.446849
 30
0.0
 11
-1.449577
 21
0.406669
 31
0.0
  0
LINE
  5
E6
100
AcDbEntity
  8
0
370
    15
390
0
  6
Continuous
 62
     7
100
AcDbLine
 10
-1.529938
 20
0.446849
 30
0.0
 11
-1.449577
 21
0.446849
 31
0.0
  0
LINE
  5
E7
100
AcDbEntity
  8
0
370
    15
390
0
  6
Continuous
 62
     7
100
AcDbLine
 10
-1.529938
 20
0.64285
 30
0.0
 11
-1.529938
 21
0.446849
 31
0.0
  0
LINE
  5
E8
100
AcDbEntity
  8
0
370
    15
390
0
  6
Continuous
 62
     7
100
AcDbLine
 10
-1.529938
 20
0.64285
 30
0.0
 11
-1.489758
 21
0.64285
 31
0.0
  0
LINE
  5
E9
100
AcDbEntity
  8
0
370
    15
390
0
  6
Continuous
 62
     7
100
AcDbLine
 10
-1.287342
 20
0.709533
 30
0.0
 11
-1.287342
 21
0.64285
 31
0.0
  0
LINE
  5
EA
100
AcDbEntity
  8
0
370
    15
390
0
  6
Continuous
 62
     7
100
AcDbLine
 10
-1.247158
 20
0.709533
 30
0.0
 11
-1.287342
 21
0.709533
 31
0.0
  0
LINE
  5
EB
100
AcDbEntity
  8
0
370
    15
390
0
  6
Continuous
 62
     7
100
AcDbLine
 10
-1.247158
 20
0.446849
 30
0.0
 11
-1.247158
 21
0.709533
 31
0.0
  0
LINE
  5
EC
100
AcDbEntity
  8
0
370
    15
390
0
  6
Continuous
 62
     7
100
AcDbLine
 10
-1.367702
 20
0.446849
 30
0.0
 11
-1.247158
 21
0.446849
 31
0.0
  0
LINE
  5
ED
100
AcDbEntity
  8
0
370
    15
390
0
  6
Continuous
 62
     7
100
AcDbLine
 10
-1.367702
 20
0.64285
 30
0.0
 11
-1.367702
 21
0.446849
 31
0.0
  0
LINE
  5
EE
100
AcDbEntity
  8
0
370
    15
390
0
  6
Continuous
 62
     7
100
AcDbLine
 10
-1.367702
 20
0.64285
 30
0.0
 11
-1.287342
 21
0.64285
 31
0.0
  0
LINE
  5
EF
100
AcDbEntity
  8
0
370
    15
390
0
  6
Continuous
 62
     7
100
AcDbLine
 10
-1.287342
 20
0.60267
 30
0.0
 11
-1.287342
 21
0.487029
 31
0.0
  0
LINE
  5
F0
100
AcDbEntity
  8
0
370
    15
390
0
  6
Continuous
 62
     7
100
AcDbLine
 10
-1.327518
 20
0.487029
 30
0.0
 11
-1.287342
 21
0.487029
 31
0.0
  0
LINE
  5
F1
100
AcDbEntity
  8
0
370
    15
390
0
  6
Continuous
 62
     7
100
AcDbLine
 10
-1.327518
 20
0.60267
 30
0.0
 11
-1.327518
 21
0.487029
 31
0.0
  0
LINE
  5
F2
100
AcDbEntity
  8
0
370
    15
390
0
  6
Continuous
 62
     7
100
AcDbLine
 10
-1.327518
 20
0.60267
 30
0.0
 11
-1.287342
 21
0.60267
 31
0.0
  0
LINE
  5
F3
100
AcDbEntity
  8
0
370
    15
390
0
  6
Continuous
 62
     7
100
AcDbLine
 10
-1.126621
 20
0.60267
 30
0.0
 11
-1.126621
 21
0.64285
 31
0.0
  0
LINE
  5
F4
100
AcDbEntity
  8
0
370
    15
390
0
  6
Continuous
 62
     7
100
AcDbLine
 10
-1.166801
 20
0.60267
 30
0.0
 11
-1.126621
 21
0.60267
 31
0.0
  0
LINE
  5
F5
100
AcDbEntity
  8
0
370
    15
390
0
  6
Continuous
 62
     7
100
AcDbLine
 10
-1.166801
 20
0.446849
 30
0.0
 11
-1.166801
 21
0.60267
 31
0.0
  0
LINE
  5
F6
100
AcDbEntity
  8
0
370
    15
390
0
  6
Continuous
 62
     7
100
AcDbLine
 10
-1.206982
 20
0.446849
 30
0.0
 11
-1.166801
 21
0.446849
 31
0.0
  0
LINE
  5
F7
100
AcDbEntity
  8
0
370
    15
390
0
  6
Continuous
 62
     7
100
AcDbLine
 10
-1.206982
 20
0.64285
 30
0.0
 11
-1.206982
 21
0.446849
 31
0.0
  0
LINE
  5
F8
100
AcDbEntity
  8
0
370
    15
390
0
  6
Continuous
 62
     7
100
AcDbLine
 10
-1.206982
 20
0.64285
 30
0.0
 11
-1.126621
 21
0.64285
 31
0.0
  0
LINE
  5
F9
100
AcDbEntity
  8
0
370
    15
390
0
  6
Continuous
 62
     7
100
AcDbLine
 10
-0.88554
 20
0.487029
 30
0.0
 11
-0.88554
 21
0.64285
 31
0.0
  0
LINE
  5
FA
100
AcDbEntity
  8
0
370
    15
390
0
  6
Continuous
 62
     7
100
AcDbLine
 10
-0.84536
 20
0.487029
 30
0.0
 11
-0.88554
 21
0.487029
 31
0.0
  0
LINE
  5
FB
100
AcDbEntity
  8
0
370
    15
390
0
  6
Continuous
 62
     7
100
AcDbLine
 10
-0.84536
 20
0.64285
 30
0.0
 11
-0.84536
 21
0.487029
 31
0.0
  0
LINE
  5
FC
100
AcDbEntity
  8
0
370
    15
390
0
  6
Continuous
 62
     7
100
AcDbLine
 10
-0.80518
 20
0.64285
 30
0.0
 11
-0.84536
 21
0.64285
 31
0.0
  0
LINE
  5
FD
100
AcDbEntity
  8
0
370
    15
390
0
  6
Continuous
 62
     7
100
AcDbLine
 10
-0.80518
 20
0.446849
 30
0.0
 11
-0.80518
 21
0.64285
 31
0.0
  0
LINE
  5
FE
100
AcDbEntity
  8
0
370
    15
390
0
  6
Continuous
 62
     7
100
AcDbLine
 10
-0.92572
 20
0.446849
 30
0.0
 11
-0.80518
 21
0.446849
 31
0.0
  0
LINE
  5
FF
100
AcDbEntity
  8
0
370
    15
390
0
  6
Continuous
 62
     7
100
AcDbLine
 10
-0.92572
 20
0.64285
 30
0.0
 11
-0.92572
 21
0.446849
 31
0.0
  0
LINE
  5
100
100
AcDbEntity
  8
0
370
    15
390
0
  6
Continuous
 62
     7
100
AcDbLine
 10
-0.92572
 20
0.64285
 30
0.0
 11
-0.88554
 21
0.64285
 31
0.0
  0
LINE
  5
101
100
AcDbEntity
  8
0
370
    15
390
0
  6
Continuous
 62
     7
100
AcDbLine
 10
-0.724819
 20
0.446849
 30
0.0
 11
-0.724819
 21
0.709533
 31
0.0
  0
LINE
  5
102
100
AcDbEntity
  8
0
370
    15
390
0
  6
Continuous
 62
     7
100
AcDbLine
 10
-0.764999
 20
0.446849
 30
0.0
 11
-0.724819
 21
0.446849
 31
0.0
  0
LINE
  5
103
100
AcDbEntity
  8
0
370
    15
390
0
  6
Continuous
 62
     7
100
AcDbLine
 10
-0.764999
 20
0.709533
 30
0.0
 11
-0.764999
 21
0.446849
 31
0.0
  0
LINE
  5
104
100
AcDbEntity
  8
0
370
    15
390
0
  6
Continuous
 62
     7
100
AcDbLine
 10
-0.764999
 20
0.709533
 30
0.0
 11
-0.724819
 21
0.709533
 31
0.0
  0
LINE
  5
105
100
AcDbEntity
  8
0
370
    15
390
0
  6
Continuous
 62
     7
100
AcDbLine
 10
-0.644459
 20
0.669353
 30
0.0
 11
-0.644459
 21
0.709533
 31
0.0
  0
LINE
  5
106
100
AcDbEntity
  8
0
370
    15
390
0
  6
Continuous
 62
     7
100
AcDbLine
 10
-0.684639
 20
0.669353
 30
0.0
 11
-0.644459
 21
0.669353
 31
0.0
  0
LINE
  5
107
100
AcDbEntity
  8
0
370
    15
390
0
  6
Continuous
 62
     7
100
AcDbLine
 10
-0.684639
 20
0.709533
 30
0.0
 11
-0.684639
 21
0.669353
 31
0.0
  0
LINE
  5
108
100
AcDbEntity
  8
0
370
    15
390
0
  6
Continuous
 62
     7
100
AcDbLine
 10
-0.684639
 20
0.709533
 30
0.0
 11
-0.644459
 21
0.709533
 31
0.0
  0
LINE
  5
109
100
AcDbEntity
  8
0
370
    15
390
0
  6
Continuous
 62
     7
100
AcDbLine
 10
-0.644459
 20
0.446849
 30
0.0
 11
-0.644459
 21
0.64285
 31
0.0
  0
LINE
  5
10A
100
AcDbEntity
  8
0
370
    15
390
0
  6
Continuous
 62
     7
100
AcDbLine
 10
-0.684639
 20
0.446849
 30
0.0
 11
-0.644459
 21
0.446849
 31
0.0
  0
LINE
  5
10B
100
AcDbEntity
  8
0
370
    15
390
0
  6
Continuous
 62
     7
100
AcDbLine
 10
-0.684639
 20
0.64285
 30
0.0
 11
-0.684639
 21
0.446849
 31
0.0
  0
LINE
  5
10C
100
AcDbEntity
  8
0
370
    15
390
0
  6
Continuous
 62
     7
100
AcDbLine
 10
-0.684639
 20
0.64285
 30
0.0
 11
-0.644459
 21
0.64285
 31
0.0
  0
LINE
  5
10D
100
AcDbEntity
  8
0
370
    15
390
0
  6
Continuous
 62
     7
100
AcDbLine
 10
-0.488537
 20
0.60267
 30
0.0
 11
-0.488537
 21
0.64285
 31
0.0
  0
LINE
  5
10E
100
AcDbEntity
  8
0
370
    15
390
0
  6
Continuous
 62
     7
100
AcDbLine
 10
-0.564098
 20
0.60267
 30
0.0
 11
-0.488537
 21
0.60267
 31
0.0
  0
LINE
  5
10F
100
AcDbEntity
  8
0
370
    15
390
0
  6
Continuous
 62
     7
100
AcDbLine
 10
-0.564098
 20
0.487029
 30
0.0
 11
-0.564098
 21
0.60267
 31
0.0
  0
LINE
  5
110
100
AcDbEntity
  8
0
370
    15
390
0
  6
Continuous
 62
     7
100
AcDbLine
 10
-0.488537
 20
0.487029
 30
0.0
 11
-0.564098
 21
0.487029
 31
0.0
  0
LINE
  5
111
100
AcDbEntity
  8
0
370
    15
390
0
  6
Continuous
 62
     7
100
AcDbLine
 10
-0.488537
 20
0.446849
 30
0.0
 11
-0.488537
 21
0.487029
 31
0.0
  0
LINE
  5
112
100
AcDbEntity
  8
0
370
    15
390
0
  6
Continuous
 62
     7
100
AcDbLine
 10
-0.604279
 20
0.446849
 30
0.0
 11
-0.488537
 21
0.446849
 31
0.0
  0
LINE
  5
113
100
AcDbEntity
  8
0
370
    15
390
0
  6
Continuous
 62
     7
100
AcDbLine
 10
-0.604279
 20
0.64285
 30
0.0
 11
-0.604279
 21
0.446849
 31
0.0
  0
LINE
  5
114
100
AcDbEntity
  8
0
370
    15
390
0
  6
Continuous
 62
     7
100
AcDbLine
 10
-0.604279
 20
0.64285
 30
0.0
 11
-0.488537
 21
0.64285
 31
0.0
  0
LINE
  5
115
100
AcDbEntity
  8
0
370
    15
390
0
  6
Continuous
 62
     7
100
AcDbLine
 10
-0.321075
 20
0.60267
 30
0.0
 11
-0.321075
 21
0.64285
 31
0.0
  0
LINE
  5
116
100
AcDbEntity
  8
0
370
    15
390
0
  6
Continuous
 62
     7
100
AcDbLine
 10
-0.408176
 20
0.60267
 30
0.0
 11
-0.321075
 21
0.60267
 31
0.0
  0
LINE
  5
117
100
AcDbEntity
  8
0
370
    15
390
0
  6
Continuous
 62
     7
100
AcDbLine
 10
-0.408176
 20
0.56494
 30
0.0
 11
-0.408176
 21
0.60267
 31
0.0
  0
LINE
  5
118
100
AcDbEntity
  8
0
370
    15
390
0
  6
Continuous
 62
     7
100
AcDbLine
 10
-0.321075
 20
0.56494
 30
0.0
 11
-0.408176
 21
0.56494
 31
0.0
  0
LINE
  5
119
100
AcDbEntity
  8
0
370
    15
390
0
  6
Continuous
 62
     7
100
AcDbLine
 10
-0.321075
 20
0.446849
 30
0.0
 11
-0.321075
 21
0.56494
 31
0.0
  0
LINE
  5
11A
100
AcDbEntity
  8
0
370
    15
390
0
  6
Continuous
 62
     7
100
AcDbLine
 10
-0.448357
 20
0.446849
 30
0.0
 11
-0.321075
 21
0.446849
 31
0.0
  0
LINE
  5
11B
100
AcDbEntity
  8
0
370
    15
390
0
  6
Continuous
 62
     7
100
AcDbLine
 10
-0.448357
 20
0.487029
 30
0.0
 11
-0.448357
 21
0.446849
 31
0.0
  0
LINE
  5
11C
100
AcDbEntity
  8
0
370
    15
390
0
  6
Continuous
 62
     7
100
AcDbLine
 10
-0.361256
 20
0.487029
 30
0.0
 11
-0.448357
 21
0.487029
 31
0.0
  0
LINE
  5
11D
100
AcDbEntity
  8
0
370
    15
390
0
  6
Continuous
 62
     7
100
AcDbLine
 10
-0.361256
 20
0.52476
 30
0.0
 11
-0.361256
 21
0.487029
 31
0.0
  0
LINE
  5
11E
100
AcDbEntity
  8
0
370
    15
390
0
  6
Continuous
 62
     7
100
AcDbLine
 10
-0.448357
 20
0.52476
 30
0.0
 11
-0.361256
 21
0.52476
 31
0.0
  0
LINE
  5
11F
100
AcDbEntity
  8
0
370
    15
390
0
  6
Continuous
 62
     7
100
AcDbLine
 10
-0.448357
 20
0.64285
 30
0.0
 11
-0.448357
 21
0.52476
 31
0.0
  0
LINE
  5
120
100
AcDbEntity
  8
0
370
    15
390
0
  6
Continuous
 62
     7
100
AcDbLine
 10
-0.448357
 20
0.64285
 30
0.0
 11
-0.321075
 21
0.64285
 31
0.0
  0
LINE
  5
121
100
AcDbEntity
  8
0
370
    15
390
0
  6
Continuous
 62
     7
100
AcDbLine
 10
-0.9659
 20
0.446849
 30
0.0
 11
-0.9659
 21
0.64285
 31
0.0
  0
LINE
  5
122
100
AcDbEntity
  8
0
370
    15
390
0
  6
Continuous
 62
     7
100
AcDbLine
 10
-1.086441
 20
0.446849
 30
0.0
 11
-0.9659
 21
0.446849
 31
0.0
  0
LINE
  5
123
100
AcDbEntity
  8
0
370
    15
390
0
  6
Continuous
 62
     7
100
AcDbLine
 10
-1.086441
 20
0.567389
 30
0.0
 11
-1.086441
 21
0.446849
 31
0.0
  0
LINE
  5
124
100
AcDbEntity
  8
0
370
    15
390
0
  6
Continuous
 62
     7
100
AcDbLine
 10
-1.006081
 20
0.567389
 30
0.0
 11
-1.086441
 21
0.567389
 31
0.0
  0
LINE
  5
125
100
AcDbEntity
  8
0
370
    15
390
0
  6
Continuous
 62
     7
100
AcDbLine
 10
-1.006081
 20
0.60267
 30
0.0
 11
-1.006081
 21
0.567389
 31
0.0
  0
LINE
  5
126
100
AcDbEntity
  8
0
370
    15
390
0
  6
Continuous
 62
     7
100
AcDbLine
 10
-1.068665
 20
0.60267
 30
0.0
 11
-1.006081
 21
0.60267
 31
0.0
  0
LINE
  5
127
100
AcDbEntity
  8
0
370
    15
390
0
  6
Continuous
 62
     7
100
AcDbLine
 10
-1.068665
 20
0.64285
 30
0.0
 11
-1.068665
 21
0.60267
 31
0.0
  0
LINE
  5
128
100
AcDbEntity
  8
0
370
    15
390
0
  6
Continuous
 62
     7
100
AcDbLine
 10
-1.068665
 20
0.64285
 30
0.0
 11
-0.9659
 21
0.64285
 31
0.0
  0
LINE
  5
129
100
AcDbEntity
  8
0
370
    15
390
0
  6
Continuous
 62
     7
100
AcDbLine
 10
-1.006081
 20
0.487029
 30
0.0
 11
-1.006081
 21
0.527209
 31
0.0
  0
LINE
  5
12A
100
AcDbEntity
  8
0
370
    15
390
0
  6
Continuous
 62
     7
100
AcDbLine
 10
-1.046261
 20
0.487029
 30
0.0
 11
-1.006081
 21
0.487029
 31
0.0
  0
LINE
  5
12B
100
AcDbEntity
  8
0
370
    15
390
0
  6
Continuous
 62
     7
100
AcDbLine
 10
-1.046261
 20
0.527209
 30
0.0
 11
-1.046261
 21
0.487029
 31
0.0
  0
LINE
  5
12C
100
AcDbEntity
  8
0
370
    15
390
0
  6
Continuous
 62
     7
100
AcDbLine
 10
-1.046261
 20
0.527209
 30
0.0
 11
-1.006081
 21
0.527209
 31
0.0
  0
HATCH
  5
12D
100
AcDbEntity
  8
0
370
    15
390
0
  6
Continuous
 62
   174
100
AcDbHatch
 10
0.0
 20
0.0
 30
0.0
210
0.0
220
0.0
230
1.0
  2
SOLID
 70
     1
 71
     0
 91
        4
 92
        1
 93
        1
 72
     2
 10
-2.134735107421875
 20
0.5468511581420898
 40
0.3120002746582031
 50
0.0
 51
360.0
 73
     1
 97
        0
 92
        1
 93
       12
 72
     1
 10
-2.2525215148925781
 20
0.6118574142456055
 11
-2.2525215148925781
 21
0.6663236618041992
 72
     1
 10
-2.2525215148925781
 20
0.6663236618041992
 11
-2.4006729125976562
 21
0.6663236618041992
 72
     1
 10
-2.4006729125976562
 20
0.6663236618041992
 11
-2.4006729125976562
 21
0.5189676284790039
 72
     1
 10
-2.4006729125976562
 20
0.5189676284790039
 11
-2.3075218200683594
 21
0.5189676284790039
 72
     1
 10
-2.3075218200683594
 20
0.5189676284790039
 11
-2.3075218200683594
 21
0.482417106628418
 72
     1
 10
-2.3075218200683594
 20
0.482417106628418
 11
-2.4006729125976562
 21
0.482417106628418
 72
     1
 10
-2.4006729125976562
 20
0.482417106628418
 11
-2.4006729125976562
 21
0.4273748397827148
 72
     1
 10
-2.4006729125976562
 20
0.4273748397827148
 11
-2.2525215148925781
 21
0.4273748397827148
 72
     1
 10
-2.2525215148925781
 20
0.4273748397827148
 11
-2.2525215148925781
 21
0.5743513107299805
 72
     1
 10
-2.2525215148925781
 20
0.5743513107299805
 11
-2.345672607421875
 21
0.5743513107299805
 72
     1
 10
-2.345672607421875
 20
0.5743513107299805
 11
-2.345672607421875
 21
0.6118574142456055
 72
     1
 10
-2.345672607421875
 20
0.6118574142456055
 11
-2.2525215148925781
 21
0.6118574142456055
 97
        0
 92
        1
 93
        8
 72
     1
 10
-2.0606613159179687
 20
0.6663236618041992
 11
-2.1163673400878906
 21
0.6663236618041992
 72
     1
 10
-2.1163673400878906
 20
0.6663236618041992
 11
-2.1163673400878906
 21
0.4823751449584961
 72
     1
 10
-2.1163673400878906
 20
0.4823751449584961
 11
-2.1538925170898438
 21
0.4823751449584961
 72
     1
 10
-2.1538925170898438
 20
0.4823751449584961
 11
-2.1538925170898438
 21
0.6663236618041992
 72
     1
 10
-2.1538925170898438
 20
0.6663236618041992
 11
-2.2088127136230469
 21
0.6663236618041992
 72
     1
 10
-2.2088127136230469
 20
0.6663236618041992
 11
-2.2088127136230469
 21
0.4273748397827148
 72
     1
 10
-2.2088127136230469
 20
0.4273748397827148
 11
-2.0606613159179687
 21
0.4273748397827148
 72
     1
 10
-2.0606613159179687
 20
0.4273748397827148
 11
-2.0606613159179687
 21
0.6663236618041992
 97
        0
 92
        1
 93
        8
 72
     1
 10
-1.9590835571289062
 20
0.4273748397827148
 11
-2.0147895812988281
 21
0.4273748397827148
 72
     1
 10
-2.0147895812988281
 20
0.4273748397827148
 11
-2.0147895812988281
 21
0.6663236618041992
 72
     1
 10
-2.0147895812988281
 20
0.6663236618041992
 11
-1.86663818359375
 21
0.6663236618041992
 72
     1
 10
-1.86663818359375
 20
0.6663236618041992
 11
-1.86663818359375
 21
0.4273748397827148
 72
     1
 10
-1.86663818359375
 20
0.4273748397827148
 11
-1.9215583801269531
 21
0.4273748397827148
 72
     1
 10
-1.9215583801269531
 20
0.4273748397827148
 11
-1.9215583801269531
 21
0.611323356628418
 72
     1
 10
-1.9215583801269531
 20
0.611323356628418
 11
-1.9590835571289062
 21
0.611323356628418
 72
     1
 10
-1.9590835571289062
 20
0.611323356628418
 11
-1.9590835571289062
 21
0.4273748397827148
 97
        0
 75
     0
 76
     1
 98
        1
 10
0.0
 20
0.0
  0
HATCH
  5
12E
100
AcDbEntity
  8
0
370
    15
390
0
  6
Continuous
 62
   174
100
AcDbHatch
 10
0.0
 20
0.0
 30
0.0
210
0.0
220
0.0
230
1.0
  2
SOLID
 70
     1
 71
     0
 91
        4
 92
        1
 93
       10
 72
     1
 10
-1.6504783630371094
 20
0.6428499221801758
 11
-1.6504783630371094
 21
0.7095327377319336
 72
     1
 10
-1.6504783630371094
 20
0.7095327377319336
 11
-1.6906585693359375
 21
0.7095327377319336
 72
     1
 10
-1.6906585693359375
 20
0.7095327377319336
 11
-1.6906585693359375
 21
0.4468488693237305
 72
     1
 10
-1.6906585693359375
 20
0.4468488693237305
 11
-1.6504783630371094
 21
0.4468488693237305
 72
     1
 10
-1.6504783630371094
 20
0.4468488693237305
 11
-1.6504783630371094
 21
0.6026697158813477
 72
     1
 10
-1.6504783630371094
 20
0.6026697158813477
 11
-1.6102981567382813
 21
0.6026697158813477
 72
     1
 10
-1.6102981567382813
 20
0.6026697158813477
 11
-1.6102981567382813
 21
0.4468488693237305
 72
     1
 10
-1.6102981567382813
 20
0.4468488693237305
 11
-1.5701179504394531
 21
0.4468488693237305
 72
     1
 10
-1.5701179504394531
 20
0.4468488693237305
 11
-1.5701179504394531
 21
0.6428499221801758
 72
     1
 10
-1.5701179504394531
 20
0.6428499221801758
 11
-1.6504783630371094
 21
0.6428499221801758
 97
        0
 92
        1
 93
       12
 72
     1
 10
-1.4897575378417969
 20
0.4870290756225586
 11
-1.4897575378417969
 21
0.6428499221801758
 72
     1
 10
-1.4897575378417969
 20
0.6428499221801758
 11
-1.529937744140625
 21
0.6428499221801758
 72
     1
 10
-1.529937744140625
 20
0.6428499221801758
 11
-1.529937744140625
 21
0.4468488693237305
 72
     1
 10
-1.529937744140625
 20
0.4468488693237305
 11
-1.4495773315429687
 21
0.4468488693237305
 72
     1
 10
-1.4495773315429687
 20
0.4468488693237305
 11
-1.4495773315429687
 21
0.4066686630249023
 72
     1
 10
-1.4495773315429687
 20
0.4066686630249023
 11
-1.4873161315917969
 21
0.4066686630249023
 72
     1
 10
-1.4873161315917969
 20
0.4066686630249023
 11
-1.4873161315917969
 21
0.3664884567260742
 72
     1
 10
-1.4873161315917969
 20
0.3664884567260742
 11
-1.4093971252441406
 21
0.3671903610229492
 72
     1
 10
-1.4093971252441406
 20
0.3671903610229492
 11
-1.4093971252441406
 21
0.6428499221801758
 72
     1
 10
-1.4093971252441406
 20
0.6428499221801758
 11
-1.4495773315429687
 21
0.6428499221801758
 72
     1
 10
-1.4495773315429687
 20
0.6428499221801758
 11
-1.4495773315429687
 21
0.4870290756225586
 72
     1
 10
-1.4495773315429687
 20
0.4870290756225586
 11
-1.4897575378417969
 21
0.4870290756225586
 97
        0
 92
        1
 93
        6
 72
     1
 10
-1.2873420715332031
 20
0.7095327377319336
 11
-1.2873420715332031
 21
0.6428499221801758
 72
     1
 10
-1.2873420715332031
 20
0.6428499221801758
 11
-1.3677024841308594
 21
0.6428499221801758
 72
     1
 10
-1.3677024841308594
 20
0.6428499221801758
 11
-1.3677024841308594
 21
0.4468488693237305
 72
     1
 10
-1.3677024841308594
 20
0.4468488693237305
 11
-1.2471580505371094
 21
0.4468488693237305
 72
     1
 10
-1.2471580505371094
 20
0.4468488693237305
 11
-1.2471580505371094
 21
0.7095327377319336
 72
     1
 10
-1.2471580505371094
 20
0.7095327377319336
 11
-1.2873420715332031
 21
0.7095327377319336
 97
        0
 92
        1
 93
        4
 72
     1
 10
-1.2873420715332031
 20
0.6026697158813477
 11
-1.2873420715332031
 21
0.4870290756225586
 72
     1
 10
-1.2873420715332031
 20
0.4870290756225586
 11
-1.3275184631347656
 21
0.4870290756225586
 72
     1
 10
-1.3275184631347656
 20
0.4870290756225586
 11
-1.3275184631347656
 21
0.6026697158813477
 72
     1
 10
-1.3275184631347656
 20
0.6026697158813477
 11
-1.2873420715332031
 21
0.6026697158813477
 97
        0
 75
     0
 76
     1
 98
        1
 10
0.0
 20
0.0
  0
HATCH
  5
12F
100
AcDbEntity
  8
0
370
    15
390
0
  6
Continuous
 62
   174
100
AcDbHatch
 10
0.0
 20
0.0
 30
0.0
210
0.0
220
0.0
230
1.0
  2
SOLID
 70
     1
 71
     0
 91
        8
 92
        1
 93
        6
 72
     1
 10
-1.1266212463378906
 20
0.6026697158813477
 11
-1.1266212463378906
 21
0.6428499221801758
 72
     1
 10
-1.1266212463378906
 20
0.6428499221801758
 11
-1.2069816589355469
 21
0.6428499221801758
 72
     1
 10
-1.2069816589355469
 20
0.6428499221801758
 11
-1.2069816589355469
 21
0.4468488693237305
 72
     1
 10
-1.2069816589355469
 20
0.4468488693237305
 11
-1.1668014526367187
 21
0.4468488693237305
 72
     1
 10
-1.1668014526367187
 20
0.4468488693237305
 11
-1.1668014526367187
 21
0.6026697158813477
 72
     1
 10
-1.1668014526367187
 20
0.6026697158813477
 11
-1.1266212463378906
 21
0.6026697158813477
 97
        0
 92
        1
 93
        8
 72
     1
 10
-0.8855400085449219
 20
0.4870290756225586
 11
-0.8855400085449219
 21
0.6428499221801758
 72
     1
 10
-0.8855400085449219
 20
0.6428499221801758
 11
-0.92572021484375
 21
0.6428499221801758
 72
     1
 10
-0.92572021484375
 20
0.6428499221801758
 11
-0.92572021484375
 21
0.4468488693237305
 72
     1
 10
-0.92572021484375
 20
0.4468488693237305
 11
-0.8051795959472656
 21
0.4468488693237305
 72
     1
 10
-0.8051795959472656
 20
0.4468488693237305
 11
-0.8051795959472656
 21
0.6428499221801758
 72
     1
 10
-0.8051795959472656
 20
0.6428499221801758
 11
-0.8453598022460938
 21
0.6428499221801758
 72
     1
 10
-0.8453598022460938
 20
0.6428499221801758
 11
-0.8453598022460938
 21
0.4870290756225586
 72
     1
 10
-0.8453598022460938
 20
0.4870290756225586
 11
-0.8855400085449219
 21
0.4870290756225586
 97
        0
 92
        1
 93
        4
 72
     1
 10
-0.7248191833496094
 20
0.4468488693237305
 11
-0.7248191833496094
 21
0.7095327377319336
 72
     1
 10
-0.7248191833496094
 20
0.7095327377319336
 11
-0.7649993896484375
 21
0.7095327377319336
 72
     1
 10
-0.7649993896484375
 20
0.7095327377319336
 11
-0.7649993896484375
 21
0.4468488693237305
 72
     1
 10
-0.7649993896484375
 20
0.4468488693237305
 11
-0.7248191833496094
 21
0.4468488693237305
 97
        0
 92
        1
 93
        4
 72
     1
 10
-0.6444587707519531
 20
0.6693525314331055
 11
-0.6444587707519531
 21
0.7095327377319336
 72
     1
 10
-0.6444587707519531
 20
0.7095327377319336
 11
-0.6846389770507813
 21
0.7095327377319336
 72
     1
 10
-0.6846389770507813
 20
0.7095327377319336
 11
-0.6846389770507813
 21
0.6693525314331055
 72
     1
 10
-0.6846389770507813
 20
0.6693525314331055
 11
-0.6444587707519531
 21
0.6693525314331055
 97
        0
 92
        1
 93
        4
 72
     1
 10
-0.6444587707519531
 20
0.4468488693237305
 11
-0.6444587707519531
 21
0.6428499221801758
 72
     1
 10
-0.6444587707519531
 20
0.6428499221801758
 11
-0.6846389770507813
 21
0.6428499221801758
 72
     1
 10
-0.6846389770507813
 20
0.6428499221801758
 11
-0.6846389770507813
 21
0.4468488693237305
 72
     1
 10
-0.6846389770507813
 20
0.4468488693237305
 11
-0.6444587707519531
 21
0.4468488693237305
 97
        0
 92
        1
 93
        8
 72
     1
 10
-0.4885368347167969
 20
0.6026697158813477
 11
-0.4885368347167969
 21
0.6428499221801758
 72
     1
 10
-0.4885368347167969
 20
0.6428499221801758
 11
-0.604278564453125
 21
0.6428499221801758
 72
     1
 10
-0.604278564453125
 20
0.6428499221801758
 11
-0.604278564453125
 21
0.4468488693237305
 72
     1
 10
-0.604278564453125
 20
0.4468488693237305
 11
-0.4885368347167969
 21
0.4468488693237305
 72
     1
 10
-0.4885368347167969
 20
0.4468488693237305
 11
-0.4885368347167969
 21
0.4870290756225586
 72
     1
 10
-0.4885368347167969
 20
0.4870290756225586
 11
-0.5640983581542969
 21
0.4870290756225586
 72
     1
 10
-0.5640983581542969
 20
0.4870290756225586
 11
-0.5640983581542969
 21
0.6026697158813477
 72
     1
 10
-0.5640983581542969
 20
0.6026697158813477
 11
-0.4885368347167969
 21
0.6026697158813477
 97
        0
 92
        1
 93
        8
 72
     1
 10
-0.9659004211425781
 20
0.4468488693237305
 11
-0.9659004211425781
 21
0.6428499221801758
 72
     1
 10
-0.9659004211425781
 20
0.6428499221801758
 11
-1.06866455078125
 21
0.6428499221801758
 72
     1
 10
-1.06866455078125
 20
0.6428499221801758
 11
-1.06866455078125
 21
0.6026697158813477
 72
     1
 10
-1.06866455078125
 20
0.6026697158813477
 11
-1.0060806274414062
 21
0.6026697158813477
 72
     1
 10
-1.0060806274414062
 20
0.6026697158813477
 11
-1.0060806274414062
 21
0.5673894882202148
 72
     1
 10
-1.0060806274414062
 20
0.5673894882202148
 11
-1.0864410400390625
 21
0.5673894882202148
 72
     1
 10
-1.0864410400390625
 20
0.5673894882202148
 11
-1.0864410400390625
 21
0.4468488693237305
 72
     1
 10
-1.0864410400390625
 20
0.4468488693237305
 11
-0.9659004211425781
 21
0.4468488693237305
 97
        0
 92
        1
 93
        4
 72
     1
 10
-1.0060806274414062
 20
0.4870290756225586
 11
-1.0060806274414062
 21
0.5272092819213867
 72
     1
 10
-1.0060806274414062
 20
0.5272092819213867
 11
-1.0462608337402344
 21
0.5272092819213867
 72
     1
 10
-1.0462608337402344
 20
0.5272092819213867
 11
-1.0462608337402344
 21
0.4870290756225586
 72
     1
 10
-1.0462608337402344
 20
0.4870290756225586
 11
-1.0060806274414062
 21
0.4870290756225586
 97
        0
 75
     0
 76
     1
 98
        1
 10
0.0
 20
0.0
  0
HATCH
  5
130
100
AcDbEntity
  8
0
370
    15
390
0
  6
Continuous
 62
   174
100
AcDbHatch
 10
0.0
 20
0.0
 30
0.0
210
0.0
220
0.0
230
1.0
  2
SOLID
 70
     1
 71
     0
 91
        1
 92
        1
 93
       12
 72
     1
 10
-0.321075439453125
 20
0.6026697158813477
 11
-0.321075439453125
 21
0.6428499221801758
 72
     1
 10
-0.321075439453125
 20
0.6428499221801758
 11
-0.4483566284179688
 21
0.6428499221801758
 72
     1
 10
-0.4483566284179688
 20
0.6428499221801758
 11
-0.4483566284179688
 21
0.5247602462768555
 72
     1
 10
-0.4483566284179688
 20
0.5247602462768555
 11
-0.3612556457519531
 21
0.5247602462768555
 72
     1
 10
-0.3612556457519531
 20
0.5247602462768555
 11
-0.3612556457519531
 21
0.4870290756225586
 72
     1
 10
-0.3612556457519531
 20
0.4870290756225586
 11
-0.4483566284179688
 21
0.4870290756225586
 72
     1
 10
-0.4483566284179688
 20
0.4870290756225586
 11
-0.4483566284179688
 21
0.4468488693237305
 72
     1
 10
-0.4483566284179688
 20
0.4468488693237305
 11
-0.321075439453125
 21
0.4468488693237305
 72
     1
 10
-0.321075439453125
 20
0.4468488693237305
 11
-0.321075439453125
 21
0.5649404525756836
 72
     1
 10
-0.321075439453125
 20
0.5649404525756836
 11
-0.4081764221191406
 21
0.5649404525756836
 72
     1
 10
-0.4081764221191406
 20
0.5649404525756836
 11
-0.4081764221191406
 21
0.6026697158813477
 72
     1
 10
-0.4081764221191406
 20
0.6026697158813477
 11
-0.321075439453125
 21
0.6026697158813477
 97
        0
 75
     0
 76
     1
 98
        1
 10
0.0
 20
0.0
  0
TEXT
  5
131
100
AcDbEntity
  8
0
370
     0
390
0
  6
Continuous
 62
     7
100
AcDbText
 10
-0.35696
 20
0.701753
 30
0.0
 40
0.04606
  1
R
 41
1.125
  7
Vcadd_SIMP
100
AcDbText
  0
TEXT
  5
132
100
AcDbEntity
  8
0
370
     0
390
0
  6
Continuous
 62
     7
100
AcDbText
 10
-0.997707
 20
0.348435
 30
0.0
 40
0.062
  1
CORPORATION
  7
Vcadd_SIMP
100
AcDbText
  0
TEXT
  5
133
100
AcDbEntity
  8
0
370
     0
390
0
  6
Continuous
 62
     7
100
AcDbText
 10
-1.766025
 20
0.256787
 30
0.0
 40
0.062
  1
1500 WEST UNIVERSITY PKWY
  7
Vcadd_SIMP
100
AcDbText
  0
TEXT
  5
134
100
AcDbEntity
  8
0
370
     0
390
0
  6
Continuous
 62
     7
100
AcDbText
 10
-1.766025
 20
0.163787
 30
0.0
 40
0.062
  1
SARASOTA, FLORIDA 34243, USA
  7
Vcadd_SIMP
100
AcDbText
  0
TEXT
  5
135
100
AcDbEntity
  8
0
370
     0
390
0
  6
Continuous
 62
     7
100
AcDbText
 10
-1.766025
 20
0.070787
 30
0.0
 40
0.062
  1
TELEPHONE (941) 355-2983
  7
Vcadd_SIMP
100
AcDbText
  0
ENDBLK
  5
136
100
AcDbEntity
  8
0
390
0
100
AcDbBlockEnd
  0
BLOCK
  5
16C
100
AcDbEntity
  8
0
390
0
100
AcDbBlockBegin
  2
DELTA
 70
     0
 10
0.0
 20
0.0
 30
0.0
  3
DELTA
  1

  0
TEXT
  5
16D
100
AcDbEntity
  8
_2D_DELETED_OBJS
370
     0
390
0
  6
Continuous
 62
     7
100
AcDbText
 10
0.010246
 20
0.0
 30
0.0
 40
0.142
  1
 
  7
Vcadd_SIMP
100
AcDbText
  0
LINE
  5
16E
100
AcDbEntity
  8
_2D_DELETED_OBJS
370
     0
390
0
  6
Continuous
 62
     7
100
AcDbLine
 10
0.0
 20
0.0
 30
0.0
 11
0.07257
 21
0.125694
 31
0.0
  0
LINE
  5
16F
100
AcDbEntity
  8
_2D_DELETED_OBJS
370
     0
390
0
  6
Continuous
 62
     7
100
AcDbLine
 10
0.145139
 20
0.0
 30
0.0
 11
0.07257
 21
0.125694
 31
0.0
  0
LINE
  5
170
100
AcDbEntity
  8
_2D_DELETED_OBJS
370
     0
390
0
  6
Continuous
 62
     7
100
AcDbLine
 10
0.0
 20
0.0
 30
0.0
 11
0.145139
 21
0.0
 31
0.0
  0
ENDBLK
  5
171
100
AcDbEntity
  8
0
390
0
100
AcDbBlockEnd
  0
BLOCK
  5
25A
100
AcDbEntity
  8
0
390
0
100
AcDbBlockBegin
  2
MAU
 70
     0
 10
0.0
 20
0.0
 30
0.0
  3
MAU
  1

  0
LINE
  5
25B
100
AcDbEntity
  8
0
370
     0
390
0
  6
Continuous
 62
     2
100
AcDbLine
 10
0.0
 20
0.0
 30
0.0
 11
-0.024965
 21
-0.169856
 31
0.0
  0
LINE
  5
25C
100
AcDbEntity
  8
0
370
     0
390
0
  6
Continuous
 62
     2
100
AcDbLine
 10
0.0
 20
0.0
 30
0.0
 11
0.022192
 21
-0.169856
 31
0.0
  0
LINE
  5
25D
100
AcDbEntity
  8
0
370
     0
390
0
  6
Continuous
 62
     2
100
AcDbLine
 10
0.022192
 20
-0.169856
 30
0.0
 11
-0.024965
 21
-0.169856
 31
0.0
  0
LINE
  5
25E
100
AcDbEntity
  8
0
370
     0
390
0
  6
Continuous
 62
     7
100
AcDbLine
 10
-0.015773
 20
-0.160825
 30
0.0
 11
0.013481
 21
-0.160825
 31
0.0
  0
LINE
  5
25F
100
AcDbEntity
  8
0
370
     0
390
0
  6
Continuous
 62
     7
100
AcDbLine
 10
0.013481
 20
-0.160825
 30
0.0
 11
-0.000196
 21
-0.036413
 31
0.0
  0
LINE
  5
260
100
AcDbEntity
  8
0
370
     0
390
0
  6
Continuous
 62
     7
100
AcDbLine
 10
-0.015773
 20
-0.160825
 30
0.0
 11
-0.000196
 21
-0.036413
 31
0.0
  0
LINE
  5
261
100
AcDbEntity
  8
0
370
     0
390
0
  6
Continuous
 62
     7
100
AcDbLine
 10
-0.006656
 20
-0.149436
 30
0.0
 11
-0.000576
 21
-0.078031
 31
0.0
  0
LINE
  5
262
100
AcDbEntity
  8
0
370
     0
390
0
  6
Continuous
 62
     7
100
AcDbLine
 10
-0.006656
 20
-0.149436
 30
0.0
 11
0.005122
 21
-0.149436
 31
0.0
  0
LINE
  5
263
100
AcDbEntity
  8
0
370
     0
390
0
  6
Continuous
 62
     7
100
AcDbLine
 10
0.005122
 20
-0.149436
 30
0.0
 11
-0.000576
 21
-0.078031
 31
0.0
  0
LINE
  5
264
100
AcDbEntity
  8
0
370
     0
390
0
  6
Continuous
 62
     7
100
AcDbLine
 10
-0.000957
 20
-0.142427
 30
0.0
 11
-0.000957
 21
-0.119647
 31
0.0
  0
ENDBLK
  5
265
100
AcDbEntity
  8
0
390
0
100
AcDbBlockEnd
  0
BLOCK
  5
269
100
AcDbEntity
  8
0
390
0
100
AcDbBlockBegin
  2
MAL
 70
     0
 10
0.0
 20
0.0
 30
0.0
  3
MAL
  1

  0
LINE
  5
26A
100
AcDbEntity
  8
0
370
     0
390
0
  6
Continuous
 62
     2
100
AcDbLine
 10
0.0
 20
0.0
 30
0.0
 11
0.169856
 21
0.024965
 31
0.0
  0
LINE
  5
26B
100
AcDbEntity
  8
0
370
     0
390
0
  6
Continuous
 62
     2
100
AcDbLine
 10
0.0
 20
0.0
 30
0.0
 11
0.169856
 21
-0.022192
 31
0.0
  0
LINE
  5
26C
100
AcDbEntity
  8
0
370
     0
390
0
  6
Continuous
 62
     2
100
AcDbLine
 10
0.169856
 20
-0.022192
 30
0.0
 11
0.169856
 21
0.024965
 31
0.0
  0
LINE
  5
26D
100
AcDbEntity
  8
0
370
     0
390
0
  6
Continuous
 62
     7
100
AcDbLine
 10
0.160825
 20
0.015773
 30
0.0
 11
0.160825
 21
-0.013481
 31
0.0
  0
LINE
  5
26E
100
AcDbEntity
  8
0
370
     0
390
0
  6
Continuous
 62
     7
100
AcDbLine
 10
0.160825
 20
-0.013481
 30
0.0
 11
0.036413
 21
0.000196
 31
0.0
  0
LINE
  5
26F
100
AcDbEntity
  8
0
370
     0
390
0
  6
Continuous
 62
     7
100
AcDbLine
 10
0.160825
 20
0.015773
 30
0.0
 11
0.036413
 21
0.000196
 31
0.0
  0
LINE
  5
270
100
AcDbEntity
  8
0
370
     0
390
0
  6
Continuous
 62
     7
100
AcDbLine
 10
0.149436
 20
0.006656
 30
0.0
 11
0.078031
 21
0.000576
 31
0.0
  0
LINE
  5
271
100
AcDbEntity
  8
0
370
     0
390
0
  6
Continuous
 62
     7
100
AcDbLine
 10
0.149436
 20
0.006656
 30
0.0
 11
0.149436
 21
-0.005122
 31
0.0
  0
LINE
  5
272
100
AcDbEntity
  8
0
370
     0
390
0
  6
Continuous
 62
     7
100
AcDbLine
 10
0.149436
 20
-0.005122
 30
0.0
 11
0.078031
 21
0.000576
 31
0.0
  0
LINE
  5
273
100
AcDbEntity
  8
0
370
     0
390
0
  6
Continuous
 62
     7
100
AcDbLine
 10
0.142427
 20
0.000957
 30
0.0
 11
0.119647
 21
0.000957
 31
0.0
  0
ENDBLK
  5
274
100
AcDbEntity
  8
0
390
0
100
AcDbBlockEnd
  0
BLOCK
  5
2BA
100
AcDbEntity
  8
0
390
0
100
AcDbBlockBegin
  2
ARROW
 70
     0
 10
0.0
 20
0.0
 30
0.0
  3
ARROW
  1

  0
LINE
  5
2BB
100
AcDbEntity
  8
128-001_REF_GEOMETRY
370
     0
390
0
  6
Continuous
 62
     7
100
AcDbLine
 10
0.0
 20
0.0
 30
0.0
 11
-0.160849
 21
-0.035462
 31
0.0
  0
LINE
  5
2BC
100
AcDbEntity
  8
128-001_REF_GEOMETRY
370
     0
390
0
  6
Continuous
 62
     7
100
AcDbLine
 10
0.0
 20
0.0
 30
0.0
 11
-0.160849
 21
0.031523
 31
0.0
  0
LINE
  5
2BD
100
AcDbEntity
  8
128-001_REF_GEOMETRY
370
     0
390
0
  6
Continuous
 62
     7
100
AcDbLine
 10
-0.160849
 20
0.031523
 30
0.0
 11
-0.160849
 21
-0.035462
 31
0.0
  0
LINE
  5
2BE
100
AcDbEntity
  8
128-001_REF_GEOMETRY
370
     0
390
0
  6
Continuous
 62
     7
100
AcDbLine
 10
-0.152297
 20
-0.022405
 30
0.0
 11
-0.152297
 21
0.019149
 31
0.0
  0
LINE
  5
2BF
100
AcDbEntity
  8
128-001_REF_GEOMETRY
370
     0
390
0
  6
Continuous
 62
     7
100
AcDbLine
 10
-0.152297
 20
0.019149
 30
0.0
 11
-0.034483
 21
-0.000279
 31
0.0
  0
LINE
  5
2C0
100
AcDbEntity
  8
128-001_REF_GEOMETRY
370
     0
390
0
  6
Continuous
 62
     7
100
AcDbLine
 10
-0.152297
 20
-0.022405
 30
0.0
 11
-0.034483
 21
-0.000279
 31
0.0
  0
LINE
  5
2C1
100
AcDbEntity
  8
128-001_REF_GEOMETRY
370
     0
390
0
  6
Continuous
 62
     7
100
AcDbLine
 10
-0.141511
 20
-0.009454
 30
0.0
 11
-0.073892
 21
-0.000819
 31
0.0
  0
LINE
  5
2C2
100
AcDbEntity
  8
128-001_REF_GEOMETRY
370
     0
390
0
  6
Continuous
 62
     7
100
AcDbLine
 10
-0.141511
 20
-0.009454
 30
0.0
 11
-0.141511
 21
0.007276
 31
0.0
  0
LINE
  5
2C3
100
AcDbEntity
  8
128-001_REF_GEOMETRY
370
     0
390
0
  6
Continuous
 62
     7
100
AcDbLine
 10
-0.141511
 20
0.007276
 30
0.0
 11
-0.073892
 21
-0.000819
 31
0.0
  0
LINE
  5
2C4
100
AcDbEntity
  8
128-001_REF_GEOMETRY
370
     0
390
0
  6
Continuous
 62
     7
100
AcDbLine
 10
-0.134873
 20
-0.001359
 30
0.0
 11
-0.113301
 21
-0.001359
 31
0.0
  0
LINE
  5
2C5
100
AcDbEntity
  8
128-001_REF_GEOMETRY
370
     0
390
0
  6
Continuous
 62
     7
100
AcDbLine
 10
-0.020023
 20
-0.00005
 30
0.0
 11
-0.155781
 21
-0.02998
 31
0.0
  0
LINE
  5
2C6
100
AcDbEntity
  8
128-001_REF_GEOMETRY
370
     0
390
0
  6
Continuous
 62
     7
100
AcDbLine
 10
-0.020023
 20
-0.00005
 30
0.0
 11
-0.155781
 21
0.026556
 31
0.0
  0
LINE
  5
2C7
100
AcDbEntity
  8
128-001_REF_GEOMETRY
370
     0
390
0
  6
Continuous
 62
     7
100
AcDbLine
 10
-0.155781
 20
0.026556
 30
0.0
 11
-0.155781
 21
-0.02998
 31
0.0
  0
LINE
  5
2C8
100
AcDbEntity
  8
128-001_REF_GEOMETRY
370
     0
390
0
  6
Continuous
 62
     7
100
AcDbLine
 10
-0.148562
 20
-0.018961
 30
0.0
 11
-0.148562
 21
0.016112
 31
0.0
  0
LINE
  5
2C9
100
AcDbEntity
  8
128-001_REF_GEOMETRY
370
     0
390
0
  6
Continuous
 62
     7
100
AcDbLine
 10
-0.148562
 20
0.016112
 30
0.0
 11
-0.049126
 21
-0.000286
 31
0.0
  0
LINE
  5
2CA
100
AcDbEntity
  8
128-001_REF_GEOMETRY
370
     0
390
0
  6
Continuous
 62
     7
100
AcDbLine
 10
-0.148562
 20
-0.018961
 30
0.0
 11
-0.049126
 21
-0.000286
 31
0.0
  0
LINE
  5
2CB
100
AcDbEntity
  8
128-001_REF_GEOMETRY
370
     0
390
0
  6
Continuous
 62
     7
100
AcDbLine
 10
-0.139458
 20
-0.008029
 30
0.0
 11
-0.082388
 21
-0.000741
 31
0.0
  0
LINE
  5
2CC
100
AcDbEntity
  8
128-001_REF_GEOMETRY
370
     0
390
0
  6
Continuous
 62
     7
100
AcDbLine
 10
-0.139458
 20
-0.008029
 30
0.0
 11
-0.139458
 21
0.00609
 31
0.0
  0
LINE
  5
2CD
100
AcDbEntity
  8
128-001_REF_GEOMETRY
370
     0
390
0
  6
Continuous
 62
     7
100
AcDbLine
 10
-0.139458
 20
0.00609
 30
0.0
 11
-0.082388
 21
-0.000741
 31
0.0
  0
LINE
  5
2CE
100
AcDbEntity
  8
128-001_REF_GEOMETRY
370
     0
390
0
  6
Continuous
 62
     7
100
AcDbLine
 10
-0.133857
 20
-0.001197
 30
0.0
 11
-0.115651
 21
-0.001197
 31
0.0
  0
LINE
  5
2CF
100
AcDbEntity
  8
128-001_REF_GEOMETRY
370
     0
390
0
  6
Continuous
 62
     7
100
AcDbLine
 10
-0.143911
 20
0.011529
 30
0.0
 11
-0.061856
 21
-0.000685
 31
0.0
  0
LINE
  5
2D0
100
AcDbEntity
  8
128-001_REF_GEOMETRY
370
     0
390
0
  6
Continuous
 62
     7
100
AcDbLine
 10
-0.061856
 20
-0.000685
 30
0.0
 11
-0.1453
 21
-0.01407
 31
0.0
  0
LINE
  5
2D1
100
AcDbEntity
  8
128-001_REF_GEOMETRY
370
     0
390
0
  6
Continuous
 62
     7
100
AcDbLine
 10
-0.1453
 20
-0.01407
 30
0.0
 11
-0.143911
 21
0.011529
 31
0.0
  0
LINE
  5
2D2
100
AcDbEntity
  8
128-001_REF_GEOMETRY
370
     0
390
0
  6
Continuous
 62
     7
100
AcDbLine
 10
-0.153279
 20
0.023242
 30
0.0
 11
-0.059774
 21
0.006175
 31
0.0
  0
LINE
  5
2D3
100
AcDbEntity
  8
128-001_REF_GEOMETRY
370
     0
390
0
  6
Continuous
 62
     7
100
AcDbLine
 10
-0.152411
 20
-0.025782
 30
0.0
 11
-0.059601
 21
-0.006876
 31
0.0
  0
LINE
  5
2D4
100
AcDbEntity
  8
128-001_REF_GEOMETRY
370
     0
390
0
  6
Continuous
 62
     7
100
AcDbLine
 10
-0.136799
 20
0.002661
 30
0.0
 11
-0.099502
 21
-0.000685
 31
0.0
  0
LINE
  5
2D5
100
AcDbEntity
  8
128-001_REF_GEOMETRY
370
     0
390
0
  6
Continuous
 62
     7
100
AcDbLine
 10
-0.099502
 20
-0.000685
 30
0.0
 11
-0.13732
 21
-0.005202
 31
0.0
  0
LINE
  5
2D6
100
AcDbEntity
  8
128-001_REF_GEOMETRY
370
     0
390
0
  6
Continuous
 62
     7
100
AcDbLine
 10
-0.13732
 20
-0.005202
 30
0.0
 11
-0.136799
 21
0.002661
 31
0.0
  0
ENDBLK
  5
2D7
100
AcDbEntity
  8
0
390
0
100
AcDbBlockEnd
  0
BLOCK
  5
533
100
AcDbEntity
  8
0
390
0
100
AcDbBlockBegin
  2
STAR
 70
     0
 10
0.0
 20
0.0
 30
0.0
  3
STAR
  1

  0
LINE
  5
534
100
AcDbEntity
  8
DEFAULT_3
370
     0
390
0
  6
Continuous
 62
     7
100
AcDbLine
 10
-0.051824
 20
0.067483
 30
0.0
 11
-0.003074
 21
0.172028
 31
0.0
  0
LINE
  5
535
100
AcDbEntity
  8
DEFAULT_3
370
     0
390
0
  6
Continuous
 62
     7
100
AcDbLine
 10
0.045675
 20
0.067483
 30
0.0
 11
-0.003074
 21
0.172028
 31
0.0
  0
LINE
  5
536
100
AcDbEntity
  8
DEFAULT_3
370
     0
390
0
  6
Continuous
 62
     7
100
AcDbLine
 10
0.045675
 20
0.067483
 30
0.0
 11
0.160171
 21
0.053424
 31
0.0
  0
LINE
  5
537
100
AcDbEntity
  8
DEFAULT_3
370
     0
390
0
  6
Continuous
 62
     7
100
AcDbLine
 10
0.075806
 20
-0.025247
 30
0.0
 11
0.097816
 21
-0.138481
 31
0.0
  0
LINE
  5
538
100
AcDbEntity
  8
DEFAULT_3
370
     0
390
0
  6
Continuous
 62
     7
100
AcDbLine
 10
0.075806
 20
-0.025247
 30
0.0
 11
0.160171
 21
0.053424
 31
0.0
  0
LINE
  5
539
100
AcDbEntity
  8
DEFAULT_3
370
     0
390
0
  6
Continuous
 62
     7
100
AcDbLine
 10
-0.003074
 20
-0.082557
 30
0.0
 11
0.097816
 21
-0.138481
 31
0.0
  0
LINE
  5
53A
100
AcDbEntity
  8
DEFAULT_3
370
     0
390
0
  6
Continuous
 62
     7
100
AcDbLine
 10
-0.003074
 20
-0.082556
 30
0.0
 11
-0.103965
 21
-0.138481
 31
0.0
  0
LINE
  5
53B
100
AcDbEntity
  8
DEFAULT_3
370
     0
390
0
  6
Continuous
 62
     7
100
AcDbLine
 10
-0.081954
 20
-0.025246
 30
0.0
 11
-0.166319
 21
0.053424
 31
0.0
  0
LINE
  5
53C
100
AcDbEntity
  8
DEFAULT_3
370
     0
390
0
  6
Continuous
 62
     7
100
AcDbLine
 10
-0.051824
 20
0.067482
 30
0.0
 11
-0.166319
 21
0.053424
 31
0.0
  0
LINE
  5
53D
100
AcDbEntity
  8
DEFAULT_3
370
     0
390
0
  6
Continuous
 62
     7
100
AcDbLine
 10
-0.081954
 20
-0.025247
 30
0.0
 11
-0.103965
 21
-0.138481
 31
0.0
  0
ENDBLK
  5
53E
100
AcDbEntity
  8
0
390
0
100
AcDbBlockEnd
  0
ENDSEC
  0
SECTION
  2
ENTITIES
  0
VIEWPORT
  5
79
100
AcDbEntity
 67
     1
  8
0
390
0
  6
Continuous
 62
     0
100
AcDbViewport
 10
4.5
 20
3.259162
 30
0.0
 40
12.857143
 41
9.311892
 68
     1
 69
     1
 12
762.9316
 22
546.5183
 13
1169.457242
 23
377.488
 14
0.5
 24
0.5
 15
12.0
 25
12.0
 16
0.0
 26
0.0
 36
1.0
 17
0.0
 27
0.0
 37
0.0
 42
50.0
 43
-55.0
 44
-55.0
 45
1084.5
 50
0.0
 51
0.0
 72
   500
 90
        0
340
0
  1

281
     0
 71
     1
 74
     0
110
0.0
120
0.0
130
0.0
111
1.0
121
0.0
131
0.0
112
0.0
122
1.0
132
0.0
345
0
346
0
 79
     0
146
0.0
  0
LINE
  5
7A
100
AcDbEntity
  8
0
370
    15
390
0
  6
Continuous
 62
     2
100
AcDbLine
 10
16.381625
 20
-0.490068
 30
0.0
 11
16.381625
 21
10.134933
 31
0.0
  0
LINE
  5
7B
100
AcDbEntity
  8
0
370
    15
390
0
  6
Continuous
 62
     2
100
AcDbLine
 10
16.381625
 20
10.134933
 30
0.0
 11
15.006625
 21
10.134933
 31
0.0
  0
LINE
  5
7C
100
AcDbEntity
  8
0
370
     0
390
0
  6
Continuous
 62
     7
100
AcDbLine
 10
16.381625
 20
-0.490068
 30
0.0
 11
16.381625
 21
-0.490068
 31
0.0
  0
LINE
  5
7D
100
AcDbEntity
  8
0
370
     0
390
0
  6
Continuous
 62
     7
100
AcDbLine
 10
16.381625
 20
2.259932
 30
0.0
 11
15.006625
 21
2.259932
 31
0.0
  0
LINE
  5
7E
100
AcDbEntity
  8
0
370
     0
390
0
  6
Continuous
 62
     7
100
AcDbLine
 10
16.381625
 20
5.259932
 30
0.0
 11
15.006625
 21
5.259932
 31
0.0
  0
LINE
  5
7F
100
AcDbEntity
  8
0
370
     0
390
0
  6
Continuous
 62
     7
100
AcDbLine
 10
16.381625
 20
6.259932
 30
0.0
 11
15.006625
 21
6.259932
 31
0.0
  0
LINE
  5
80
100
AcDbEntity
  8
0
370
     0
390
0
  6
Continuous
 62
     7
100
AcDbLine
 10
16.381625
 20
6.509932
 30
0.0
 11
15.006625
 21
6.509932
 31
0.0
  0
LINE
  5
81
100
AcDbEntity
  8
0
370
     0
390
0
  6
Continuous
 62
     7
100
AcDbLine
 10
16.381625
 20
6.759932
 30
0.0
 11
15.006625
 21
6.759932
 31
0.0
  0
LINE
  5
82
100
AcDbEntity
  8
0
370
     0
390
0
  6
Continuous
 62
     7
100
AcDbLine
 10
16.381625
 20
7.009932
 30
0.0
 11
15.006625
 21
7.009932
 31
0.0
  0
LINE
  5
83
100
AcDbEntity
  8
0
370
     0
390
0
  6
Continuous
 62
     7
100
AcDbLine
 10
16.381625
 20
7.509932
 30
0.0
 11
15.006625
 21
7.509932
 31
0.0
  0
LINE
  5
84
100
AcDbEntity
  8
0
370
     0
390
0
  6
Continuous
 62
     7
100
AcDbLine
 10
16.381625
 20
9.884933
 30
0.0
 11
15.006625
 21
9.884933
 31
0.0
  0
LINE
  5
85
100
AcDbEntity
  8
0
370
     0
390
0
  6
Continuous
 62
     7
100
AcDbLine
 10
15.162625
 20
10.134933
 30
0.0
 11
15.162625
 21
6.259932
 31
0.0
  0
LINE
  5
86
100
AcDbEntity
  8
0
370
     0
390
0
  6
Continuous
 62
     7
100
AcDbLine
 10
16.254624
 20
9.884933
 30
0.0
 11
16.254624
 21
7.509932
 31
0.0
  0
LINE
  5
87
100
AcDbEntity
  8
0
370
     0
390
0
  6
Continuous
 62
     7
100
AcDbLine
 10
16.098626
 20
9.884933
 30
0.0
 11
16.098626
 21
7.509932
 31
0.0
  0
LINE
  5
88
100
AcDbEntity
  8
0
370
     0
390
0
  6
Continuous
 62
     7
100
AcDbLine
 10
16.006625
 20
5.259932
 30
0.0
 11
16.006625
 21
6.259932
 31
0.0
  0
LINE
  5
89
100
AcDbEntity
  8
0
370
    15
390
0
  6
Continuous
 62
     7
100
AcDbLine
 10
15.319959
 20
5.449155
 30
0.0
 11
15.325784
 21
5.438581
 31
0.0
  0
LINE
  5
8A
100
AcDbEntity
  8
0
370
    15
390
0
  6
Continuous
 62
     7
100
AcDbLine
 10
15.325784
 20
5.438581
 30
0.0
 11
15.28436
 21
5.405619
 31
0.0
  0
LINE
  5
8B
100
AcDbEntity
  8
0
370
    15
390
0
  6
Continuous
 62
     7
100
AcDbLine
 10
15.28436
 20
5.405619
 30
0.0
 11
15.345204
 21
5.339695
 31
0.0
  0
LINE
  5
8C
100
AcDbEntity
  8
0
370
     0
390
0
  6
Continuous
 62
     7
100
AcDbLine
 10
15.395265
 20
5.476227
 30
0.0
 11
15.395265
 21
5.423652
 31
0.0
  0
LINE
  5
8D
100
AcDbEntity
  8
0
370
     0
390
0
  6
Continuous
 62
     7
100
AcDbLine
 10
15.43044
 20
5.476227
 30
0.0
 11
15.43044
 21
5.423652
 31
0.0
  0
LINE
  5
8E
100
AcDbEntity
  8
0
370
     0
390
0
  6
Continuous
 62
     7
100
AcDbLine
 10
15.446072
 20
5.449939
 30
0.0
 11
15.414807
 21
5.449939
 31
0.0
  0
LINE
  5
8F
100
AcDbEntity
  8
0
370
     0
390
0
  6
Continuous
 62
     7
100
AcDbLine
 10
15.461707
 20
5.329768
 30
0.0
 11
15.395265
 21
5.374833
 31
0.0
  0
LINE
  5
90
100
AcDbEntity
  8
0
370
     0
390
0
  6
Continuous
 62
     7
100
AcDbLine
 10
15.542542
 20
5.750768
 30
0.0
 11
15.542542
 21
5.6934
 31
0.0
  0
LINE
  5
91
100
AcDbEntity
  8
0
370
     0
390
0
  6
Continuous
 62
     7
100
AcDbLine
 10
15.578774
 20
5.750768
 30
0.0
 11
15.578774
 21
5.6934
 31
0.0
  0
LINE
  5
92
100
AcDbEntity
  8
0
370
     0
390
0
  6
Continuous
 62
     7
100
AcDbLine
 10
15.59488
 20
5.722083
 30
0.0
 11
15.562673
 21
5.722083
 31
0.0
  0
LINE
  5
93
100
AcDbEntity
  8
0
370
     0
390
0
  6
Continuous
 62
     7
100
AcDbLine
 10
15.655267
 20
5.750768
 30
0.0
 11
15.655267
 21
5.6934
 31
0.0
  0
LINE
  5
94
100
AcDbEntity
  8
0
370
     0
390
0
  6
Continuous
 62
     7
100
AcDbLine
 10
15.691499
 20
5.750768
 30
0.0
 11
15.691499
 21
5.6934
 31
0.0
  0
LINE
  5
95
100
AcDbEntity
  8
0
370
     0
390
0
  6
Continuous
 62
     7
100
AcDbLine
 10
15.707602
 20
5.722083
 30
0.0
 11
15.675397
 21
5.722083
 31
0.0
  0
LINE
  5
96
100
AcDbEntity
  8
0
370
     0
390
0
  6
Continuous
 62
     7
100
AcDbLine
 10
15.767991
 20
5.750768
 30
0.0
 11
15.767991
 21
5.6934
 31
0.0
  0
LINE
  5
97
100
AcDbEntity
  8
0
370
     0
390
0
  6
Continuous
 62
     7
100
AcDbLine
 10
15.804223
 20
5.750768
 30
0.0
 11
15.804223
 21
5.6934
 31
0.0
  0
LINE
  5
98
100
AcDbEntity
  8
0
370
     0
390
0
  6
Continuous
 62
     7
100
AcDbLine
 10
15.820327
 20
5.722083
 30
0.0
 11
15.788121
 21
5.722083
 31
0.0
  0
LINE
  5
99
100
AcDbEntity
  8
0
370
     0
390
0
  6
Continuous
 62
     7
100
AcDbLine
 10
15.287625
 20
5.259932
 30
0.0
 11
15.287625
 21
3.634932
 31
0.0
  0
LINE
  5
9A
100
AcDbEntity
  8
0
370
     0
390
0
  6
Continuous
 62
     7
100
AcDbLine
 10
15.568625
 20
5.259932
 30
0.0
 11
15.568625
 21
3.634932
 31
0.0
  0
LINE
  5
9B
100
AcDbEntity
  8
0
370
     0
390
0
  6
Continuous
 62
     7
100
AcDbLine
 10
15.568625
 20
3.634932
 30
0.0
 11
15.568625
 21
2.259932
 31
0.0
  0
LINE
  5
9C
100
AcDbEntity
  8
0
370
     0
390
0
  6
Continuous
 62
     7
100
AcDbLine
 10
15.943625
 20
5.259932
 30
0.0
 11
15.943625
 21
2.259932
 31
0.0
  0
LINE
  5
9D
100
AcDbEntity
  8
0
370
     0
390
0
  6
Continuous
 62
     7
100
AcDbLine
 10
15.568625
 20
3.634931
 30
0.0
 11
15.006625
 21
3.634932
 31
0.0
  0
LINE
  5
9E
100
AcDbEntity
  8
0
370
     0
390
0
  6
Continuous
 62
     7
100
AcDbLine
 10
15.568625
 20
3.634931
 30
0.0
 11
15.943625
 21
3.634931
 31
0.0
  0
LINE
  5
9F
100
AcDbEntity
  8
0
370
     0
390
0
  6
Continuous
 62
     7
100
AcDbLine
 10
15.943625
 20
4.884932
 30
0.0
 11
15.568625
 21
4.884932
 31
0.0
  0
LINE
  5
A0
100
AcDbEntity
  8
0
370
     0
390
0
  6
Continuous
 62
     7
100
AcDbLine
 10
15.006625
 20
4.717933
 30
0.0
 11
15.287625
 21
4.717933
 31
0.0
  0
LINE
  5
A1
100
AcDbEntity
  8
0
370
     0
390
0
  6
Continuous
 62
     7
100
AcDbLine
 10
15.006625
 20
4.175933
 30
0.0
 11
15.287625
 21
4.175933
 31
0.0
  0
LINE
  5
A2
100
AcDbEntity
  8
0
370
     0
390
0
  6
Continuous
 62
     7
100
AcDbLine
 10
15.287625
 20
4.175933
 30
0.0
 11
15.568625
 21
4.175933
 31
0.0
  0
LINE
  5
A3
100
AcDbEntity
  8
0
370
     0
390
0
  6
Continuous
 62
     7
100
AcDbLine
 10
15.287625
 20
4.717933
 30
0.0
 11
15.568625
 21
4.717933
 31
0.0
  0
LINE
  5
A4
100
AcDbEntity
  8
0
370
     0
390
0
  6
Continuous
 62
     7
100
AcDbLine
 10
15.943625
 20
2.259932
 30
0.0
 11
15.943625
 21
-0.490068
 31
0.0
  0
LINE
  5
A5
100
AcDbEntity
  8
0
370
     0
390
0
  6
Continuous
 62
     7
100
AcDbLine
 10
16.381625
 20
1.697932
 30
0.0
 11
15.943625
 21
1.697932
 31
0.0
  0
LINE
  5
A6
100
AcDbEntity
  8
0
370
     0
390
0
  6
Continuous
 62
     7
100
AcDbLine
 10
24.636788
 20
2.259932
 30
0.0
 11
24.636788
 21
-0.490068
 31
0.0
  0
LINE
  5
A7
100
AcDbEntity
  8
0
370
     0
390
0
  6
Continuous
 62
     7
100
AcDbLine
 10
24.636788
 20
1.697932
 30
0.0
 11
25.008977
 21
1.697932
 31
0.0
  0
LINE
  5
A8
100
AcDbEntity
  8
0
370
     0
390
0
  6
Continuous
 62
     7
100
AcDbLine
 10
24.636788
 20
2.259932
 30
0.0
 11
25.011788
 21
2.259932
 31
0.0
  0
LINE
  5
A9
100
AcDbEntity
  8
0
370
     0
390
0
  6
Continuous
 62
     7
100
AcDbLine
 10
15.304295
 20
3.126131
 30
0.0
 11
15.180566
 21
2.83863
 31
0.0
  0
ARC
  5
AA
100
AcDbEntity
  8
0
370
     0
390
0
  6
Continuous
 62
     7
100
AcDbCircle
 10
15.480788
 20
2.709426
 30
0.0
 40
0.326842
100
AcDbArc
 50
156.690317
 51
236.832422
  0
ARC
  5
AB
100
AcDbEntity
  8
0
370
     0
390
0
  6
Continuous
 62
     7
100
AcDbCircle
 10
14.995391
 20
3.228733
 30
0.0
 40
0.325497
100
AcDbArc
 50
341.621816
 51
418.31416
  0
LINE
  5
AC
100
AcDbEntity
  8
0
370
     0
390
0
  6
Continuous
 62
     7
100
AcDbLine
 10
15.301551
 20
2.998628
 30
0.0
 11
15.206859
 21
3.048007
 31
0.0
  0
LINE
  5
AD
100
AcDbEntity
  8
0
370
     0
390
0
  6
Continuous
 62
     7
100
AcDbLine
 10
15.27414
 20
2.939764
 30
0.0
 11
15.18303
 21
2.991128
 31
0.0
  0
LINE
  5
AE
100
AcDbEntity
  8
0
370
     0
390
0
  6
Continuous
 62
     6
100
AcDbLine
 10
15.006625
 20
15.513638
 30
0.0
 11
15.006625
 21
-0.490068
 31
0.0
  0
LINE
  5
AF
100
AcDbEntity
  8
0
370
     0
390
0
  6
Continuous
 62
     6
100
AcDbLine
 10
15.006625
 20
-0.490068
 30
0.0
 11
25.011788
 21
-0.490068
 31
0.0
  0
LINE
  5
B0
100
AcDbEntity
  8
0
370
     0
390
0
  6
Continuous
 62
     6
100
AcDbLine
 10
25.011788
 20
-0.490068
 30
0.0
 11
25.011788
 21
15.513638
 31
0.0
  0
LINE
  5
B1
100
AcDbEntity
  8
0
370
     0
390
0
  6
Continuous
 62
     6
100
AcDbLine
 10
25.011788
 20
15.513638
 30
0.0
 11
15.006625
 21
15.513638
 31
0.0
  0
LINE
  5
B2
100
AcDbEntity
  8
0
370
     0
390
0
  6
Continuous
 62
     7
100
AcDbLine
 10
15.474625
 20
7.509932
 30
0.0
 11
15.474625
 21
9.884933
 31
0.0
  0
INSERT
  5
137
100
AcDbEntity
  8
DEFAULT_1
370
     0
390
0
  6
Continuous
 62
     7
100
AcDbBlockReference
  2
LOGOFIX
 10
15.006625
 20
-0.490068
 30
0.0
 42
1.0
 50
270.0
  0
TEXT
  5
138
100
AcDbEntity
  8
0
370
     0
390
0
  6
Continuous
 62
     7
100
AcDbText
 10
15.05288
 20
10.098755
 30
0.0
 40
0.065844
  1
LET
 50
270.0
  7
Vcadd_SIMP
100
AcDbText
  0
TEXT
  5
139
100
AcDbEntity
  8
0
370
     0
390
0
  6
Continuous
 62
     7
100
AcDbText
 10
15.052903
 20
8.991472
 30
0.0
 40
0.065844
  1
REVISION 
 50
270.0
  7
Vcadd_SIMP
100
AcDbText
  0
TEXT
  5
13A
100
AcDbEntity
  8
0
370
     0
390
0
  6
Continuous
 62
     7
100
AcDbText
 10
15.050874
 20
7.390305
 30
0.0
 40
0.065844
  1
DATE 
 50
270.0
  7
Vcadd_SIMP
100
AcDbText
  0
TEXT
  5
13B
100
AcDbEntity
  8
0
370
     0
390
0
  6
Continuous
 62
     7
100
AcDbText
 10
15.05104
 20
6.976283
 30
0.0
 40
0.065844
  1
DRN 
 50
270.0
  7
Vcadd_SIMP
100
AcDbText
  0
TEXT
  5
13C
100
AcDbEntity
  8
0
370
     0
390
0
  6
Continuous
 62
     7
100
AcDbText
 10
15.05071
 20
6.728811
 30
0.0
 40
0.065844
  1
CHK 
 50
270.0
  7
Vcadd_SIMP
100
AcDbText
  0
TEXT
  5
13D
100
AcDbEntity
  8
0
370
     0
390
0
  6
Continuous
 62
     7
100
AcDbText
 10
15.05104
 20
6.479784
 30
0.0
 40
0.065844
  1
REL
 50
270.0
  7
Vcadd_SIMP
100
AcDbText
  0
TEXT
  5
13E
100
AcDbEntity
  8
0
370
     0
390
0
  6
Continuous
 62
     7
100
AcDbText
 10
16.274983
 20
5.942807
 30
0.0
 40
0.062
  1
UNLESS
 50
270.0
  7
Vcadd_SIMP
100
AcDbText
  0
TEXT
  5
13F
100
AcDbEntity
  8
0
370
     0
390
0
  6
Continuous
 62
     7
100
AcDbText
 10
16.171227
 20
6.033233
 30
0.0
 40
0.062
  1
OTHERWISE
 50
270.0
  7
Vcadd_SIMP
100
AcDbText
  0
TEXT
  5
140
100
AcDbEntity
  8
0
370
     0
390
0
  6
Continuous
 62
     7
100
AcDbText
 10
16.059167
 20
6.03108
 30
0.0
 40
0.062
  1
SPECIFIED
 50
270.0
  7
Vcadd_SIMP
100
AcDbText
  0
TEXT
  5
141
100
AcDbEntity
  8
0
370
     0
390
0
  6
Continuous
 62
     7
100
AcDbText
 10
15.906979
 20
6.212438
 30
0.0
 40
0.062
  1
DIMENSION TOL
 50
270.0
 41
1.1725
  7
Vcadd_SIMP
100
AcDbText
  0
TEXT
  5
142
100
AcDbEntity
  8
0
370
     0
390
0
  6
Continuous
 62
     7
100
AcDbText
 10
15.767991
 20
6.196278
 30
0.0
 40
0.065844
  1
.
 50
270.0
 41
1.324153
  7
Vcadd_SIMP
100
AcDbText
  0
TEXT
  5
143
100
AcDbEntity
  8
0
370
     0
390
0
  6
Continuous
 62
     7
100
AcDbText
 10
15.65169
 20
6.109091
 30
0.0
 40
0.065844
  1
xx
 50
270.0
 41
1.324153
  7
Vcadd_SIMP
100
AcDbText
  0
TEXT
  5
144
100
AcDbEntity
  8
0
370
     0
390
0
  6
Continuous
 62
     7
100
AcDbText
 10
15.541205
 20
6.109091
 30
0.0
 40
0.065844
  1
xxx
 50
270.0
 41
1.324153
  7
Vcadd_SIMP
100
AcDbText
  0
TEXT
  5
145
100
AcDbEntity
  8
0
370
     0
390
0
  6
Continuous
 62
     7
100
AcDbText
 10
15.394795
 20
6.191229
 30
0.0
 40
0.062
  1
ANGLE TOL
 50
270.0
 41
1.25
  7
Vcadd_SIMP
100
AcDbText
  0
TEXT
  5
146
100
AcDbEntity
  8
0
370
     0
390
0
  6
Continuous
 62
     7
100
AcDbText
 10
15.283179
 20
6.158447
 30
0.0
 40
0.062
  1
FINISH
 50
270.0
 41
1.25
  7
Vcadd_SIMP
100
AcDbText
  0
TEXT
  5
147
100
AcDbEntity
  8
0
370
     0
390
0
  6
Continuous
 62
     7
100
AcDbText
 10
15.283179
 20
5.615945
 30
0.0
 40
0.062
  1
8O
 50
270.0
 41
1.25
  7
Vcadd_SIMP
100
AcDbText
  0
TEXT
  5
148
100
AcDbEntity
  8
0
370
     0
390
0
  6
Continuous
 62
     7
100
AcDbText
 10
15.175351
 20
6.118379
 30
0.0
 40
0.062
  1
REMOVE ALL
 50
270.0
 41
1.25
  7
Vcadd_SIMP
100
AcDbText
  0
TEXT
  5
149
100
AcDbEntity
  8
0
370
     0
390
0
  6
Continuous
 62
     7
100
AcDbText
 10
15.070905
 20
5.954471
 30
0.0
 40
0.062
  1
BURRS
 50
270.0
 41
1.25
  7
Vcadd_SIMP
100
AcDbText
  0
TEXT
  5
14A
100
AcDbEntity
  8
0
370
     0
390
0
  6
Continuous
 62
     7
100
AcDbText
 10
15.767991
 20
6.109091
 30
0.0
 40
0.065844
  1
x
 50
270.0
 41
1.324153
  7
Vcadd_SIMP
100
AcDbText
  0
TEXT
  5
14B
100
AcDbEntity
  8
0
370
     0
390
0
  6
Continuous
 62
     7
100
AcDbText
 10
15.65169
 20
5.847527
 30
0.0
 40
0.065844
  1
=
 50
270.0
 41
1.324153
  7
Vcadd_SIMP
100
AcDbText
  0
TEXT
  5
14C
100
AcDbEntity
  8
0
370
     0
390
0
  6
Continuous
 62
     7
100
AcDbText
 10
15.541205
 20
5.847527
 30
0.0
 40
0.065844
  1
=
 50
270.0
 41
1.324153
  7
Vcadd_SIMP
100
AcDbText
  0
TEXT
  5
14D
100
AcDbEntity
  8
0
370
     0
390
0
  6
Continuous
 62
     7
100
AcDbText
 10
15.65169
 20
5.498775
 30
0.0
 40
0.065844
  1
.
 50
270.0
 41
1.324153
  7
Vcadd_SIMP
100
AcDbText
  0
TEXT
  5
14E
100
AcDbEntity
  8
0
370
     0
390
0
  6
Continuous
 62
     7
100
AcDbText
 10
15.541205
 20
5.673152
 30
0.0
 40
0.065844
  1
.OO5
 50
270.0
 41
1.324153
  7
Vcadd_SIMP
100
AcDbText
  0
TEXT
  5
14F
100
AcDbEntity
  8
0
370
     0
390
0
  6
Continuous
 62
     7
100
AcDbText
 10
15.43044
 20
5.386098
 30
0.0
 40
0.031961
  1
1 
 50
270.0
 41
1.25
  7
Vcadd_SIMP
100
AcDbText
  0
TEXT
  5
150
100
AcDbEntity
  8
0
370
     0
390
0
  6
Continuous
 62
     7
100
AcDbText
 10
15.390489
 20
5.346146
 30
0.0
 40
0.031961
  1
2
 50
270.0
 41
1.25
  7
Vcadd_SIMP
100
AcDbText
  0
TEXT
  5
151
100
AcDbEntity
  8
0
370
     0
390
0
  6
Continuous
 62
     7
100
AcDbText
 10
15.65169
 20
6.196278
 30
0.0
 40
0.065844
  1
.
 50
270.0
 41
1.324153
  7
Vcadd_SIMP
100
AcDbText
  0
TEXT
  5
152
100
AcDbEntity
  8
0
370
     0
390
0
  6
Continuous
 62
     7
100
AcDbText
 10
15.541205
 20
6.196278
 30
0.0
 40
0.065844
  1
.
 50
270.0
 41
1.324153
  7
Vcadd_SIMP
100
AcDbText
  0
TEXT
  5
153
100
AcDbEntity
  8
0
370
     0
390
0
  6
Continuous
 62
     7
100
AcDbText
 10
15.65169
 20
5.847527
 30
0.0
 40
0.065844
  1
  .O1 
 50
270.0
 41
1.324153
  7
Vcadd_SIMP
100
AcDbText
  0
TEXT
  5
154
100
AcDbEntity
  8
0
370
     0
390
0
  6
Continuous
 62
     7
100
AcDbText
 10
15.65169
 20
5.411588
 30
0.0
 40
0.065844
  1
5
 50
270.0
 41
1.324153
  7
Vcadd_SIMP
100
AcDbText
  0
TEXT
  5
155
100
AcDbEntity
  8
0
370
     0
390
0
  6
Continuous
 62
     7
100
AcDbText
 10
15.767991
 20
6.109091
 30
0.0
 40
0.065844
  1
   = 
 50
270.0
 41
1.324153
  7
Vcadd_SIMP
100
AcDbText
  0
TEXT
  5
156
100
AcDbEntity
  8
0
370
     0
390
0
  6
Continuous
 62
     7
100
AcDbText
 10
15.767991
 20
5.673152
 30
0.0
 40
0.065844
  1
.O3O
 50
270.0
 41
1.324153
  7
Vcadd_SIMP
100
AcDbText
  0
TEXT
  5
157
100
AcDbEntity
  8
0
370
     0
390
0
  6
Continuous
 62
     7
100
AcDbText
 10
16.262147
 20
5.221587
 30
0.0
 40
0.062
  1
TITLE
 50
270.0
  7
Vcadd_SIMP
100
AcDbText
  0
TEXT
  5
158
100
AcDbEntity
  8
0
370
     0
390
0
  6
Continuous
 62
     7
100
AcDbText
 10
16.262177
 20
2.220398
 30
0.0
 40
0.062
  1
REVISION
 50
270.0
  7
Vcadd_SIMP
100
AcDbText
  0
TEXT
  5
159
100
AcDbEntity
  8
0
370
     0
390
0
  6
Continuous
 62
     7
100
AcDbText
 10
15.842036
 20
5.230103
 30
0.0
 40
0.062
  1
SCALE
 50
270.0
  7
Vcadd_SIMP
100
AcDbText
  0
TEXT
  5
15A
100
AcDbEntity
  8
0
370
     0
390
0
  6
Continuous
 62
     7
100
AcDbText
 10
15.842036
 20
5.230103
 30
0.0
 40
0.062
  1
      REF.                
 50
270.0
  7
Vcadd_SIMP
100
AcDbText
  0
TEXT
  5
15B
100
AcDbEntity
  8
0
370
     0
390
0
  6
Continuous
 62
     7
100
AcDbText
 10
15.842036
 20
3.596324
 30
0.0
 40
0.062
  1
MATERIAL
 50
270.0
  7
Vcadd_SIMP
100
AcDbText
  0
TEXT
  5
15C
100
AcDbEntity
  8
0
370
     0
390
0
  6
Continuous
 62
     7
100
AcDbText
 10
15.474683
 20
5.225037
 30
0.0
 40
0.062
  1
DRAWN    
 50
270.0
  7
Vcadd_SIMP
100
AcDbText
  0
TEXT
  5
15D
100
AcDbEntity
  8
0
370
     0
390
0
  6
Continuous
 62
     7
100
AcDbText
 10
15.474683
 20
4.689349
 30
0.0
 40
0.062
  1
CHECK 
 50
270.0
  7
Vcadd_SIMP
100
AcDbText
  0
TEXT
  5
15E
100
AcDbEntity
  8
0
370
     0
390
0
  6
Continuous
 62
     7
100
AcDbText
 10
15.474683
 20
4.148595
 30
0.0
 40
0.062
  1
RELEASE
 50
270.0
  7
Vcadd_SIMP
100
AcDbText
  0
TEXT
  5
15F
100
AcDbEntity
  8
0
370
     0
390
0
  6
Continuous
 62
     7
100
AcDbText
 10
15.185464
 20
5.219005
 30
0.0
 40
0.062
  1
DATE     
 50
270.0
  7
Vcadd_SIMP
100
AcDbText
  0
TEXT
  5
160
100
AcDbEntity
  8
0
370
     0
390
0
  6
Continuous
 62
     7
100
AcDbText
 10
15.185464
 20
4.683317
 30
0.0
 40
0.062
  1
DATE  
 50
270.0
  7
Vcadd_SIMP
100
AcDbText
  0
TEXT
  5
161
100
AcDbEntity
  8
0
370
     0
390
0
  6
Continuous
 62
     7
100
AcDbText
 10
15.185464
 20
4.142563
 30
0.0
 40
0.062
  1
DATE
 50
270.0
  7
Vcadd_SIMP
100
AcDbText
  0
TEXT
  5
162
100
AcDbEntity
  8
0
370
     0
390
0
  6
Continuous
 62
     7
100
AcDbText
 10
15.474683
 20
3.599587
 30
0.0
 40
0.062
  1
HEAT TREAT & FINISH
 50
270.0
  7
Vcadd_SIMP
100
AcDbText
  0
TEXT
  5
163
100
AcDbEntity
  8
0
370
     0
390
0
  6
Continuous
 62
     7
100
AcDbText
 10
16.262177
 20
2.034397
 30
0.0
 40
0.062
  1
      PART NO.
 50
270.0
  7
Vcadd_SIMP
100
AcDbText
  0
TEXT
  5
164
100
AcDbEntity
  8
0
370
     0
390
0
  6
Continuous
 62
     7
100
AcDbText
 10
24.891225
 20
2.232852
 30
0.0
 40
0.062
  1
REVISION PART NO.
 50
270.0
  7
Vcadd_SIMP
100
AcDbText
  0
TEXT
  5
165
100
AcDbEntity
  8
0
370
     0
390
0
  6
Continuous
 62
     7
100
AcDbText
 10
16.0169
 20
5.121457
 30
0.0
 40
0.1
  1
DIMENSIONS, TOOLING, PORTING
 50
270.0
  7
Vcadd_SIMP
100
AcDbText
  0
TEXT
  5
166
100
AcDbEntity
  8
0
370
     0
390
0
  6
Continuous
 62
     7
100
AcDbText
 10
15.66116
 20
5.211925
 30
0.0
 40
0.094
  1
1:1
 50
270.0
  7
Vcadd_SIMP
100
AcDbText
  0
TEXT
  5
167
100
AcDbEntity
  8
0
370
     0
390
0
  6
Continuous
 62
     7
100
AcDbText
 10
15.338677
 20
5.125958
 30
0.0
 40
0.094
  1
DAS
 50
270.0
  7
Vcadd_SIMP
100
AcDbText
  0
TEXT
  5
168
100
AcDbEntity
  8
0
370
     0
390
0
  6
Continuous
 62
     7
100
AcDbText
 10
15.680704
 20
4.744834
 30
0.0
 40
0.12
  1
SERIES 4
 50
270.0
  7
Vcadd_SIMP
100
AcDbText
  0
LINE
  5
169
100
AcDbEntity
  8
0
370
     0
390
0
  6
Continuous
 62
     7
100
AcDbLine
 10
15.630624
 20
7.509932
 30
0.0
 11
15.630624
 21
9.884933
 31
0.0
  0
TEXT
  5
16A
100
AcDbEntity
  8
_2D_DELETED_OBJS
370
     0
390
0
  6
Continuous
 62
     7
100
AcDbText
 10
15.358062
 20
14.876428
 30
0.0
 40
0.142
  1
(ALL DIMENSIONS ARE IN INCHES)
  7
Vcadd_SIMP
100
AcDbText
  0
INSERT
  5
172
100
AcDbEntity
  8
_2D_DELETED_OBJS
370
    30
390
0
  6
Continuous
 62
     7
100
AcDbBlockReference
  2
DELTA
 10
15.072808
 20
14.676212
 30
0.0
 42
1.0
  0
TEXT
  5
173
100
AcDbEntity
  8
_2D_DELETED_OBJS
370
     0
390
0
  6
Continuous
 62
     7
100
AcDbText
 10
15.839953
 20
14.472569
 30
0.0
 40
0.142
  1
1.8386/1.8474 PITCH DIA.
  7
Vcadd_SIMP
100
AcDbText
  0
TEXT
  5
174
100
AcDbEntity
  8
_2D_DELETED_OBJS
370
     0
390
0
  6
Continuous
 62
     7
100
AcDbText
 10
15.282654
 20
14.678535
 30
0.0
 40
0.142
  1
M48x2.0-6H ISO (METRIC) THREAD
  7
Vcadd_SIMP
100
AcDbText
  0
LINE
  5
175
100
AcDbEntity
  8
DEFAULT_1
370
     0
390
0
  6
Continuous
 62
     7
100
AcDbLine
 10
20.697784
 20
11.26392
 30
0.0
 11
20.697784
 21
11.43014
 31
0.0
  0
LINE
  5
176
100
AcDbEntity
  8
DEFAULT_1
370
     0
390
0
  6
Continuous
 62
     7
100
AcDbLine
 10
20.697784
 20
14.061343
 30
0.0
 11
20.697784
 21
11.540953
 31
0.0
  0
LINE
  5
177
100
AcDbEntity
  8
DEFAULT_1
370
     0
390
0
  6
Continuous
 62
     1
100
AcDbLine
 10
21.603783
 20
10.555619
 30
0.0
 11
21.654282
 21
10.606119
 31
0.0
  0
LINE
  5
179
100
AcDbEntity
  8
DEFAULT_1
370
     0
390
0
  6
CL____X1
 62
     1
100
AcDbLine
 10
21.641281
 20
10.593119
 30
0.0
 11
21.641281
 21
9.950118
 31
0.0
  0
LINE
  5
17A
100
AcDbEntity
  8
DEFAULT_1
370
     0
390
0
  6
Continuous
 62
     1
100
AcDbLine
 10
21.654282
 20
10.80087
 30
0.0
 11
21.654282
 21
10.606119
 31
0.0
  0
LINE
  5
17B
100
AcDbEntity
  8
DEFAULT_1
370
     0
390
0
  6
Continuous
 62
     1
100
AcDbLine
 10
21.668281
 20
10.825119
 30
0.0
 11
21.727281
 21
10.825119
 31
0.0
  0
LINE
  5
17C
100
AcDbEntity
  8
DEFAULT_1
370
     0
390
0
  6
Continuous
 62
     1
100
AcDbLine
 10
21.603783
 20
8.809118
 30
0.0
 11
21.603783
 21
10.555619
 31
0.0
  0
LINE
  5
17D
100
AcDbEntity
  8
DEFAULT_1
370
     0
390
0
  6
Continuous
 62
     7
100
AcDbLine
 10
20.697782
 20
9.383929
 30
0.0
 11
20.697784
 21
11.153107
 31
0.0
  0
LINE
  5
17E
100
AcDbEntity
  8
DEFAULT_1
370
     0
390
0
  6
Continuous
 62
     7
100
AcDbLine
 10
20.697782
 20
9.073787
 30
0.0
 11
20.697782
 21
9.258395
 31
0.0
  0
LINE
  5
17F
100
AcDbEntity
  8
DEFAULT_1
370
     0
390
0
  6
Continuous
 62
     7
100
AcDbLine
 10
20.697784
 20
6.62957
 30
0.0
 11
20.697782
 21
8.933484
 31
0.0
  0
LINE
  5
180
100
AcDbEntity
  8
DEFAULT_1
370
     0
390
0
  6
Continuous
 62
     7
100
AcDbLine
 10
20.697784
 20
6.341581
 30
0.0
 11
20.697784
 21
6.511421
 31
0.0
  0
LINE
  5
181
100
AcDbEntity
  8
DEFAULT_2
370
     0
390
0
  6
Continuous
 62
     7
100
AcDbLine
 10
21.541679
 20
10.014116
 30
0.0
 11
21.641678
 21
10.114115
 31
0.0
  0
LINE
  5
182
100
AcDbEntity
  8
DEFAULT_2
370
     0
390
0
  6
Continuous
 62
     7
100
AcDbLine
 10
21.641678
 20
10.114115
 30
0.0
 11
21.641678
 21
10.582117
 31
0.0
  0
LINE
  5
183
100
AcDbEntity
  8
DEFAULT_2
370
     0
390
0
  6
Continuous
 62
     7
100
AcDbLine
 10
21.641678
 20
10.582117
 30
0.0
 11
21.589676
 21
10.610117
 31
0.0
  0
LINE
  5
184
100
AcDbEntity
  8
DEFAULT_2
370
     0
390
0
  6
Continuous
 62
     7
100
AcDbLine
 10
21.589676
 20
10.610117
 30
0.0
 11
21.566177
 21
10.610117
 31
0.0
  0
LINE
  5
185
100
AcDbEntity
  8
DEFAULT_2
370
     0
390
0
  6
Continuous
 62
     7
100
AcDbLine
 10
21.568176
 20
10.778116
 30
0.0
 11
21.655678
 21
10.778116
 31
0.0
  0
LINE
  5
186
100
AcDbEntity
  8
DEFAULT_2
370
     0
390
0
  6
Continuous
 62
     7
100
AcDbLine
 10
21.655678
 20
10.778116
 30
0.0
 11
21.655678
 21
10.825117
 31
0.0
  0
LINE
  5
187
100
AcDbEntity
  8
DEFAULT_2
370
     0
390
0
  6
Continuous
 62
     7
100
AcDbLine
 10
21.566177
 20
10.610487
 30
0.0
 11
21.566177
 21
10.610117
 31
0.0
  0
LINE
  5
188
100
AcDbEntity
  8
DEFAULT_2
370
     0
390
0
  6
Continuous
 62
     7
100
AcDbLine
 10
21.568176
 20
10.778116
 30
0.0
 11
21.566177
 21
10.778116
 31
0.0
  0
LINE
  5
189
100
AcDbEntity
  8
DEFAULT_2
370
     0
390
0
  6
Continuous
 62
     7
100
AcDbLine
 10
21.566177
 20
10.778116
 30
0.0
 11
21.566177
 21
10.61022
 31
0.0
  0
LINE
  5
18A
100
AcDbEntity
  8
DEFAULT_2
370
     0
390
0
  6
CL____X1
 62
     7
100
AcDbLine
 10
21.589676
 20
10.610117
 30
0.0
 11
21.589676
 21
10.06164
 31
0.0
  0
CIRCLE
  5
18B
100
AcDbEntity
  8
DEFAULT_2
370
     0
390
0
  6
Continuous
 62
     7
100
AcDbCircle
 10
21.625793
 20
10.776278
 30
0.0
 40
0.0
  0
LINE
  5
18C
100
AcDbEntity
  8
DEFAULT_2
370
     0
390
0
  6
Continuous
 62
     7
100
AcDbLine
 10
21.567215
 20
10.610029
 30
0.0
 11
21.567215
 21
10.66403
 31
0.0
  0
LINE
  5
18D
100
AcDbEntity
  8
DEFAULT_2
370
     0
390
0
  6
Continuous
 62
     7
100
AcDbLine
 10
21.555786
 20
6.852479
 30
0.0
 11
21.555786
 21
6.946481
 31
0.0
  0
LINE
  5
18E
100
AcDbEntity
  8
DEFAULT_2
370
     0
390
0
  6
Continuous
 62
     7
100
AcDbLine
 10
21.555786
 20
6.946481
 30
0.0
 11
21.555786
 21
6.946481
 31
0.0
  0
LINE
  5
18F
100
AcDbEntity
  8
DEFAULT_2
370
     0
390
0
  6
Continuous
 62
     7
100
AcDbLine
 10
21.55529
 20
7.280481
 30
0.0
 11
21.55529
 21
7.280481
 31
0.0
  0
LINE
  5
190
100
AcDbEntity
  8
DEFAULT_2
370
     0
390
0
  6
Continuous
 62
     7
100
AcDbLine
 10
21.555786
 20
6.852479
 30
0.0
 11
21.555786
 21
6.946481
 31
0.0
  0
LINE
  5
191
100
AcDbEntity
  8
DEFAULT_2
370
     0
390
0
  6
Continuous
 62
     7
100
AcDbLine
 10
21.555786
 20
6.946481
 30
0.0
 11
21.555786
 21
6.946481
 31
0.0
  0
LINE
  5
192
100
AcDbEntity
  8
DEFAULT_2
370
     0
390
0
  6
Continuous
 62
     7
100
AcDbLine
 10
21.55529
 20
7.280481
 30
0.0
 11
21.55529
 21
7.280481
 31
0.0
  0
LINE
  5
193
100
AcDbEntity
  8
DEFAULT_2
370
     0
390
0
  6
Continuous
 62
     7
100
AcDbLine
 10
21.555794
 20
7.167329
 30
0.0
 11
21.469787
 21
7.167329
 31
0.0
  0
LINE
  5
194
100
AcDbEntity
  8
DEFAULT_2
370
     0
390
0
  6
Continuous
 62
     7
100
AcDbLine
 10
21.555794
 20
7.167329
 30
0.0
 11
21.555794
 21
7.12433
 31
0.0
  0
ARC
  5
195
100
AcDbEntity
  8
DEFAULT_2
370
     0
390
0
  6
Continuous
 62
     7
100
AcDbCircle
 10
21.545791
 20
7.12433
 30
0.0
 40
0.010003
100
AcDbArc
 50
270.0
 51
359.997465
  0
ARC
  5
196
100
AcDbEntity
  8
DEFAULT_2
370
     0
390
0
  6
Continuous
 62
     7
100
AcDbCircle
 10
21.47979
 20
7.12433
 30
0.0
 40
0.010003
100
AcDbArc
 50
180.002535
 51
270.0
  0
LINE
  5
197
100
AcDbEntity
  8
DEFAULT_2
370
     0
390
0
  6
Continuous
 62
     7
100
AcDbLine
 10
21.469787
 20
7.167329
 30
0.0
 11
21.469787
 21
7.12433
 31
0.0
  0
ARC
  5
198
100
AcDbEntity
  8
DEFAULT_2
370
     0
390
0
  6
Continuous
 62
     7
100
AcDbCircle
 10
21.512791
 20
6.993267
 30
0.0
 40
0.125478
100
AcDbArc
 50
74.751717
 51
105.248283
  0
LINE
  5
199
100
AcDbEntity
  8
DEFAULT_2
370
     0
390
0
  6
Continuous
 62
     7
100
AcDbLine
 10
21.469787
 20
6.964746
 30
0.0
 11
21.555794
 21
6.964746
 31
0.0
  0
LINE
  5
19A
100
AcDbEntity
  8
DEFAULT_2
370
     0
390
0
  6
Continuous
 62
     7
100
AcDbLine
 10
21.469787
 20
6.964746
 30
0.0
 11
21.469787
 21
7.007745
 31
0.0
  0
ARC
  5
19B
100
AcDbEntity
  8
DEFAULT_2
370
     0
390
0
  6
Continuous
 62
     7
100
AcDbCircle
 10
21.47979
 20
7.007745
 30
0.0
 40
0.010003
100
AcDbArc
 50
90.0
 51
179.997465
  0
ARC
  5
19C
100
AcDbEntity
  8
DEFAULT_2
370
     0
390
0
  6
Continuous
 62
     7
100
AcDbCircle
 10
21.545791
 20
7.007745
 30
0.0
 40
0.010003
100
AcDbArc
 50
0.002535
 51
90.0
  0
LINE
  5
19D
100
AcDbEntity
  8
DEFAULT_2
370
     0
390
0
  6
Continuous
 62
     7
100
AcDbLine
 10
21.555794
 20
6.964746
 30
0.0
 11
21.555794
 21
7.007745
 31
0.0
  0
ARC
  5
19E
100
AcDbEntity
  8
DEFAULT_2
370
     0
390
0
  6
Continuous
 62
     7
100
AcDbCircle
 10
21.512791
 20
7.138808
 30
0.0
 40
0.125478
100
AcDbArc
 50
254.751717
 51
285.248283
  0
LINE
  5
19F
100
AcDbEntity
  8
DEFAULT_2
370
     0
390
0
  6
Continuous
 62
     7
100
AcDbLine
 10
20.697784
 20
10.778116
 30
0.0
 11
21.566177
 21
10.778116
 31
0.0
  0
LINE
  5
1A0
100
AcDbEntity
  8
DEFAULT_2
370
     0
390
0
  6
Continuous
 62
     7
100
AcDbLine
 10
20.697784
 20
10.610163
 30
0.0
 11
21.566177
 21
10.610117
 31
0.0
  0
LINE
  5
1A1
100
AcDbEntity
  8
DEFAULT_2
370
     0
390
0
  6
Continuous
 62
     7
100
AcDbLine
 10
20.697784
 20
10.582117
 30
0.0
 11
21.641678
 21
10.582117
 31
0.0
  0
LINE
  5
1A2
100
AcDbEntity
  8
DEFAULT_2
370
     0
390
0
  6
Continuous
 62
     7
100
AcDbLine
 10
20.697784
 20
10.114115
 30
0.0
 11
21.641678
 21
10.114115
 31
0.0
  0
LINE
  5
1A3
100
AcDbEntity
  8
DEFAULT_2
370
     0
390
0
  6
Continuous
 62
     7
100
AcDbLine
 10
20.697784
 20
10.014116
 30
0.0
 11
21.541679
 21
10.014116
 31
0.0
  0
LINE
  5
1A4
100
AcDbEntity
  8
DEFAULT_2
370
     0
390
0
  6
Continuous
 62
     7
100
AcDbLine
 10
21.650389
 20
10.66403
 30
0.0
 11
21.567215
 21
10.66403
 31
0.0
  0
LINE
  5
1A5
100
AcDbEntity
  8
DEFAULT_2
370
     0
390
0
  6
Continuous
 62
     7
100
AcDbLine
 10
21.650389
 20
10.610029
 30
0.0
 11
21.567215
 21
10.610029
 31
0.0
  0
LINE
  5
1A6
100
AcDbEntity
  8
DEFAULT_1
370
     0
390
0
  6
Continuous
 62
     7
100
AcDbLine
 10
19.790283
 20
10.555619
 30
0.0
 11
19.739784
 21
10.606119
 31
0.0
  0
LINE
  5
1A7
100
AcDbEntity
  8
DEFAULT_1
370
     0
390
0
  6
CL____X1
 62
     7
100
AcDbLine
 10
19.752784
 20
10.593119
 30
0.0
 11
19.752784
 21
9.950118
 31
0.0
  0
LINE
  5
1A8
100
AcDbEntity
  8
DEFAULT_1
370
     0
390
0
  6
Continuous
 62
     7
100
AcDbLine
 10
20.697784
 20
9.870442
 30
0.0
 11
20.697784
 21
9.70039
 31
0.0
  0
LINE
  5
1A9
100
AcDbEntity
  8
DEFAULT_1
370
     0
390
0
  6
Continuous
 62
     7
100
AcDbLine
 10
20.697784
 20
11.26392
 30
0.0
 11
20.697784
 21
11.43014
 31
0.0
  0
LINE
  5
1AA
100
AcDbEntity
  8
DEFAULT_1
370
     0
390
0
  6
Continuous
 62
     7
100
AcDbLine
 10
20.697786
 20
9.316609
 30
0.0
 11
20.697784
 21
9.490316
 31
0.0
  0
LINE
  5
1AB
100
AcDbEntity
  8
DEFAULT_1
370
     0
390
0
  6
Continuous
 62
     7
100
AcDbLine
 10
20.697784
 20
9.590882
 30
0.0
 11
20.697784
 21
11.153107
 31
0.0
  0
LINE
  5
1AC
100
AcDbEntity
  8
DEFAULT_1
370
     0
390
0
  6
Continuous
 62
     7
100
AcDbLine
 10
20.697784
 20
13.795899
 30
0.0
 11
20.697784
 21
11.540953
 31
0.0
  0
LINE
  5
1AD
100
AcDbEntity
  8
DEFAULT_1
370
     0
390
0
  6
Continuous
 62
     7
100
AcDbLine
 10
19.739784
 20
10.80087
 30
0.0
 11
19.739784
 21
10.606119
 31
0.0
  0
LINE
  5
1AE
100
AcDbEntity
  8
DEFAULT_1
370
     0
390
0
  6
Continuous
 62
     7
100
AcDbLine
 10
19.725784
 20
10.825119
 30
0.0
 11
19.666786
 21
10.825119
 31
0.0
  0
LINE
  5
1AF
100
AcDbEntity
  8
DEFAULT_1
370
     0
390
0
  6
Continuous
 62
     7
100
AcDbLine
 10
19.790283
 20
8.809118
 30
0.0
 11
19.790283
 21
10.555619
 31
0.0
  0
LINE
  5
1B0
100
AcDbEntity
  8
DEFAULT_1
370
     0
390
0
  6
Continuous
 62
     7
100
AcDbLine
 10
20.697784
 20
6.850617
 30
0.0
 11
20.697786
 21
9.225184
 31
0.0
  0
LINE
  5
1B1
100
AcDbEntity
  8
DEFAULT_1
370
     0
390
0
  6
Continuous
 62
     7
100
AcDbLine
 10
20.697784
 20
6.592716
 30
0.0
 11
20.697784
 21
6.761686
 31
0.0
  0
LINE
  5
1B2
100
AcDbEntity
  8
DEFAULT_1
370
     0
390
0
  6
Continuous
 62
     1
100
AcDbLine
 10
21.654282
 20
10.80087
 30
0.0
 11
21.668281
 21
10.825119
 31
0.0
  0
LINE
  5
1B3
100
AcDbEntity
  8
DEFAULT_1
370
     0
390
0
  6
Continuous
 62
     1
100
AcDbLine
 10
22.050148
 20
11.825457
 30
0.0
 11
22.06057
 21
11.679604
 31
0.0
  0
LINE
  5
1B4
100
AcDbEntity
  8
DEFAULT_1
370
     0
390
0
  6
Continuous
 62
     1
100
AcDbLine
 10
22.039726
 20
11.169115
 30
0.0
 11
22.039726
 21
11.023261
 31
0.0
  0
LINE
  5
1B5
100
AcDbEntity
  8
DEFAULT_1
370
     0
390
0
  6
Continuous
 62
     1
100
AcDbLine
 10
22.039726
 20
11.023261
 30
0.0
 11
22.029306
 21
10.866989
 31
0.0
  0
LINE
  5
1B6
100
AcDbEntity
  8
DEFAULT_1
370
     0
390
0
  6
Continuous
 62
     1
100
AcDbLine
 10
22.029306
 20
10.866989
 30
0.0
 11
22.008463
 21
10.731553
 31
0.0
  0
LINE
  5
1B7
100
AcDbEntity
  8
DEFAULT_1
370
     0
390
0
  6
Continuous
 62
     1
100
AcDbLine
 10
22.008463
 20
10.731553
 30
0.0
 11
22.008463
 21
10.544026
 31
0.0
  0
LINE
  5
1B8
100
AcDbEntity
  8
DEFAULT_1
370
     0
390
0
  6
Continuous
 62
     1
100
AcDbLine
 10
22.008463
 20
10.544026
 30
0.0
 11
22.018885
 21
10.366919
 31
0.0
  0
LINE
  5
1B9
100
AcDbEntity
  8
DEFAULT_1
370
     0
390
0
  6
Continuous
 62
     1
100
AcDbLine
 10
22.018885
 20
10.366919
 30
0.0
 11
22.039726
 21
10.221065
 31
0.0
  0
LINE
  5
1BA
100
AcDbEntity
  8
DEFAULT_1
370
     0
390
0
  6
Continuous
 62
     1
100
AcDbLine
 10
22.039726
 20
10.221065
 30
0.0
 11
22.050148
 21
10.033538
 31
0.0
  0
LINE
  5
1BB
100
AcDbEntity
  8
DEFAULT_1
370
     0
390
0
  6
Continuous
 62
     1
100
AcDbLine
 10
22.030716
 20
10.888119
 30
0.0
 11
21.728783
 21
10.888119
 31
0.0
  0
LINE
  5
1BC
100
AcDbEntity
  8
DEFAULT_1
370
     0
390
0
  6
Continuous
 62
     1
100
AcDbLine
 10
21.603783
 20
10.524447
 30
0.0
 11
21.967455
 21
10.888119
 31
0.0
  0
LINE
  5
1BD
100
AcDbEntity
  8
DEFAULT_1
370
     0
390
0
  6
Continuous
 62
     1
100
AcDbLine
 10
21.603783
 20
10.436058
 30
0.0
 11
22.028322
 21
10.860599
 31
0.0
  0
LINE
  5
1BE
100
AcDbEntity
  8
DEFAULT_1
370
     0
390
0
  6
Continuous
 62
     1
100
AcDbLine
 10
22.011621
 20
10.490344
 30
0.0
 11
21.603783
 21
10.082505
 31
0.0
  0
LINE
  5
1BF
100
AcDbEntity
  8
DEFAULT_1
370
     0
390
0
  6
Continuous
 62
     1
100
AcDbLine
 10
22.008463
 20
10.575574
 30
0.0
 11
21.603783
 21
10.170893
 31
0.0
  0
LINE
  5
1C0
100
AcDbEntity
  8
DEFAULT_1
370
     0
390
0
  6
Continuous
 62
     1
100
AcDbLine
 10
22.008463
 20
10.663962
 30
0.0
 11
21.603783
 21
10.259281
 31
0.0
  0
LINE
  5
1C1
100
AcDbEntity
  8
DEFAULT_1
370
     0
390
0
  6
Continuous
 62
     1
100
AcDbLine
 10
22.012245
 20
10.756132
 30
0.0
 11
21.603783
 21
10.34767
 31
0.0
  0
LINE
  5
1C2
100
AcDbEntity
  8
DEFAULT_1
370
     0
390
0
  6
Continuous
 62
     1
100
AcDbLine
 10
21.654282
 20
10.751722
 30
0.0
 11
21.790678
 21
10.888119
 31
0.0
  0
LINE
  5
1C3
100
AcDbEntity
  8
DEFAULT_1
370
     0
390
0
  6
Continuous
 62
     1
100
AcDbLine
 10
21.654282
 20
10.663334
 30
0.0
 11
21.879066
 21
10.888119
 31
0.0
  0
LINE
  5
1C4
100
AcDbEntity
  8
DEFAULT_1
370
     0
390
0
  6
Continuous
 62
     7
100
AcDbLine
 10
21.650389
 20
10.66403
 30
0.0
 11
21.650389
 21
10.610029
 31
0.0
  0
ELLIPSE
  5
1C5
100
AcDbEntity
  8
DEFAULT_1
370
     0
390
0
  6
Continuous
 62
     1
100
AcDbEllipse
 10
21.610714
 20
10.720854
 30
0.0
 11
0.0009918212890625
 21
0.0565166473388672
 31
0.0
210
0.0
220
0.0
230
1.0
 40
0.737437
 41
0.0
 42
6.2831853071795862
  0
LINE
  5
1C6
100
AcDbEntity
  8
DEFAULT_1
370
     0
390
0
  6
Continuous
 62
     1
100
AcDbLine
 10
21.579281
 20
8.76668
 30
0.0
 11
21.603783
 21
8.809118
 31
0.0
  0
LINE
  5
1C7
100
AcDbEntity
  8
DEFAULT_1
370
     0
390
0
  6
Continuous
 62
     1
100
AcDbLine
 10
21.579281
 20
8.766679
 30
0.0
 11
21.579281
 21
7.309119
 31
0.0
  0
LINE
  5
1C8
100
AcDbEntity
  8
DEFAULT_1
370
     0
390
0
  6
Continuous
 62
     1
100
AcDbLine
 10
21.55578
 20
7.268415
 30
0.0
 11
21.579281
 21
7.309119
 31
0.0
  0
LINE
  5
1C9
100
AcDbEntity
  8
DEFAULT_1
370
     0
390
0
  6
Continuous
 62
     1
100
AcDbLine
 10
21.55578
 20
7.268415
 30
0.0
 11
21.55578
 21
5.80912
 31
0.0
  0
LINE
  5
1CA
100
AcDbEntity
  8
DEFAULT_1
370
     0
390
0
  6
Continuous
 62
     1
100
AcDbLine
 10
21.532282
 20
5.768416
 30
0.0
 11
21.55578
 21
5.80912
 31
0.0
  0
LINE
  5
1CB
100
AcDbEntity
  8
DEFAULT_1
370
     0
390
0
  6
Continuous
 62
     1
100
AcDbLine
 10
22.070991
 20
8.929216
 30
0.0
 11
22.081413
 21
8.762527
 31
0.0
  0
LINE
  5
1CC
100
AcDbEntity
  8
DEFAULT_1
370
     0
390
0
  6
Continuous
 62
     1
100
AcDbLine
 10
22.081413
 20
8.762527
 30
0.0
 11
22.050148
 21
8.543745
 31
0.0
  0
LINE
  5
1CD
100
AcDbEntity
  8
DEFAULT_1
370
     0
390
0
  6
Continuous
 62
     1
100
AcDbLine
 10
22.050148
 20
8.543745
 30
0.0
 11
22.029306
 21
8.335383
 31
0.0
  0
LINE
  5
1CE
100
AcDbEntity
  8
DEFAULT_1
370
     0
390
0
  6
Continuous
 62
     1
100
AcDbLine
 10
21.956354
 20
7.970748
 30
0.0
 11
21.956354
 21
7.814476
 31
0.0
  0
LINE
  5
1CF
100
AcDbEntity
  8
DEFAULT_1
370
     0
390
0
  6
Continuous
 62
     1
100
AcDbLine
 10
21.956354
 20
7.814476
 30
0.0
 11
21.977198
 21
7.585277
 31
0.0
  0
LINE
  5
1D0
100
AcDbEntity
  8
DEFAULT_1
370
     0
390
0
  6
Continuous
 62
     1
100
AcDbLine
 10
21.977198
 20
7.585277
 30
0.0
 11
21.998041
 21
7.397751
 31
0.0
  0
LINE
  5
1D1
100
AcDbEntity
  8
DEFAULT_1
370
     0
390
0
  6
Continuous
 62
     1
100
AcDbLine
 10
21.998041
 20
7.397751
 30
0.0
 11
22.018885
 21
7.262315
 31
0.0
  0
LINE
  5
1D2
100
AcDbEntity
  8
DEFAULT_1
370
     0
390
0
  6
Continuous
 62
     1
100
AcDbLine
 10
22.018885
 20
7.262315
 30
0.0
 11
21.956354
 21
6.981025
 31
0.0
  0
LINE
  5
1D3
100
AcDbEntity
  8
DEFAULT_1
370
     0
390
0
  6
Continuous
 62
     1
100
AcDbLine
 10
21.956354
 20
6.981025
 30
0.0
 11
21.956354
 21
6.814335
 31
0.0
  0
LINE
  5
1D4
100
AcDbEntity
  8
DEFAULT_1
370
     0
390
0
  6
Continuous
 62
     1
100
AcDbLine
 10
21.998041
 20
6.376774
 30
0.0
 11
21.987619
 21
6.23092
 31
0.0
  0
LINE
  5
1D5
100
AcDbEntity
  8
DEFAULT_1
370
     0
390
0
  6
Continuous
 62
     1
100
AcDbLine
 10
21.987619
 20
6.23092
 30
0.0
 11
21.977198
 21
6.085066
 31
0.0
  0
LINE
  5
1D6
100
AcDbEntity
  8
DEFAULT_1
370
     0
390
0
  6
Continuous
 62
     1
100
AcDbLine
 10
21.977198
 20
6.085066
 30
0.0
 11
21.956354
 21
5.918376
 31
0.0
  0
LINE
  5
1D7
100
AcDbEntity
  8
DEFAULT_1
370
     0
390
0
  6
Continuous
 62
     1
100
AcDbLine
 10
21.956354
 20
5.918376
 30
0.0
 11
21.956354
 21
5.762103
 31
0.0
  0
LINE
  5
1D8
100
AcDbEntity
  8
DEFAULT_1
370
     0
390
0
  6
Continuous
 62
     1
100
AcDbLine
 10
21.956354
 20
5.762103
 30
0.0
 11
21.977198
 21
5.543323
 31
0.0
  0
LINE
  5
1D9
100
AcDbEntity
  8
DEFAULT_1
370
     0
390
0
  6
Continuous
 62
     1
100
AcDbLine
 10
21.977198
 20
5.543323
 30
0.0
 11
21.977198
 21
5.387051
 31
0.0
  0
LINE
  5
1DA
100
AcDbEntity
  8
DEFAULT_1
370
     0
390
0
  6
Continuous
 62
     1
100
AcDbLine
 10
21.977198
 20
5.387051
 30
0.0
 11
21.935512
 21
5.241197
 31
0.0
  0
LINE
  5
1DB
100
AcDbEntity
  8
DEFAULT_1
370
     0
390
0
  6
Continuous
 62
     1
100
AcDbLine
 10
22.00922
 20
7.325116
 30
0.0
 11
21.579281
 21
7.325116
 31
0.0
  0
LINE
  5
1DC
100
AcDbEntity
  8
DEFAULT_1
370
     0
390
0
  6
Continuous
 62
     1
100
AcDbLine
 10
21.956354
 20
6.825116
 30
0.0
 11
21.55578
 21
6.825116
 31
0.0
  0
LINE
  5
1DD
100
AcDbEntity
  8
DEFAULT_1
370
     0
390
0
  6
Continuous
 62
     1
100
AcDbLine
 10
21.579281
 20
7.312218
 30
0.0
 11
21.59218
 21
7.325116
 31
0.0
  0
LINE
  5
1DE
100
AcDbEntity
  8
DEFAULT_1
370
     0
390
0
  6
Continuous
 62
     1
100
AcDbLine
 10
21.956354
 20
6.893796
 30
0.0
 11
21.887676
 21
6.825116
 31
0.0
  0
LINE
  5
1DF
100
AcDbEntity
  8
DEFAULT_1
370
     0
390
0
  6
Continuous
 62
     1
100
AcDbLine
 10
21.956686
 20
6.982517
 30
0.0
 11
21.799286
 21
6.825116
 31
0.0
  0
LINE
  5
1E0
100
AcDbEntity
  8
DEFAULT_1
370
     0
390
0
  6
Continuous
 62
     1
100
AcDbLine
 10
21.981951
 20
7.09617
 30
0.0
 11
21.710897
 21
6.825116
 31
0.0
  0
LINE
  5
1E1
100
AcDbEntity
  8
DEFAULT_1
370
     0
390
0
  6
Continuous
 62
     1
100
AcDbLine
 10
22.007215
 20
7.209821
 30
0.0
 11
21.622511
 21
6.825116
 31
0.0
  0
LINE
  5
1E2
100
AcDbEntity
  8
DEFAULT_1
370
     0
390
0
  6
Continuous
 62
     1
100
AcDbLine
 10
22.012541
 20
7.303535
 30
0.0
 11
21.55578
 21
6.846775
 31
0.0
  0
LINE
  5
1E3
100
AcDbEntity
  8
DEFAULT_1
370
     0
390
0
  6
Continuous
 62
     1
100
AcDbLine
 10
21.945732
 20
7.325116
 30
0.0
 11
21.555782
 21
6.935164
 31
0.0
  0
LINE
  5
1E4
100
AcDbEntity
  8
DEFAULT_1
370
     0
390
0
  6
Continuous
 62
     1
100
AcDbLine
 10
21.857345
 20
7.325116
 30
0.0
 11
21.55578
 21
7.023552
 31
0.0
  0
LINE
  5
1E5
100
AcDbEntity
  8
DEFAULT_1
370
     0
390
0
  6
Continuous
 62
     1
100
AcDbLine
 10
21.768957
 20
7.325116
 30
0.0
 11
21.555782
 21
7.111941
 31
0.0
  0
LINE
  5
1E6
100
AcDbEntity
  8
DEFAULT_1
370
     0
390
0
  6
Continuous
 62
     1
100
AcDbLine
 10
21.680569
 20
7.325116
 30
0.0
 11
21.555782
 21
7.200329
 31
0.0
  0
ELLIPSE
  5
1E7
100
AcDbEntity
  8
DEFAULT_1
370
     0
390
0
  6
Continuous
 62
     1
100
AcDbEllipse
 10
21.514
 20
7.062684
 30
0.0
 11
0.0
 21
0.0506868362426758
 31
0.0
210
0.0
220
0.0
230
1.0
 40
0.833863
 41
0.0
 42
6.2831853071795862
  0
LINE
  5
1E8
100
AcDbEntity
  8
DEFAULT_1
370
     0
390
0
  6
Continuous
 62
     1
100
AcDbLine
 10
22.029306
 20
9.679321
 30
0.0
 11
22.029306
 21
9.502214
 31
0.0
  0
LINE
  5
1E9
100
AcDbEntity
  8
DEFAULT_1
370
     0
390
0
  6
Continuous
 62
     1
100
AcDbLine
 10
22.029306
 20
9.127161
 30
0.0
 11
22.070991
 21
8.929216
 31
0.0
  0
LINE
  5
1EA
100
AcDbEntity
  8
DEFAULT_1
370
     0
390
0
  6
CL____X1
 62
     1
100
AcDbLine
 10
19.770786
 20
10.828817
 30
0.0
 11
19.770786
 21
10.638119
 31
0.0
  0
LINE
  5
1EB
100
AcDbEntity
  8
DEFAULT_1
370
     0
390
0
  6
CL____X1
 62
     1
100
AcDbLine
 10
19.770786
 20
10.828817
 30
0.0
 11
19.695785
 21
10.872119
 31
0.0
  0
LINE
  5
1EC
100
AcDbEntity
  8
DEFAULT_1
370
     0
390
0
  6
CL____X1
 62
     1
100
AcDbLine
 10
19.819286
 20
10.610117
 30
0.0
 11
19.770786
 21
10.638119
 31
0.0
  0
LINE
  5
1ED
100
AcDbEntity
  8
DEFAULT_1
370
     0
390
0
  6
Continuous
 62
     7
100
AcDbLine
 10
19.739784
 20
10.80087
 30
0.0
 11
19.725784
 21
10.825119
 31
0.0
  0
CIRCLE
  5
1EF
100
AcDbEntity
  8
DEFAULT_1
370
     0
390
0
  6
DIVIDE
 62
     1
100
AcDbCircle
 10
19.718534
 20
10.828546
 30
0.0
 40
0.097311
  0
LINE
  5
1F0
100
AcDbEntity
  8
DEFAULT_1
370
     0
390
0
  6
Continuous
 62
     7
100
AcDbLine
 10
19.814784
 20
8.76668
 30
0.0
 11
19.790283
 21
8.809118
 31
0.0
  0
LINE
  5
1F1
100
AcDbEntity
  8
DEFAULT_1
370
     0
390
0
  6
Continuous
 62
     7
100
AcDbLine
 10
19.814784
 20
8.766679
 30
0.0
 11
19.814784
 21
7.309119
 31
0.0
  0
LINE
  5
1F2
100
AcDbEntity
  8
DEFAULT_1
370
     0
390
0
  6
Continuous
 62
     7
100
AcDbLine
 10
19.838285
 20
7.268415
 30
0.0
 11
19.814784
 21
7.309119
 31
0.0
  0
LINE
  5
1F3
100
AcDbEntity
  8
DEFAULT_1
370
     0
390
0
  6
Continuous
 62
     7
100
AcDbLine
 10
19.838285
 20
7.268415
 30
0.0
 11
19.838285
 21
5.80912
 31
0.0
  0
LINE
  5
1F4
100
AcDbEntity
  8
DEFAULT_1
370
     0
390
0
  6
Continuous
 62
     7
100
AcDbLine
 10
19.861785
 20
5.768416
 30
0.0
 11
19.838285
 21
5.80912
 31
0.0
  0
LINE
  5
1F5
100
AcDbEntity
  8
DEFAULT_1
370
     0
390
0
  6
CL____X1
 62
     1
100
AcDbLine
 10
19.819286
 20
8.794119
 30
0.0
 11
19.819286
 21
10.610117
 31
0.0
  0
LINE
  5
1F6
100
AcDbEntity
  8
DEFAULT_1
370
     0
390
0
  6
CL____X1
 62
     1
100
AcDbLine
 10
19.844285
 20
8.779685
 30
0.0
 11
19.819286
 21
8.794119
 31
0.0
  0
LINE
  5
1F7
100
AcDbEntity
  8
DEFAULT_1
370
     0
390
0
  6
CL____X1
 62
     1
100
AcDbLine
 10
19.844285
 20
8.779685
 30
0.0
 11
19.844285
 21
7.341119
 31
0.0
  0
LINE
  5
1F8
100
AcDbEntity
  8
DEFAULT_1
370
     0
390
0
  6
CL____X1
 62
     1
100
AcDbLine
 10
19.867786
 20
7.327551
 30
0.0
 11
19.844285
 21
7.341119
 31
0.0
  0
LINE
  5
1F9
100
AcDbEntity
  8
DEFAULT_1
370
     0
390
0
  6
CL____X1
 62
     1
100
AcDbLine
 10
19.867786
 20
7.327551
 30
0.0
 11
19.867786
 21
5.841119
 31
0.0
  0
LINE
  5
1FA
100
AcDbEntity
  8
DEFAULT_1
370
     0
390
0
  6
CL____X1
 62
     1
100
AcDbLine
 10
19.891284
 20
5.827551
 30
0.0
 11
19.867786
 21
5.841119
 31
0.0
  0
LINE
  5
1FB
100
AcDbEntity
  8
DEFAULT_3
370
     0
390
0
  6
Continuous
 62
     1
100
AcDbLine
 10
22.089678
 20
10.888119
 30
0.0
 11
22.528009
 21
10.888119
 31
0.0
  0
LINE
  5
1FC
100
AcDbEntity
  8
DEFAULT_3
370
     0
390
0
  6
Continuous
 62
     1
100
AcDbLine
 10
22.064226
 20
7.325116
 30
0.0
 11
22.528009
 21
7.325116
 31
0.0
  0
LINE
  5
1FD
100
AcDbEntity
  8
DEFAULT_3
370
     0
390
0
  6
Continuous
 62
     1
100
AcDbLine
 10
21.999975
 20
6.825116
 30
0.0
 11
22.528009
 21
6.825116
 31
0.0
  0
LINE
  5
1FE
100
AcDbEntity
  8
DEFAULT_3
370
     0
390
0
  6
Continuous
 62
     1
100
AcDbLine
 10
19.49822
 20
10.606119
 30
0.0
 11
19.315568
 21
10.356554
 31
0.0
  0
LINE
  5
1FF
100
AcDbEntity
  8
DEFAULT_3
370
     0
390
0
  6
Continuous
 62
     1
100
AcDbLine
 10
19.693845
 20
10.606119
 30
0.0
 11
19.49822
 21
10.606119
 31
0.0
  0
LINE
  5
200
100
AcDbEntity
  8
_2D_DELETED_OBJS
370
     0
390
0
  6
Continuous
 62
     7
100
AcDbLine
 10
18.98116
 20
10.508162
 30
0.0
 11
19.061188
 21
10.676497
 31
0.0
  0
LINE
  5
201
100
AcDbEntity
  8
DEFAULT_3
370
     0
390
0
  6
Continuous
 62
     1
100
AcDbLine
 10
19.134672
 20
10.595414
 30
0.0
 11
19.383748
 21
10.595414
 31
0.0
  0
LINE
  5
202
100
AcDbEntity
  8
DEFAULT_3
370
     0
390
0
  6
Continuous
 62
     1
100
AcDbLine
 10
19.739784
 20
10.703495
 30
0.0
 11
19.46285
 21
10.703495
 31
0.0
  0
LINE
  5
203
100
AcDbEntity
  8
DEFAULT_3
370
     0
390
0
  6
Continuous
 62
     1
100
AcDbLine
 10
19.46285
 20
10.703495
 30
0.0
 11
19.383748
 21
10.595414
 31
0.0
  0
LINE
  5
204
100
AcDbEntity
  8
0
370
     0
390
0
  6
Continuous
 62
     1
100
AcDbLine
 10
19.382982
 20
10.814681
 30
0.0
 11
19.256967
 21
10.595414
 31
0.0
  0
LINE
  5
205
100
AcDbEntity
  8
0
370
     0
390
0
  6
Continuous
 62
     1
100
AcDbLine
 10
19.296268
 20
10.814682
 30
0.0
 11
19.382982
 21
10.814681
 31
0.0
  0
LINE
  5
206
100
AcDbEntity
  8
0
370
     0
390
0
  6
Continuous
 62
     1
100
AcDbLine
 10
19.256977
 20
10.595431
 30
0.0
 11
19.204574
 21
10.686195
 31
0.0
  0
LINE
  5
207
100
AcDbEntity
  8
DEFAULT_3
370
     0
390
0
  6
Continuous
 62
     1
100
AcDbLine
 10
19.916077
 20
10.612099
 30
0.0
 11
19.916077
 21
10.825119
 31
0.0
  0
LINE
  5
208
100
AcDbEntity
  8
DEFAULT_1
370
     0
390
0
  6
Continuous
 62
     1
100
AcDbLine
 10
20.141961
 20
10.825119
 30
0.0
 11
19.747024
 21
10.825119
 31
0.0
  0
LINE
  5
209
100
AcDbEntity
  8
DEFAULT_3
370
     0
390
0
  6
Continuous
 62
     1
100
AcDbLine
 10
20.029019
 20
10.872119
 30
0.0
 11
19.743259
 21
10.872119
 31
0.0
  0
TEXT
  5
20A
100
AcDbEntity
  8
_2D_DELETED_OBJS
370
     0
390
0
  6
Continuous
 62
     7
100
AcDbText
 10
22.986809
 20
10.861237
 30
0.0
 40
0.142
  1
LOCATING 
  7
Vcadd_SIMP
100
AcDbText
  0
TEXT
  5
20B
100
AcDbEntity
  8
_2D_DELETED_OBJS
370
     0
390
0
  6
Continuous
 62
     7
100
AcDbText
 10
22.980842
 20
10.660689
 30
0.0
 40
0.142
  1
SHOULDER
  7
Vcadd_SIMP
100
AcDbText
  0
TEXT
  5
20C
100
AcDbEntity
  8
_2D_DELETED_OBJS
370
     0
390
0
  6
Continuous
 62
     7
100
AcDbText
 10
18.957657
 20
10.523326
 30
0.0
 40
0.16275
  1
O
  7
Vcadd_SIMP
100
AcDbText
  0
TEXT
  5
20D
100
AcDbEntity
  8
_2D_DELETED_OBJS
370
     0
390
0
  6
Continuous
 62
     7
100
AcDbText
 10
19.098045
 20
10.707166
 30
0.0
 40
0.103092
  1
63
  7
Vcadd_SIMP
100
AcDbText
  0
TEXT
  5
20E
100
AcDbEntity
  8
_2D_DELETED_OBJS
370
     0
390
0
  6
Continuous
 62
     7
100
AcDbText
 10
18.188965
 20
10.620234
 30
0.0
 40
0.142
  1
1.912
  7
Vcadd_SIMP
100
AcDbText
  0
TEXT
  5
20F
100
AcDbEntity
  8
_2D_DELETED_OBJS
370
     0
390
0
  6
Continuous
 62
     7
100
AcDbText
 10
18.188965
 20
10.442734
 30
0.0
 40
0.142
  1
1.914
  7
Vcadd_SIMP
100
AcDbText
  0
LINE
  5
210
100
AcDbEntity
  8
DEFAULT_1
370
     0
390
0
  6
Continuous
 62
     1
100
AcDbLine
 10
21.956354
 20
6.814335
 30
0.0
 11
21.960262
 21
6.75574
 31
0.0
  0
LINE
  5
211
100
AcDbEntity
  8
DEFAULT_1
370
     0
390
0
  6
Continuous
 62
     1
100
AcDbLine
 10
22.029306
 20
8.335383
 30
0.0
 11
22.010335
 21
8.240559
 31
0.0
  0
LINE
  5
212
100
AcDbEntity
  8
DEFAULT_1
370
     0
390
0
  6
Continuous
 62
     1
100
AcDbLine
 10
21.960987
 20
7.993907
 30
0.0
 11
21.956354
 21
7.970748
 31
0.0
  0
LINE
  5
213
100
AcDbEntity
  8
DEFAULT_1
370
     0
390
0
  6
Continuous
 62
     1
100
AcDbLine
 10
22.026978
 20
9.146945
 30
0.0
 11
22.029306
 21
9.127161
 31
0.0
  0
LINE
  5
214
100
AcDbEntity
  8
DEFAULT_1
370
     0
390
0
  6
Continuous
 62
     1
100
AcDbLine
 10
22.029306
 20
9.502214
 30
0.0
 11
22.018834
 21
9.402764
 31
0.0
  0
LINE
  5
215
100
AcDbEntity
  8
DEFAULT_1
370
     0
390
0
  6
Continuous
 62
     1
100
AcDbLine
 10
22.050148
 20
10.033538
 30
0.0
 11
22.045239
 21
9.945216
 31
0.0
  0
LINE
  5
216
100
AcDbEntity
  8
_2D_DELETED_OBJS
370
     0
390
0
  6
Continuous
 62
     1
100
AcDbLine
 10
22.018834
 20
9.402764
 30
0.0
 11
22.012256
 21
9.308874
 31
0.0
  0
LINE
  5
217
100
AcDbEntity
  8
_2D_DELETED_OBJS
370
     0
390
0
  6
Continuous
 62
     1
100
AcDbLine
 10
22.012256
 20
9.308874
 30
0.0
 11
22.008439
 21
9.233121
 31
0.0
  0
LINE
  5
218
100
AcDbEntity
  8
_2D_DELETED_OBJS
370
     0
390
0
  6
Continuous
 62
     1
100
AcDbLine
 10
22.008439
 20
9.233121
 30
0.0
 11
22.026978
 21
9.146945
 31
0.0
  0
LINE
  5
219
100
AcDbEntity
  8
DEFAULT_1
370
     0
390
0
  6
Continuous
 62
     1
100
AcDbLine
 10
22.039726
 20
11.216876
 30
0.0
 11
22.039726
 21
11.169115
 31
0.0
  0
TEXT
  5
21A
100
AcDbEntity
  8
_2D_DELETED_OBJS
370
     0
390
0
  6
Continuous
 62
     7
100
AcDbText
 10
24.184035
 20
10.766287
 30
0.0
 40
0.142
  1
0.000
  7
Vcadd_SIMP
100
AcDbText
  0
TEXT
  5
21B
100
AcDbEntity
  8
_2D_DELETED_OBJS
370
     0
390
0
  6
Continuous
 62
     7
100
AcDbText
 10
17.387959
 20
10.866886
 30
0.0
 40
0.142
  1
L.S.
  7
Vcadd_SIMP
100
AcDbText
  0
TEXT
  5
21C
100
AcDbEntity
  8
_2D_DELETED_OBJS
370
     0
390
0
  6
Continuous
 62
     7
100
AcDbText
 10
16.578106
 20
10.755153
 30
0.0
 40
0.142
  1
0.000
  7
Vcadd_SIMP
100
AcDbText
  0
INSERT
  5
21D
100
AcDbEntity
  8
_2D_DELETED_OBJS
370
    15
390
0
  6
Continuous
 62
     7
100
AcDbBlockReference
  2
DELTA
 10
18.322997
 20
9.788431
 30
0.0
 42
1.0
  0
TEXT
  5
21E
100
AcDbEntity
  8
_2D_DELETED_OBJS
370
     0
390
0
  6
Continuous
 62
     7
100
AcDbText
 10
17.405479
 20
9.785735
 30
0.0
 40
0.142
  1
THREAD
  7
Vcadd_SIMP
100
AcDbText
  0
TEXT
  5
21F
100
AcDbEntity
  8
_2D_DELETED_OBJS
370
     0
390
0
  6
Continuous
 62
     7
100
AcDbText
 10
17.405479
 20
9.985235
 30
0.0
 40
0.142
  1
MIN. FULL
  7
Vcadd_SIMP
100
AcDbText
  0
TEXT
  5
220
100
AcDbEntity
  8
_2D_DELETED_OBJS
370
     0
390
0
  6
Continuous
 62
     7
100
AcDbText
 10
16.715049
 20
10.28924
 30
0.0
 40
0.142
  1
.219
  7
Vcadd_SIMP
100
AcDbText
  0
LINE
  5
221
100
AcDbEntity
  8
DEFAULT_3
370
     0
390
0
  6
Continuous
 62
     1
100
AcDbLine
 10
19.738696
 20
8.809118
 30
0.0
 11
17.304285
 21
8.809118
 31
0.0
  0
LINE
  5
222
100
AcDbEntity
  8
DEFAULT_3
370
     0
390
0
  6
Continuous
 62
     1
100
AcDbLine
 10
17.304285
 20
9.950118
 30
0.0
 11
19.702784
 21
9.950118
 31
0.0
  0
LINE
  5
223
100
AcDbEntity
  8
DEFAULT_3
370
     0
390
0
  6
Continuous
 62
     1
100
AcDbLine
 10
19.315568
 20
10.356554
 30
0.0
 11
17.304285
 21
10.356554
 31
0.0
  0
TEXT
  5
224
100
AcDbEntity
  8
_2D_DELETED_OBJS
370
     0
390
0
  6
Continuous
 62
     7
100
AcDbText
 10
16.722576
 20
9.898497
 30
0.0
 40
0.142
  1
.875
  7
Vcadd_SIMP
100
AcDbText
  0
TEXT
  5
225
100
AcDbEntity
  8
_2D_DELETED_OBJS
370
     0
390
0
  6
Continuous
 62
     7
100
AcDbText
 10
16.582297
 20
8.742603
 30
0.0
 40
0.142
  1
2.016
  7
Vcadd_SIMP
100
AcDbText
  0
TEXT
  5
226
100
AcDbEntity
  8
_2D_DELETED_OBJS
370
     0
390
0
  6
Continuous
 62
     7
100
AcDbText
 10
16.57477
 20
7.24318
 30
0.0
 40
0.142
  1
3.516
  7
Vcadd_SIMP
100
AcDbText
  0
LINE
  5
227
100
AcDbEntity
  8
DEFAULT_3
370
     0
390
0
  6
Continuous
 62
     1
100
AcDbLine
 10
19.768836
 20
7.309119
 30
0.0
 11
17.280058
 21
7.309116
 31
0.0
  0
TEXT
  5
228
100
AcDbEntity
  8
_2D_DELETED_OBJS
370
     0
390
0
  6
Continuous
 62
     7
100
AcDbText
 10
16.58456
 20
5.739969
 30
0.0
 40
0.142
  1
5.016
  7
Vcadd_SIMP
100
AcDbText
  0
LINE
  5
229
100
AcDbEntity
  8
DEFAULT_3
370
     0
390
0
  6
Continuous
 62
     1
100
AcDbLine
 10
19.791706
 20
5.80912
 30
0.0
 11
17.28785
 21
5.80912
 31
0.0
  0
LINE
  5
22A
100
AcDbEntity
  8
DEFAULT_3
370
     0
390
0
  6
Continuous
 62
     1
100
AcDbLine
 10
19.489549
 20
6.413148
 30
0.0
 11
19.803505
 21
5.869358
 31
0.0
  0
ARC
  5
22B
100
AcDbEntity
  8
_2D_DELETED_OBJS
370
     0
390
0
  6
Continuous
 62
     1
100
AcDbCircle
 10
19.838285
 20
5.80912
 30
0.0
 40
0.61008
100
AcDbArc
 50
66.444835
 51
90.0
  0
ARC
  5
22C
100
AcDbEntity
  8
_2D_DELETED_OBJS
370
     0
390
0
  6
Continuous
 62
     1
100
AcDbCircle
 10
19.838285
 20
5.80912
 30
0.0
 40
0.61008
100
AcDbArc
 50
120.000013
 51
144.460267
  0
LINE
  5
22D
100
AcDbEntity
  8
DEFAULT_3
370
     0
390
0
  6
Continuous
 62
     1
100
AcDbLine
 10
19.466048
 20
7.913147
 30
0.0
 11
19.780005
 21
7.369357
 31
0.0
  0
ARC
  5
22E
100
AcDbEntity
  8
_2D_DELETED_OBJS
370
     0
390
0
  6
Continuous
 62
     1
100
AcDbCircle
 10
19.814784
 20
7.309119
 30
0.0
 40
0.61008
100
AcDbArc
 50
66.444835
 51
90.0
  0
ARC
  5
22F
100
AcDbEntity
  8
_2D_DELETED_OBJS
370
     0
390
0
  6
Continuous
 62
     1
100
AcDbCircle
 10
19.814784
 20
7.309119
 30
0.0
 40
0.61008
100
AcDbArc
 50
120.000013
 51
144.460267
  0
TEXT
  5
230
100
AcDbEntity
  8
_2D_DELETED_OBJS
370
     0
390
0
  6
Continuous
 62
     7
100
AcDbText
 10
18.951155
 20
7.711949
 30
0.0
 40
0.142
  1
30^  
  7
Vcadd_SIMP
100
AcDbText
  0
TEXT
  5
231
100
AcDbEntity
  8
_2D_DELETED_OBJS
370
     0
390
0
  6
Continuous
 62
     7
100
AcDbText
 10
18.951155
 20
7.498949
 30
0.0
 40
0.142
  1
**
  7
Vcadd_SIMP
100
AcDbText
  0
LINE
  5
232
100
AcDbEntity
  8
_2D_DELETED_OBJS
370
     0
390
0
  6
Continuous
 62
     1
100
AcDbLine
 10
19.739784
 20
10.606119
 30
0.0
 11
19.939397
 21
10.606119
 31
0.0
  0
LINE
  5
233
100
AcDbEntity
  8
_2D_DELETED_OBJS
370
     0
390
0
  6
Continuous
 62
     1
100
AcDbLine
 10
19.790283
 20
10.555619
 30
0.0
 11
19.935319
 21
10.555619
 31
0.0
  0
LINE
  5
234
100
AcDbEntity
  8
_2D_DELETED_OBJS
370
     0
390
0
  6
Continuous
 62
     1
100
AcDbLine
 10
19.790283
 20
8.809118
 30
0.0
 11
19.95605
 21
8.809118
 31
0.0
  0
LINE
  5
235
100
AcDbEntity
  8
_2D_DELETED_OBJS
370
     0
390
0
  6
Continuous
 62
     1
100
AcDbLine
 10
19.814784
 20
8.766679
 30
0.0
 11
19.951972
 21
8.766679
 31
0.0
  0
LINE
  5
236
100
AcDbEntity
  8
_2D_DELETED_OBJS
370
     0
390
0
  6
Continuous
 62
     1
100
AcDbLine
 10
19.814784
 20
7.309119
 30
0.0
 11
19.998023
 21
7.309119
 31
0.0
  0
LINE
  5
237
100
AcDbEntity
  8
_2D_DELETED_OBJS
370
     0
390
0
  6
Continuous
 62
     1
100
AcDbLine
 10
19.838285
 20
7.268415
 30
0.0
 11
19.989186
 21
7.268415
 31
0.0
  0
LINE
  5
238
100
AcDbEntity
  8
_2D_DELETED_OBJS
370
     0
390
0
  6
Continuous
 62
     1
100
AcDbLine
 10
19.838285
 20
5.80912
 30
0.0
 11
20.047642
 21
5.80912
 31
0.0
  0
LINE
  5
239
100
AcDbEntity
  8
_2D_DELETED_OBJS
370
     0
390
0
  6
Continuous
 62
     1
100
AcDbLine
 10
19.861785
 20
5.768416
 30
0.0
 11
20.031329
 21
5.768416
 31
0.0
  0
LINE
  5
23A
100
AcDbEntity
  8
DEFAULT_3
370
     0
390
0
  6
Continuous
 62
     1
100
AcDbLine
 10
19.814784
 20
8.766679
 30
0.0
 11
19.59687
 21
8.587087
 31
0.0
  0
LINE
  5
23B
100
AcDbEntity
  8
DEFAULT_3
370
     0
390
0
  6
Continuous
 62
     1
100
AcDbLine
 10
19.321628
 20
8.587087
 30
0.0
 11
19.59687
 21
8.587087
 31
0.0
  0
TEXT
  5
23C
100
AcDbEntity
  8
_2D_DELETED_OBJS
370
     0
390
0
  6
Continuous
 62
     7
100
AcDbText
 10
18.225174
 20
8.577151
 30
0.0
 40
0.142
  1
**
  7
Vcadd_SIMP
100
AcDbText
  0
TEXT
  5
23D
100
AcDbEntity
  8
_2D_DELETED_OBJS
370
     0
390
0
  6
Continuous
 62
     7
100
AcDbText
 10
18.453565
 20
8.526573
 30
0.0
 40
0.142
  1
.020 R
  7
Vcadd_SIMP
100
AcDbText
  0
LINE
  5
23E
100
AcDbEntity
  8
DEFAULT_3
370
     0
390
0
  6
Continuous
 62
     1
100
AcDbLine
 10
19.838285
 20
7.268415
 30
0.0
 11
19.62037
 21
7.088823
 31
0.0
  0
LINE
  5
23F
100
AcDbEntity
  8
DEFAULT_3
370
     0
390
0
  6
Continuous
 62
     1
100
AcDbLine
 10
19.345128
 20
7.088823
 30
0.0
 11
19.62037
 21
7.088823
 31
0.0
  0
TEXT
  5
240
100
AcDbEntity
  8
_2D_DELETED_OBJS
370
     0
390
0
  6
Continuous
 62
     7
100
AcDbText
 10
18.248674
 20
7.078886
 30
0.0
 40
0.142
  1
**
  7
Vcadd_SIMP
100
AcDbText
  0
TEXT
  5
241
100
AcDbEntity
  8
_2D_DELETED_OBJS
370
     0
390
0
  6
Continuous
 62
     7
100
AcDbText
 10
18.477065
 20
7.028309
 30
0.0
 40
0.142
  1
.020 R
  7
Vcadd_SIMP
100
AcDbText
  0
ARC
  5
242
100
AcDbEntity
  8
_2D_DELETED_OBJS
370
     0
390
0
  6
Continuous
 62
     1
100
AcDbCircle
 10
19.790283
 20
10.904816
 30
0.0
 40
0.917209
100
AcDbArc
 50
253.68134
 51
270.0
  0
ARC
  5
243
100
AcDbEntity
  8
_2D_DELETED_OBJS
370
     0
390
0
  6
Continuous
 62
     1
100
AcDbCircle
 10
19.543363
 20
10.802539
 30
0.0
 40
0.917209
100
AcDbArc
 50
315.0
 51
331.377223
  0
LINE
  5
244
100
AcDbEntity
  8
_2D_DELETED_OBJS
370
     0
390
0
  6
Continuous
 62
     1
100
AcDbLine
 10
19.85516
 20
10.490742
 30
0.0
 11
20.290822
 21
10.05508
 31
0.0
  0
TEXT
  5
245
100
AcDbEntity
  8
_2D_DELETED_OBJS
370
     0
390
0
  6
Continuous
 62
     7
100
AcDbText
 10
19.84136
 20
9.962952
 30
0.0
 40
0.142
  1
45^  
  7
Vcadd_SIMP
100
AcDbText
  0
LINE
  5
246
100
AcDbEntity
  8
_2D_DELETED_OBJS
370
     0
390
0
  6
Continuous
 62
     1
100
AcDbLine
 10
19.752784
 20
9.950118
 30
0.0
 11
19.854498
 21
9.950118
 31
0.0
  0
LINE
  5
247
100
AcDbEntity
  8
DEFAULT_3
370
     0
390
0
  6
Continuous
 62
     1
100
AcDbLine
 10
19.790283
 20
9.577722
 30
0.0
 11
19.331028
 21
9.577722
 31
0.0
  0
LINE
  5
248
100
AcDbEntity
  8
DEFAULT_3
370
     0
390
0
  6
Continuous
 62
     1
100
AcDbLine
 10
19.109901
 20
9.577722
 30
0.0
 11
18.43658
 21
9.577722
 31
0.0
  0
TEXT
  5
249
100
AcDbEntity
  8
_2D_DELETED_OBJS
370
     0
390
0
  6
Continuous
 62
     7
100
AcDbText
 10
18.436049
 20
9.602542
 30
0.0
 40
0.142
  1
1.813
  7
Vcadd_SIMP
100
AcDbText
  0
TEXT
  5
24A
100
AcDbEntity
  8
_2D_DELETED_OBJS
370
     0
390
0
  6
Continuous
 62
     7
100
AcDbText
 10
18.436049
 20
9.425042
 30
0.0
 40
0.142
  1
1.817
  7
Vcadd_SIMP
100
AcDbText
  0
LINE
  5
24B
100
AcDbEntity
  8
_2D_DELETED_OBJS
370
     0
390
0
  6
Continuous
 62
     7
100
AcDbLine
 10
19.184527
 20
9.496844
 30
0.0
 11
19.264555
 21
9.665179
 31
0.0
  0
TEXT
  5
24C
100
AcDbEntity
  8
_2D_DELETED_OBJS
370
     0
390
0
  6
Continuous
 62
     7
100
AcDbText
 10
19.161025
 20
9.512009
 30
0.0
 40
0.16275
  1
O
  7
Vcadd_SIMP
100
AcDbText
  0
LINE
  5
24D
100
AcDbEntity
  8
DEFAULT_3
370
     0
390
0
  6
Continuous
 62
     1
100
AcDbLine
 10
19.441547
 20
9.413147
 30
0.0
 11
19.755503
 21
8.869357
 31
0.0
  0
ARC
  5
24E
100
AcDbEntity
  8
_2D_DELETED_OBJS
370
     0
390
0
  6
Continuous
 62
     1
100
AcDbCircle
 10
19.790283
 20
8.809118
 30
0.0
 40
0.61008
100
AcDbArc
 50
66.444835
 51
90.0
  0
ARC
  5
24F
100
AcDbEntity
  8
_2D_DELETED_OBJS
370
     0
390
0
  6
Continuous
 62
     1
100
AcDbCircle
 10
19.790283
 20
8.809118
 30
0.0
 40
0.61008
100
AcDbArc
 50
120.000013
 51
144.460267
  0
TEXT
  5
250
100
AcDbEntity
  8
_2D_DELETED_OBJS
370
     0
390
0
  6
Continuous
 62
     7
100
AcDbText
 10
18.890708
 20
9.1284
 30
0.0
 40
0.142
  1
30^  
  7
Vcadd_SIMP
100
AcDbText
  0
TEXT
  5
251
100
AcDbEntity
  8
_2D_DELETED_OBJS
370
     0
390
0
  6
Continuous
 62
     7
100
AcDbText
 10
18.890708
 20
8.9154
 30
0.0
 40
0.142
  1
**
  7
Vcadd_SIMP
100
AcDbText
  0
LINE
  5
252
100
AcDbEntity
  8
DEFAULT_1
370
     0
390
0
  6
Continuous
 62
     7
100
AcDbLine
 10
16.79257
 20
11.41871
 30
0.0
 11
16.927774
 21
11.41871
 31
0.0
  0
LINE
  5
253
100
AcDbEntity
  8
DEFAULT_1
370
     0
390
0
  6
Continuous
 62
     7
100
AcDbLine
 10
17.042169
 20
11.220564
 30
0.0
 11
16.927774
 21
11.41871
 31
0.0
  0
CIRCLE
  5
254
100
AcDbEntity
  8
DEFAULT_1
370
     0
390
0
  6
Continuous
 62
     1
100
AcDbCircle
 10
16.921812
 20
11.357946
 30
0.0
 40
0.276708
  0
LINE
  5
255
100
AcDbEntity
  8
DEFAULT_1
370
     0
390
0
  6
Continuous
 62
     7
100
AcDbLine
 10
16.79257
 20
11.41871
 30
0.0
 11
16.79257
 21
11.604692
 31
0.0
  0
LINE
  5
256
100
AcDbEntity
  8
DEFAULT_1
370
     0
390
0
  6
Continuous
 62
     7
100
AcDbLine
 10
17.042169
 20
11.108782
 30
0.0
 11
17.042169
 21
11.220564
 31
0.0
  0
LINE
  5
257
100
AcDbEntity
  8
DEFAULT_1
370
     0
390
0
  6
Continuous
 62
     1
100
AcDbLine
 10
16.927774
 20
11.453699
 30
0.0
 11
16.927774
 21
11.97703
 31
0.0
  0
LINE
  5
258
100
AcDbEntity
  8
DEFAULT_1
370
     0
390
0
  6
Continuous
 62
     1
100
AcDbLine
 10
16.6467
 20
11.905546
 30
0.0
 11
16.910623
 21
11.448415
 31
0.0
  0
INSERT
  5
266
100
AcDbEntity
  8
DEFAULT_3
370
    40
390
0
  6
Continuous
 62
     1
100
AcDbBlockReference
  2
MAU
 10
16.927774
 20
11.891706
 30
0.0
 42
-1.0
 50
270.0
  0
LINE
  5
267
100
AcDbEntity
  8
DEFAULT_3
370
     0
390
0
  6
Continuous
 62
     1
100
AcDbLine
 10
17.180457
 20
11.891706
 30
0.0
 11
16.927774
 21
11.891706
 31
0.0
  0
INSERT
  5
275
100
AcDbEntity
  8
DEFAULT_3
370
    53
390
0
  6
Continuous
 62
     1
100
AcDbBlockReference
  2
MAL
 10
16.691774
 20
11.827474
 30
0.0
 42
-1.0
 50
205.0
  0
LINE
  5
276
100
AcDbEntity
  8
DEFAULT_3
370
     0
390
0
  6
Continuous
 62
     1
100
AcDbLine
 10
16.478205
 20
11.716985
 30
0.0
 11
16.691774
 21
11.827474
 31
0.0
  0
INSERT
  5
277
100
AcDbEntity
  8
DEFAULT_3
370
    40
390
0
  6
Continuous
 62
     1
100
AcDbBlockReference
  2
MAU
 10
16.927774
 20
11.533334
 30
0.0
 42
-1.0
 50
270.0
  0
TEXT
  5
278
100
AcDbEntity
  8
_2D_DELETED_OBJS
370
     0
390
0
  6
Continuous
 62
     7
100
AcDbText
 10
17.269455
 20
11.558998
 30
0.0
 40
0.142
  1
1.942
  7
Vcadd_SIMP
100
AcDbText
  0
TEXT
  5
279
100
AcDbEntity
  8
_2D_DELETED_OBJS
370
     0
390
0
  6
Continuous
 62
     7
100
AcDbText
 10
17.269455
 20
11.381498
 30
0.0
 40
0.142
  1
1.944
  7
Vcadd_SIMP
100
AcDbText
  0
LINE
  5
27A
100
AcDbEntity
  8
DEFAULT_3
370
     0
390
0
  6
Continuous
 62
     1
100
AcDbLine
 10
16.927774
 20
11.533334
 30
0.0
 11
17.940397
 21
11.533334
 31
0.0
  0
LINE
  5
27B
100
AcDbEntity
  8
_2D_DELETED_OBJS
370
     0
390
0
  6
Continuous
 62
     7
100
AcDbLine
 10
18.000979
 20
11.44823
 30
0.0
 11
18.081007
 21
11.616564
 31
0.0
  0
TEXT
  5
27C
100
AcDbEntity
  8
_2D_DELETED_OBJS
370
     0
390
0
  6
Continuous
 62
     7
100
AcDbText
 10
17.977477
 20
11.463394
 30
0.0
 40
0.16275
  1
O
  7
Vcadd_SIMP
100
AcDbText
  0
LINE
  5
27E
100
AcDbEntity
  8
_2D_DELETED_OBJS
370
     0
390
0
  6
TYPE___8
 62
     1
100
AcDbLine
 10
17.199626
 20
11.570956
 30
0.0
 11
17.016187
 21
11.617545
 31
0.0
  0
LINE
  5
27F
100
AcDbEntity
  8
_2D_DELETED_OBJS
370
     0
390
0
  6
TYPE___8
 62
     1
100
AcDbLine
 10
17.369632
 20
11.02351
 30
0.0
 11
16.866874
 21
11.086405
 31
0.0
  0
LINE
  5
280
100
AcDbEntity
  8
_2D_DELETED_OBJS
370
     0
390
0
  6
TYPE___8
 62
     1
100
AcDbLine
 10
19.699769
 20
10.732012
 30
0.0
 11
19.439062
 21
10.764626
 31
0.0
  0
LINE
  5
281
100
AcDbEntity
  8
_2D_DELETED_OBJS
370
     0
390
0
  6
TYPE___8
 62
     1
100
AcDbLine
 10
19.020218
 20
10.817023
 30
0.0
 11
17.965214
 21
10.949003
 31
0.0
  0
TEXT
  5
282
100
AcDbEntity
  8
_2D_DELETED_OBJS
370
     0
390
0
  6
Continuous
 62
     7
100
AcDbText
 10
17.225604
 20
11.822973
 30
0.0
 40
0.142
  1
30^ **
  7
Vcadd_SIMP
100
AcDbText
  0
LINE
  5
283
100
AcDbEntity
  8
0
370
     0
390
0
  6
Continuous
 62
     1
100
AcDbLine
 10
19.300964
 20
11.359333
 30
0.0
 11
19.174949
 21
11.140066
 31
0.0
  0
LINE
  5
284
100
AcDbEntity
  8
0
370
     0
390
0
  6
Continuous
 62
     1
100
AcDbLine
 10
19.21425
 20
11.359334
 30
0.0
 11
19.300964
 21
11.359333
 31
0.0
  0
LINE
  5
285
100
AcDbEntity
  8
0
370
     0
390
0
  6
Continuous
 62
     1
100
AcDbLine
 10
19.174958
 20
11.140083
 30
0.0
 11
19.122556
 21
11.230847
 31
0.0
  0
TEXT
  5
286
100
AcDbEntity
  8
_2D_DELETED_OBJS
370
     0
390
0
  6
Continuous
 62
     7
100
AcDbText
 10
19.016027
 20
11.251818
 30
0.0
 40
0.103092
  1
63
  7
Vcadd_SIMP
100
AcDbText
  0
LINE
  5
287
100
AcDbEntity
  8
_2D_DELETED_OBJS
370
     0
390
0
  6
Continuous
 62
     7
100
AcDbLine
 10
18.934403
 20
11.059205
 30
0.0
 11
19.014432
 21
11.22754
 31
0.0
  0
TEXT
  5
288
100
AcDbEntity
  8
_2D_DELETED_OBJS
370
     0
390
0
  6
Continuous
 62
     7
100
AcDbText
 10
18.910901
 20
11.074369
 30
0.0
 40
0.16275
  1
O
  7
Vcadd_SIMP
100
AcDbText
  0
LINE
  5
289
100
AcDbEntity
  8
DEFAULT_3
370
     0
390
0
  6
Continuous
 62
     1
100
AcDbLine
 10
18.846336
 20
11.140083
 30
0.0
 11
18.173015
 21
11.140083
 31
0.0
  0
TEXT
  5
28A
100
AcDbEntity
  8
_2D_DELETED_OBJS
370
     0
390
0
  6
Continuous
 62
     7
100
AcDbText
 10
18.172484
 20
11.164903
 30
0.0
 40
0.142
  1
2.062
  7
Vcadd_SIMP
100
AcDbText
  0
TEXT
  5
28B
100
AcDbEntity
  8
_2D_DELETED_OBJS
370
     0
390
0
  6
Continuous
 62
     7
100
AcDbText
 10
18.172484
 20
10.987402
 30
0.0
 40
0.142
  1
2.064
  7
Vcadd_SIMP
100
AcDbText
  0
LINE
  5
28C
100
AcDbEntity
  8
DEFAULT_3
370
     0
390
0
  6
Continuous
 62
     1
100
AcDbLine
 10
19.666786
 20
11.140083
 30
0.0
 11
19.069118
 21
11.140083
 31
0.0
  0
LINE
  5
28D
100
AcDbEntity
  8
_2D_DELETED_OBJS
370
     0
390
0
  6
TYPE___8
 62
     1
100
AcDbLine
 10
18.152944
 20
11.328838
 30
0.0
 11
18.019082
 21
11.362836
 31
0.0
  0
LINE
  5
28E
100
AcDbEntity
  8
_2D_DELETED_OBJS
370
     0
390
0
  6
TYPE___8
 62
     1
100
AcDbLine
 10
19.760933
 20
10.920452
 30
0.0
 11
19.09063
 21
11.090691
 31
0.0
  0
LINE
  5
28F
100
AcDbEntity
  8
DEFAULT_3
370
     0
390
0
  6
Continuous
 62
     1
100
AcDbLine
 10
18.862817
 20
10.595414
 30
0.0
 11
18.113912
 21
10.595414
 31
0.0
  0
LINE
  5
290
100
AcDbEntity
  8
_2D_DELETED_OBJS
370
     0
390
0
  6
Continuous
 62
     1
100
AcDbLine
 10
18.097463
 20
10.699178
 30
0.0
 11
17.896672
 21
10.699178
 31
0.0
  0
LINE
  5
291
100
AcDbEntity
  8
_2D_DELETED_OBJS
370
     0
390
0
  6
Continuous
 62
     1
100
AcDbLine
 10
18.097463
 20
10.699178
 30
0.0
 11
17.896672
 21
10.699178
 31
0.0
  0
LINE
  5
292
100
AcDbEntity
  8
_2D_DELETED_OBJS
370
     0
390
0
  6
Continuous
 62
     1
100
AcDbLine
 10
18.097463
 20
10.491651
 30
0.0
 11
17.896672
 21
10.491651
 31
0.0
  0
LINE
  5
293
100
AcDbEntity
  8
_2D_DELETED_OBJS
370
     0
390
0
  6
Continuous
 62
     1
100
AcDbLine
 10
17.896672
 20
10.491651
 30
0.0
 11
17.873502
 21
10.491651
 31
0.0
  0
LINE
  5
294
100
AcDbEntity
  8
_2D_DELETED_OBJS
370
     0
390
0
  6
Continuous
 62
     1
100
AcDbLine
 10
17.873502
 20
10.491651
 30
0.0
 11
17.873502
 21
10.699178
 31
0.0
  0
LINE
  5
295
100
AcDbEntity
  8
_2D_DELETED_OBJS
370
     0
390
0
  6
Continuous
 62
     1
100
AcDbLine
 10
17.873502
 20
10.699178
 30
0.0
 11
17.931562
 21
10.699178
 31
0.0
  0
LINE
  5
296
100
AcDbEntity
  8
_2D_DELETED_OBJS
370
     0
390
0
  6
Continuous
 62
     1
100
AcDbLine
 10
18.097463
 20
10.491651
 30
0.0
 11
18.113912
 21
10.491651
 31
0.0
  0
LINE
  5
297
100
AcDbEntity
  8
_2D_DELETED_OBJS
370
     0
390
0
  6
Continuous
 62
     1
100
AcDbLine
 10
18.113912
 20
10.491651
 30
0.0
 11
18.113912
 21
10.699178
 31
0.0
  0
LINE
  5
298
100
AcDbEntity
  8
_2D_DELETED_OBJS
370
     0
390
0
  6
Continuous
 62
     1
100
AcDbLine
 10
18.113912
 20
10.699178
 30
0.0
 11
18.040593
 21
10.699178
 31
0.0
  0
TEXT
  5
299
100
AcDbEntity
  8
_2D_DELETED_OBJS
370
     0
390
0
  6
Continuous
 62
     7
100
AcDbText
 10
17.926686
 20
10.529103
 30
0.0
 40
0.142
  1
A
  7
Vcadd_SIMP
100
AcDbText
  0
LINE
  5
29A
100
AcDbEntity
  8
_2D_DELETED_OBJS
370
     0
390
0
  6
Continuous
 62
     7
100
AcDbLine
 10
18.940416
 20
8.088497
 30
0.0
 11
19.020445
 21
8.256832
 31
0.0
  0
TEXT
  5
29B
100
AcDbEntity
  8
_2D_DELETED_OBJS
370
     0
390
0
  6
Continuous
 62
     7
100
AcDbText
 10
18.916914
 20
8.103661
 30
0.0
 40
0.16275
  1
O
  7
Vcadd_SIMP
100
AcDbText
  0
LINE
  5
29C
100
AcDbEntity
  8
DEFAULT_3
370
     0
390
0
  6
Continuous
 62
     1
100
AcDbLine
 10
18.862586
 20
8.169375
 30
0.0
 11
18.189265
 21
8.169375
 31
0.0
  0
TEXT
  5
29D
100
AcDbEntity
  8
_2D_DELETED_OBJS
370
     0
390
0
  6
Continuous
 62
     7
100
AcDbText
 10
18.188734
 20
8.194195
 30
0.0
 40
0.142
  1
1.766
  7
Vcadd_SIMP
100
AcDbText
  0
TEXT
  5
29E
100
AcDbEntity
  8
_2D_DELETED_OBJS
370
     0
390
0
  6
Continuous
 62
     7
100
AcDbText
 10
18.188734
 20
8.016695
 30
0.0
 40
0.142
  1
1.768
  7
Vcadd_SIMP
100
AcDbText
  0
LINE
  5
29F
100
AcDbEntity
  8
_2D_DELETED_OBJS
370
     0
390
0
  6
Continuous
 62
     7
100
AcDbLine
 10
18.935218
 20
6.628852
 30
0.0
 11
19.015246
 21
6.797187
 31
0.0
  0
TEXT
  5
2A0
100
AcDbEntity
  8
_2D_DELETED_OBJS
370
     0
390
0
  6
Continuous
 62
     7
100
AcDbText
 10
18.911716
 20
6.644017
 30
0.0
 40
0.16275
  1
O
  7
Vcadd_SIMP
100
AcDbText
  0
LINE
  5
2A1
100
AcDbEntity
  8
DEFAULT_3
370
     0
390
0
  6
Continuous
 62
     1
100
AcDbLine
 10
18.85725
 20
6.709731
 30
0.0
 11
18.183928
 21
6.709731
 31
0.0
  0
TEXT
  5
2A2
100
AcDbEntity
  8
_2D_DELETED_OBJS
370
     0
390
0
  6
Continuous
 62
     7
100
AcDbText
 10
18.183398
 20
6.73455
 30
0.0
 40
0.142
  1
1.719
  7
Vcadd_SIMP
100
AcDbText
  0
TEXT
  5
2A3
100
AcDbEntity
  8
_2D_DELETED_OBJS
370
     0
390
0
  6
Continuous
 62
     7
100
AcDbText
 10
18.183398
 20
6.55705
 30
0.0
 40
0.142
  1
1.721
  7
Vcadd_SIMP
100
AcDbText
  0
LINE
  5
2A4
100
AcDbEntity
  8
DEFAULT_3
370
     0
390
0
  6
Continuous
 62
     1
100
AcDbLine
 10
19.838285
 20
6.709731
 30
0.0
 11
19.093597
 21
6.709731
 31
0.0
  0
LINE
  5
2A5
100
AcDbEntity
  8
DEFAULT_3
370
     0
390
0
  6
Continuous
 62
     1
100
AcDbLine
 10
19.814784
 20
8.169375
 30
0.0
 11
19.093597
 21
8.169375
 31
0.0
  0
LINE
  5
2A6
100
AcDbEntity
  8
0
370
     0
390
0
  6
Continuous
 62
     1
100
AcDbLine
 10
19.382982
 20
8.388642
 30
0.0
 11
19.256967
 21
8.169375
 31
0.0
  0
LINE
  5
2A7
100
AcDbEntity
  8
0
370
     0
390
0
  6
Continuous
 62
     1
100
AcDbLine
 10
19.296268
 20
8.388643
 30
0.0
 11
19.382982
 21
8.388642
 31
0.0
  0
LINE
  5
2A8
100
AcDbEntity
  8
0
370
     0
390
0
  6
Continuous
 62
     1
100
AcDbLine
 10
19.256977
 20
8.169392
 30
0.0
 11
19.204574
 21
8.260156
 31
0.0
  0
TEXT
  5
2A9
100
AcDbEntity
  8
_2D_DELETED_OBJS
370
     0
390
0
  6
Continuous
 62
     7
100
AcDbText
 10
19.098045
 20
8.281127
 30
0.0
 40
0.103092
  1
63
  7
Vcadd_SIMP
100
AcDbText
  0
LINE
  5
2AA
100
AcDbEntity
  8
0
370
     0
390
0
  6
Continuous
 62
     1
100
AcDbLine
 10
19.382982
 20
6.928998
 30
0.0
 11
19.256967
 21
6.709731
 31
0.0
  0
LINE
  5
2AB
100
AcDbEntity
  8
0
370
     0
390
0
  6
Continuous
 62
     1
100
AcDbLine
 10
19.296268
 20
6.928999
 30
0.0
 11
19.382982
 21
6.928998
 31
0.0
  0
LINE
  5
2AC
100
AcDbEntity
  8
0
370
     0
390
0
  6
Continuous
 62
     1
100
AcDbLine
 10
19.256977
 20
6.709748
 30
0.0
 11
19.204574
 21
6.800512
 31
0.0
  0
TEXT
  5
2AD
100
AcDbEntity
  8
_2D_DELETED_OBJS
370
     0
390
0
  6
Continuous
 62
     7
100
AcDbText
 10
19.098045
 20
6.821482
 30
0.0
 40
0.103092
  1
63
  7
Vcadd_SIMP
100
AcDbText
  0
TEXT
  5
2AE
100
AcDbEntity
  8
_2D_DELETED_OBJS
370
     0
390
0
  6
Continuous
 62
     7
100
AcDbText
 10
19.036928
 20
6.323474
 30
0.0
 40
0.142
  1
30^  
  7
Vcadd_SIMP
100
AcDbText
  0
TEXT
  5
2AF
100
AcDbEntity
  8
_2D_DELETED_OBJS
370
     0
390
0
  6
Continuous
 62
     7
100
AcDbText
 10
19.036928
 20
6.110474
 30
0.0
 40
0.142
  1
**
  7
Vcadd_SIMP
100
AcDbText
  0
LINE
  5
2B0
100
AcDbEntity
  8
DEFAULT_3
370
     0
390
0
  6
Continuous
 62
     1
100
AcDbLine
 10
18.917989
 20
6.052028
 30
0.0
 11
19.19323
 21
6.052028
 31
0.0
  0
TEXT
  5
2B1
100
AcDbEntity
  8
_2D_DELETED_OBJS
370
     0
390
0
  6
Continuous
 62
     7
100
AcDbText
 10
17.821534
 20
6.042092
 30
0.0
 40
0.142
  1
**
  7
Vcadd_SIMP
100
AcDbText
  0
TEXT
  5
2B2
100
AcDbEntity
  8
_2D_DELETED_OBJS
370
     0
390
0
  6
Continuous
 62
     7
100
AcDbText
 10
18.049925
 20
5.991514
 30
0.0
 40
0.142
  1
.020 R
  7
Vcadd_SIMP
100
AcDbText
  0
LINE
  5
2B3
100
AcDbEntity
  8
_2D_DELETED_OBJS
370
     0
390
0
  6
Continuous
 62
     1
100
AcDbLine
 10
19.861785
 20
5.768416
 30
0.0
 11
19.61194
 21
5.642623
 31
0.0
  0
LINE
  5
2B4
100
AcDbEntity
  8
_2D_DELETED_OBJS
370
     0
390
0
  6
Continuous
 62
     1
100
AcDbLine
 10
19.61194
 20
5.642623
 30
0.0
 11
19.19323
 21
6.052028
 31
0.0
  0
LINE
  5
2B5
100
AcDbEntity
  8
_2D_DELETED_OBJS
370
     0
390
0
  6
Continuous
 62
     1
100
AcDbLine
 10
17.120622
 20
11.41871
 30
0.0
 11
17.308419
 21
11.200318
 31
0.0
  0
LINE
  5
2B6
100
AcDbEntity
  8
_2D_DELETED_OBJS
370
     0
390
0
  6
Continuous
 62
     1
100
AcDbLine
 10
16.988938
 20
11.41871
 30
0.0
 11
17.120622
 21
11.41871
 31
0.0
  0
TEXT
  5
2B7
100
AcDbEntity
  8
_2D_DELETED_OBJS
370
     0
390
0
  6
Continuous
 62
     7
100
AcDbText
 10
17.479749
 20
11.130255
 30
0.0
 40
0.142
  1
L.S.
  7
Vcadd_SIMP
100
AcDbText
  0
LINE
  5
2B8
100
AcDbEntity
  8
_2D_DELETED_OBJS
370
     0
390
0
  6
Continuous
 62
     1
100
AcDbLine
 10
17.308419
 20
11.200318
 30
0.0
 11
17.412209
 21
11.200318
 31
0.0
  0
INSERT
  5
2D8
100
AcDbEntity
  8
_2D_DELETED_OBJS
370
    30
390
0
  6
Continuous
 62
     7
100
AcDbBlockReference
  2
ARROW
 10
22.45801
 20
10.888119
 30
0.0
 42
1.0
 50
270.0
  0
INSERT
  5
2D9
100
AcDbEntity
  8
DEFAULT_3
370
    30
390
0
  6
Continuous
 62
     7
100
AcDbBlockReference
  2
ARROW
 10
22.45801
 20
7.325116
 30
0.0
 42
1.0
 50
270.0
  0
INSERT
  5
2DA
100
AcDbEntity
  8
DEFAULT_3
370
    30
390
0
  6
Continuous
 62
     7
100
AcDbBlockReference
  2
ARROW
 10
22.45801
 20
6.825116
 30
0.0
 42
1.0
 50
90.0
  0
INSERT
  5
2DB
100
AcDbEntity
  8
DEFAULT_3
370
    30
390
0
  6
Continuous
 62
     7
100
AcDbBlockReference
  2
ARROW
 10
19.739784
 20
10.703495
 30
0.0
 42
1.0
  0
INSERT
  5
2DC
100
AcDbEntity
  8
DEFAULT_3
370
    30
390
0
  6
Continuous
 62
     7
100
AcDbBlockReference
  2
ARROW
 10
19.916077
 20
10.872119
 30
0.0
 42
1.0
 50
270.0
  0
INSERT
  5
2DD
100
AcDbEntity
  8
DEFAULT_3
370
    30
390
0
  6
Continuous
 62
     7
100
AcDbBlockReference
  2
ARROW
 10
19.916077
 20
10.825119
 30
0.0
 42
1.0
 50
90.0
  0
INSERT
  5
2DE
100
AcDbEntity
  8
_2D_DELETED_OBJS
370
     0
390
0
  6
Continuous
 62
     1
100
AcDbBlockReference
  2
ARROW
 10
19.533245
 20
6.337464
 30
0.0
 41
1.0
 42
1.0
 50
37.608807
  0
INSERT
  5
2DF
100
AcDbEntity
  8
_2D_DELETED_OBJS
370
     0
390
0
  6
Continuous
 62
     1
100
AcDbBlockReference
  2
ARROW
 10
19.838285
 20
6.4192
 30
0.0
 41
1.0
 42
1.0
 50
170.491468
  0
INSERT
  5
2E0
100
AcDbEntity
  8
_2D_DELETED_OBJS
370
     0
390
0
  6
Continuous
 62
     1
100
AcDbBlockReference
  2
ARROW
 10
19.509744
 20
7.837463
 30
0.0
 41
1.0
 42
1.0
 50
37.608807
  0
INSERT
  5
2E1
100
AcDbEntity
  8
_2D_DELETED_OBJS
370
     0
390
0
  6
Continuous
 62
     1
100
AcDbBlockReference
  2
ARROW
 10
19.814784
 20
7.919199
 30
0.0
 41
1.0
 42
1.0
 50
170.491468
  0
INSERT
  5
2E2
100
AcDbEntity
  8
DEFAULT_3
370
    30
390
0
  6
Continuous
 62
     7
100
AcDbBlockReference
  2
ARROW
 10
19.814784
 20
8.766679
 30
0.0
 42
1.0
 50
39.493301
  0
INSERT
  5
2E3
100
AcDbEntity
  8
DEFAULT_3
370
    30
390
0
  6
Continuous
 62
     7
100
AcDbBlockReference
  2
ARROW
 10
19.838285
 20
7.268415
 30
0.0
 42
1.0
 50
39.493301
  0
INSERT
  5
2E4
100
AcDbEntity
  8
_2D_DELETED_OBJS
370
     0
390
0
  6
Continuous
 62
     1
100
AcDbBlockReference
  2
ARROW
 10
19.790283
 20
9.987606
 30
0.0
 41
1.0
 42
1.0
 50
354.096823
  0
INSERT
  5
2E5
100
AcDbEntity
  8
_2D_DELETED_OBJS
370
     0
390
0
  6
Continuous
 62
     1
100
AcDbBlockReference
  2
ARROW
 10
20.191928
 20
10.153974
 30
0.0
 41
1.0
 42
1.0
 50
231.774637
  0
INSERT
  5
2E6
100
AcDbEntity
  8
DEFAULT_3
370
    30
390
0
  6
Continuous
 62
     7
100
AcDbBlockReference
  2
ARROW
 10
19.790283
 20
9.577722
 30
0.0
 42
1.0
  0
INSERT
  5
2E7
100
AcDbEntity
  8
_2D_DELETED_OBJS
370
     0
390
0
  6
Continuous
 62
     1
100
AcDbBlockReference
  2
ARROW
 10
19.485242
 20
9.337463
 30
0.0
 41
1.0
 42
1.0
 50
37.608807
  0
INSERT
  5
2E8
100
AcDbEntity
  8
_2D_DELETED_OBJS
370
     0
390
0
  6
Continuous
 62
     1
100
AcDbBlockReference
  2
ARROW
 10
19.790283
 20
9.419198
 30
0.0
 41
1.0
 42
1.0
 50
170.491468
  0
INSERT
  5
2E9
100
AcDbEntity
  8
DEFAULT_3
370
    30
390
0
  6
Continuous
 62
     7
100
AcDbBlockReference
  2
ARROW
 10
19.814784
 20
8.169375
 30
0.0
 42
1.0
  0
INSERT
  5
2EA
100
AcDbEntity
  8
DEFAULT_3
370
    30
390
0
  6
Continuous
 62
     7
100
AcDbBlockReference
  2
ARROW
 10
19.838285
 20
6.709731
 30
0.0
 42
1.0
  0
INSERT
  5
2EB
100
AcDbEntity
  8
DEFAULT_3
370
    30
390
0
  6
Continuous
 62
     7
100
AcDbBlockReference
  2
ARROW
 10
19.666786
 20
11.140083
 30
0.0
 42
1.0
  0
INSERT
  5
2EC
100
AcDbEntity
  8
_2D_DELETED_OBJS
370
     0
390
0
  6
Continuous
 62
     1
100
AcDbBlockReference
  2
ARROW
 10
19.861785
 20
5.768416
 30
0.0
 41
1.0
 42
1.0
 50
26.724472
  0
LINE
  5
2ED
100
AcDbEntity
  8
DEFAULT_1
370
     0
390
0
  6
Continuous
 62
     1
100
AcDbLine
 10
21.532282
 20
5.768416
 30
0.0
 11
21.532282
 21
4.227352
 31
0.0
  0
LINE
  5
2EE
100
AcDbEntity
  8
DEFAULT_1
370
     0
390
0
  6
Continuous
 62
     1
100
AcDbLine
 10
21.510784
 20
3.757116
 30
0.0
 11
21.490784
 21
3.737116
 31
0.0
  0
LINE
  5
2EF
100
AcDbEntity
  8
DEFAULT_1
370
     0
390
0
  6
Continuous
 62
     1
100
AcDbLine
 10
21.510784
 20
4.190117
 30
0.0
 11
21.510784
 21
3.757116
 31
0.0
  0
LINE
  5
2F0
100
AcDbEntity
  8
DEFAULT_1
370
     0
390
0
  6
Continuous
 62
     1
100
AcDbLine
 10
21.510784
 20
4.190117
 30
0.0
 11
21.532282
 21
4.227352
 31
0.0
  0
LINE
  5
2F1
100
AcDbEntity
  8
DEFAULT_1
370
     0
390
0
  6
Continuous
 62
     1
100
AcDbLine
 10
20.697784
 20
3.737116
 30
0.0
 11
21.490784
 21
3.737116
 31
0.0
  0
LINE
  5
2F2
100
AcDbEntity
  8
DEFAULT_1
370
     0
390
0
  6
Continuous
 62
     7
100
AcDbLine
 10
19.884784
 20
3.757116
 30
0.0
 11
19.904784
 21
3.737116
 31
0.0
  0
LINE
  5
2F3
100
AcDbEntity
  8
DEFAULT_1
370
     0
390
0
  6
Continuous
 62
     7
100
AcDbLine
 10
19.884784
 20
4.190117
 30
0.0
 11
19.884784
 21
3.757116
 31
0.0
  0
LINE
  5
2F4
100
AcDbEntity
  8
DEFAULT_1
370
     0
390
0
  6
Continuous
 62
     7
100
AcDbLine
 10
19.861785
 20
5.768416
 30
0.0
 11
19.861785
 21
4.229952
 31
0.0
  0
LINE
  5
2F5
100
AcDbEntity
  8
DEFAULT_1
370
     0
390
0
  6
Continuous
 62
     7
100
AcDbLine
 10
19.884784
 20
4.190117
 30
0.0
 11
19.861785
 21
4.229952
 31
0.0
  0
LINE
  5
2F6
100
AcDbEntity
  8
DEFAULT_1
370
     0
390
0
  6
Continuous
 62
     1
100
AcDbLine
 10
21.903616
 20
4.948573
 30
0.0
 11
21.913757
 21
4.690451
 31
0.0
  0
LINE
  5
2F7
100
AcDbEntity
  8
DEFAULT_1
370
     0
390
0
  6
Continuous
 62
     1
100
AcDbLine
 10
21.913757
 20
4.690451
 30
0.0
 11
21.939111
 21
4.52843
 31
0.0
  0
LINE
  5
2F8
100
AcDbEntity
  8
DEFAULT_1
370
     0
390
0
  6
Continuous
 62
     1
100
AcDbLine
 10
21.939111
 20
4.52843
 30
0.0
 11
21.946596
 21
4.37655
 31
0.0
  0
LINE
  5
2F9
100
AcDbEntity
  8
DEFAULT_1
370
     0
390
0
  6
Continuous
 62
     1
100
AcDbLine
 10
21.946596
 20
4.37655
 30
0.0
 11
21.944181
 21
4.285519
 31
0.0
  0
LINE
  5
2FA
100
AcDbEntity
  8
DEFAULT_1
370
     0
390
0
  6
Continuous
 62
     1
100
AcDbLine
 10
21.944181
 20
4.285519
 30
0.0
 11
21.921242
 21
4.130984
 31
0.0
  0
LINE
  5
2FB
100
AcDbEntity
  8
DEFAULT_1
370
     0
390
0
  6
Continuous
 62
     1
100
AcDbLine
 10
21.921242
 20
4.130984
 30
0.0
 11
21.888404
 21
4.01967
 31
0.0
  0
LINE
  5
2FC
100
AcDbEntity
  8
DEFAULT_1
370
     0
390
0
  6
Continuous
 62
     1
100
AcDbLine
 10
21.888404
 20
4.01967
 30
0.0
 11
21.819828
 21
3.880588
 31
0.0
  0
LINE
  5
2FD
100
AcDbEntity
  8
DEFAULT_1
370
     0
390
0
  6
Continuous
 62
     1
100
AcDbLine
 10
21.819828
 20
3.880588
 30
0.0
 11
21.802202
 21
3.763962
 31
0.0
  0
LINE
  5
2FE
100
AcDbEntity
  8
DEFAULT_1
370
     0
390
0
  6
Continuous
 62
     1
100
AcDbLine
 10
21.802202
 20
3.763962
 30
0.0
 11
21.807272
 21
3.640092
 31
0.0
  0
LINE
  5
2FF
100
AcDbEntity
  8
DEFAULT_1
370
     0
390
0
  6
Continuous
 62
     1
100
AcDbLine
 10
21.940856
 20
4.263118
 30
0.0
 11
21.532282
 21
4.263118
 31
0.0
  0
LINE
  5
300
100
AcDbEntity
  8
DEFAULT_1
370
     0
390
0
  6
Continuous
 62
     1
100
AcDbLine
 10
21.510784
 20
3.93238
 30
0.0
 11
21.84152
 21
4.263118
 31
0.0
  0
LINE
  5
301
100
AcDbEntity
  8
DEFAULT_1
370
     0
390
0
  6
Continuous
 62
     1
100
AcDbLine
 10
21.510784
 20
4.020769
 30
0.0
 11
21.753132
 21
4.263118
 31
0.0
  0
LINE
  5
302
100
AcDbEntity
  8
DEFAULT_1
370
     0
390
0
  6
Continuous
 62
     1
100
AcDbLine
 10
21.510784
 20
4.109157
 30
0.0
 11
21.664745
 21
4.263118
 31
0.0
  0
LINE
  5
303
100
AcDbEntity
  8
DEFAULT_1
370
     0
390
0
  6
Continuous
 62
     1
100
AcDbLine
 10
21.520935
 20
4.207698
 30
0.0
 11
21.576357
 21
4.263118
 31
0.0
  0
LINE
  5
304
100
AcDbEntity
  8
DEFAULT_1
370
     0
390
0
  6
Continuous
 62
     1
100
AcDbLine
 10
21.702825
 20
3.423062
 30
0.0
 11
21.691463
 21
3.403756
 31
0.0
  0
LINE
  5
305
100
AcDbEntity
  8
DEFAULT_1
370
     0
390
0
  6
Continuous
 62
     1
100
AcDbLine
 10
21.691463
 20
3.403756
 30
0.0
 11
21.667805
 21
3.378135
 31
0.0
  0
LINE
  5
306
100
AcDbEntity
  8
DEFAULT_1
370
     0
390
0
  6
Continuous
 62
     1
100
AcDbLine
 10
21.667805
 20
3.378135
 30
0.0
 11
21.64809
 21
3.364339
 31
0.0
  0
LINE
  5
307
100
AcDbEntity
  8
DEFAULT_1
370
     0
390
0
  6
Continuous
 62
     1
100
AcDbLine
 10
21.64809
 20
3.364339
 30
0.0
 11
21.614572
 21
3.352513
 31
0.0
  0
LINE
  5
308
100
AcDbEntity
  8
DEFAULT_1
370
     0
390
0
  6
Continuous
 62
     1
100
AcDbLine
 10
21.614572
 20
3.352513
 30
0.0
 11
21.592886
 21
3.342659
 31
0.0
  0
LINE
  5
309
100
AcDbEntity
  8
DEFAULT_1
370
     0
390
0
  6
Continuous
 62
     1
100
AcDbLine
 10
21.592886
 20
3.342659
 30
0.0
 11
21.55937
 21
3.330834
 31
0.0
  0
LINE
  5
30A
100
AcDbEntity
  8
DEFAULT_1
370
     0
390
0
  6
Continuous
 62
     1
100
AcDbLine
 10
21.55937
 20
3.330834
 30
0.0
 11
21.531769
 21
3.311124
 31
0.0
  0
LINE
  5
30B
100
AcDbEntity
  8
DEFAULT_1
370
     0
390
0
  6
Continuous
 62
     1
100
AcDbLine
 10
21.531769
 20
3.311124
 30
0.0
 11
21.492338
 21
3.285503
 31
0.0
  0
LINE
  5
30C
100
AcDbEntity
  8
DEFAULT_1
370
     0
390
0
  6
Continuous
 62
     1
100
AcDbLine
 10
21.492338
 20
3.285503
 30
0.0
 11
21.460792
 21
3.263823
 31
0.0
  0
LINE
  5
30D
100
AcDbEntity
  8
DEFAULT_1
370
     0
390
0
  6
Continuous
 62
     1
100
AcDbLine
 10
21.460792
 20
3.263823
 30
0.0
 11
21.427277
 21
3.242143
 31
0.0
  0
LINE
  5
30E
100
AcDbEntity
  8
DEFAULT_1
370
     0
390
0
  6
Continuous
 62
     1
100
AcDbLine
 10
21.427277
 20
3.242143
 30
0.0
 11
21.393761
 21
3.224404
 31
0.0
  0
LINE
  5
30F
100
AcDbEntity
  8
DEFAULT_1
370
     0
390
0
  6
Continuous
 62
     1
100
AcDbLine
 10
21.393761
 20
3.224404
 30
0.0
 11
21.360245
 21
3.208637
 31
0.0
  0
LINE
  5
310
100
AcDbEntity
  8
DEFAULT_1
370
     0
390
0
  6
Continuous
 62
     1
100
AcDbLine
 10
21.360245
 20
3.208637
 30
0.0
 11
21.322784
 21
3.196812
 31
0.0
  0
LINE
  5
311
100
AcDbEntity
  8
DEFAULT_1
370
     0
390
0
  6
Continuous
 62
     1
100
AcDbLine
 10
21.807272
 20
3.640092
 30
0.0
 11
21.806544
 21
3.584399
 31
0.0
  0
LINE
  5
312
100
AcDbEntity
  8
DEFAULT_1
370
     0
390
0
  6
Continuous
 62
     1
100
AcDbLine
 10
21.806544
 20
3.584399
 30
0.0
 11
21.793902
 21
3.533829
 31
0.0
  0
LINE
  5
313
100
AcDbEntity
  8
DEFAULT_1
370
     0
390
0
  6
Continuous
 62
     1
100
AcDbLine
 10
21.793902
 20
3.533829
 30
0.0
 11
21.752813
 21
3.488075
 31
0.0
  0
LINE
  5
314
100
AcDbEntity
  8
DEFAULT_1
370
     0
390
0
  6
Continuous
 62
     1
100
AcDbLine
 10
21.752813
 20
3.488075
 30
0.0
 11
21.732345
 21
3.473927
 31
0.0
  0
LINE
  5
315
100
AcDbEntity
  8
DEFAULT_1
370
     0
390
0
  6
Continuous
 62
     1
100
AcDbLine
 10
21.732345
 20
3.473927
 30
0.0
 11
21.702825
 21
3.423062
 31
0.0
  0
LINE
  5
316
100
AcDbEntity
  8
DEFAULT_1
370
     0
390
0
  6
Continuous
 62
     1
100
AcDbLine
 10
21.322784
 20
3.302441
 30
0.0
 11
21.805388
 21
3.785043
 31
0.0
  0
LINE
  5
317
100
AcDbEntity
  8
DEFAULT_1
370
     0
390
0
  6
Continuous
 62
     1
100
AcDbLine
 10
21.826913
 20
3.894956
 30
0.0
 11
21.322784
 21
3.390827
 31
0.0
  0
LINE
  5
318
100
AcDbEntity
  8
DEFAULT_1
370
     0
390
0
  6
Continuous
 62
     1
100
AcDbLine
 10
21.322784
 20
3.479217
 30
0.0
 11
21.898934
 21
4.055366
 31
0.0
  0
LINE
  5
319
100
AcDbEntity
  8
DEFAULT_1
370
     0
390
0
  6
Continuous
 62
     1
100
AcDbLine
 10
21.322784
 20
3.567606
 30
0.0
 11
21.927357
 21
4.172176
 31
0.0
  0
LINE
  5
31A
100
AcDbEntity
  8
DEFAULT_1
370
     0
390
0
  6
Continuous
 62
     1
100
AcDbLine
 10
21.510784
 20
3.843992
 30
0.0
 11
21.929909
 21
4.263118
 31
0.0
  0
LINE
  5
31B
100
AcDbEntity
  8
DEFAULT_1
370
     0
390
0
  6
Continuous
 62
     1
100
AcDbLine
 10
21.322784
 20
3.655991
 30
0.0
 11
21.403909
 21
3.737116
 31
0.0
  0
LINE
  5
31C
100
AcDbEntity
  8
DEFAULT_1
370
     0
390
0
  6
Continuous
 62
     1
100
AcDbLine
 10
21.461277
 20
3.264155
 30
0.0
 11
21.806876
 21
3.609754
 31
0.0
  0
LINE
  5
31D
100
AcDbEntity
  8
DEFAULT_1
370
     0
390
0
  6
Continuous
 62
     1
100
AcDbLine
 10
21.322784
 20
3.214049
 30
0.0
 11
21.804974
 21
3.696241
 31
0.0
  0
LINE
  5
31E
100
AcDbEntity
  8
DEFAULT_1
370
     0
390
0
  6
CL____X1
 62
     1
100
AcDbLine
 10
19.914785
 20
4.248384
 30
0.0
 11
19.891286
 21
4.261952
 31
0.0
  0
LINE
  5
31F
100
AcDbEntity
  8
DEFAULT_1
370
     0
390
0
  6
CL____X1
 62
     1
100
AcDbLine
 10
19.891284
 20
5.827551
 30
0.0
 11
19.891284
 21
4.261953
 31
0.0
  0
LINE
  5
320
100
AcDbEntity
  8
DEFAULT_3
370
     0
390
0
  6
Continuous
 62
     1
100
AcDbLine
 10
17.246794
 20
3.737116
 30
0.0
 11
16.569189
 21
3.737116
 31
0.0
  0
LINE
  5
321
100
AcDbEntity
  8
DEFAULT_3
370
     0
390
0
  6
Continuous
 62
     1
100
AcDbLine
 10
19.817603
 20
3.737116
 30
0.0
 11
17.299862
 21
3.737116
 31
0.0
  0
TEXT
  5
322
100
AcDbEntity
  8
_2D_DELETED_OBJS
370
     0
390
0
  6
Continuous
 62
     7
100
AcDbText
 10
16.580074
 20
3.760795
 30
0.0
 40
0.142
  1
7.086
  7
Vcadd_SIMP
100
AcDbText
  0
TEXT
  5
323
100
AcDbEntity
  8
_2D_DELETED_OBJS
370
     0
390
0
  6
Continuous
 62
     7
100
AcDbText
 10
16.580074
 20
3.583295
 30
0.0
 40
0.142
  1
7.090
  7
Vcadd_SIMP
100
AcDbText
  0
LINE
  5
324
100
AcDbEntity
  8
DEFAULT_3
370
     0
390
0
  6
Continuous
 62
     1
100
AcDbLine
 10
19.791706
 20
4.229952
 30
0.0
 11
17.28785
 21
4.229952
 31
0.0
  0
TEXT
  5
325
100
AcDbEntity
  8
_2D_DELETED_OBJS
370
     0
390
0
  6
Continuous
 62
     7
100
AcDbText
 10
16.58456
 20
4.160801
 30
0.0
 40
0.142
  1
6.595
  7
Vcadd_SIMP
100
AcDbText
  0
LINE
  5
326
100
AcDbEntity
  8
_2D_DELETED_OBJS
370
     0
390
0
  6
Continuous
 62
     7
100
AcDbLine
 10
18.941164
 20
3.864134
 30
0.0
 11
19.021193
 21
4.032469
 31
0.0
  0
TEXT
  5
327
100
AcDbEntity
  8
_2D_DELETED_OBJS
370
     0
390
0
  6
Continuous
 62
     7
100
AcDbText
 10
18.917662
 20
3.879298
 30
0.0
 40
0.16275
  1
O
  7
Vcadd_SIMP
100
AcDbText
  0
LINE
  5
328
100
AcDbEntity
  8
DEFAULT_3
370
     0
390
0
  6
Continuous
 62
     1
100
AcDbLine
 10
18.85725
 20
3.945012
 30
0.0
 11
18.183928
 21
3.945012
 31
0.0
  0
LINE
  5
329
100
AcDbEntity
  8
0
370
     0
390
0
  6
Continuous
 62
     1
100
AcDbLine
 10
19.382982
 20
4.164279
 30
0.0
 11
19.256967
 21
3.945012
 31
0.0
  0
LINE
  5
32A
100
AcDbEntity
  8
0
370
     0
390
0
  6
Continuous
 62
     1
100
AcDbLine
 10
19.296268
 20
4.16428
 30
0.0
 11
19.382982
 21
4.164279
 31
0.0
  0
LINE
  5
32B
100
AcDbEntity
  8
0
370
     0
390
0
  6
Continuous
 62
     1
100
AcDbLine
 10
19.256977
 20
3.945029
 30
0.0
 11
19.204574
 21
4.035793
 31
0.0
  0
TEXT
  5
32C
100
AcDbEntity
  8
_2D_DELETED_OBJS
370
     0
390
0
  6
Continuous
 62
     7
100
AcDbText
 10
19.098045
 20
4.056764
 30
0.0
 40
0.103092
  1
63
  7
Vcadd_SIMP
100
AcDbText
  0
LINE
  5
32D
100
AcDbEntity
  8
DEFAULT_3
370
     0
390
0
  6
Continuous
 62
     1
100
AcDbLine
 10
19.884784
 20
3.945012
 30
0.0
 11
19.093597
 21
3.945012
 31
0.0
  0
INSERT
  5
32E
100
AcDbEntity
  8
DEFAULT_3
370
    30
390
0
  6
Continuous
 62
     7
100
AcDbBlockReference
  2
ARROW
 10
19.884784
 20
3.945012
 30
0.0
 42
1.0
  0
TEXT
  5
32F
100
AcDbEntity
  8
_2D_DELETED_OBJS
370
     0
390
0
  6
Continuous
 62
     7
100
AcDbText
 10
18.183398
 20
3.969831
 30
0.0
 40
0.142
  1
1.625
  7
Vcadd_SIMP
100
AcDbText
  0
TEXT
  5
330
100
AcDbEntity
  8
_2D_DELETED_OBJS
370
     0
390
0
  6
Continuous
 62
     7
100
AcDbText
 10
18.183398
 20
3.792331
 30
0.0
 40
0.142
  1
1.627
  7
Vcadd_SIMP
100
AcDbText
  0
LINE
  5
331
100
AcDbEntity
  8
DEFAULT_1
370
     0
390
0
  6
Continuous
 62
     1
100
AcDbLine
 10
22.367319
 20
3.737116
 30
0.0
 11
22.367319
 21
3.737116
 31
0.0
  0
TEXT
  5
332
100
AcDbEntity
  8
_2D_DELETED_OBJS
370
     0
390
0
  6
Continuous
 62
     7
100
AcDbText
 10
23.428524
 20
3.72917
 30
0.0
 40
0.142
  1
SUPPORT
  7
Vcadd_SIMP
100
AcDbText
  0
TEXT
  5
333
100
AcDbEntity
  8
_2D_DELETED_OBJS
370
     0
390
0
  6
Continuous
 62
     7
100
AcDbText
 10
22.877663
 20
3.906669
 30
0.0
 40
0.142
  1
CARTRIDGE NOSE
  7
Vcadd_SIMP
100
AcDbText
  0
LINE
  5
334
100
AcDbEntity
  8
DEFAULT_3
370
     0
390
0
  6
Continuous
 62
     1
100
AcDbLine
 10
22.388811
 20
3.737116
 30
0.0
 11
22.714474
 21
3.97522
 31
0.0
  0
LINE
  5
335
100
AcDbEntity
  8
DEFAULT_3
370
     0
390
0
  6
Continuous
 62
     1
100
AcDbLine
 10
22.813703
 20
3.97522
 30
0.0
 11
22.714474
 21
3.97522
 31
0.0
  0
LINE
  5
336
100
AcDbEntity
  8
DEFAULT_3
370
     0
390
0
  6
Continuous
 62
     1
100
AcDbLine
 10
21.572714
 20
3.737116
 30
0.0
 11
22.388811
 21
3.737116
 31
0.0
  0
LINE
  5
337
100
AcDbEntity
  8
DEFAULT_3
370
     0
390
0
  6
Continuous
 62
     1
100
AcDbLine
 10
21.999975
 20
4.263118
 30
0.0
 11
22.528009
 21
4.263118
 31
0.0
  0
TEXT
  5
338
100
AcDbEntity
  8
_2D_DELETED_OBJS
370
     0
390
0
  6
Continuous
 62
     7
100
AcDbText
 10
21.843734
 20
4.982584
 30
0.0
 40
0.142
  1
PORT
  7
Vcadd_SIMP
100
AcDbText
  0
TEXT
  5
339
100
AcDbEntity
  8
_2D_DELETED_OBJS
370
     0
390
0
  6
Continuous
 62
     7
100
AcDbText
 10
22.044505
 20
4.805084
 30
0.0
 40
0.142
  1
2
  7
Vcadd_SIMP
100
AcDbText
  0
INSERT
  5
33A
100
AcDbEntity
  8
DEFAULT_3
370
    30
390
0
  6
Continuous
 62
     7
100
AcDbBlockReference
  2
ARROW
 10
22.45801
 20
4.263118
 30
0.0
 42
1.0
 50
270.0
  0
LINE
  5
33B
100
AcDbEntity
  8
DEFAULT_1
370
     0
390
0
  6
Continuous
 62
     1
100
AcDbLine
 10
21.935512
 20
5.241197
 30
0.0
 11
21.923781
 21
5.159108
 31
0.0
  0
LINE
  5
33C
100
AcDbEntity
  8
DEFAULT_3
370
     0
390
0
  6
Continuous
 62
     1
100
AcDbLine
 10
19.894784
 20
3.747116
 30
0.0
 11
19.603196
 21
3.370009
 31
0.0
  0
LINE
  5
33D
100
AcDbEntity
  8
DEFAULT_3
370
     0
390
0
  6
Continuous
 62
     1
100
AcDbLine
 10
19.266274
 20
3.370009
 30
0.0
 11
19.603196
 21
3.370009
 31
0.0
  0
TEXT
  5
33E
100
AcDbEntity
  8
_2D_DELETED_OBJS
370
     0
390
0
  6
Continuous
 62
     7
100
AcDbText
 10
17.27293
 20
3.307968
 30
0.0
 40
0.142
  1
.020 x 45^  MAX
  7
Vcadd_SIMP
100
AcDbText
  0
INSERT
  5
33F
100
AcDbEntity
  8
DEFAULT_3
370
    30
390
0
  6
Continuous
 62
     7
100
AcDbBlockReference
  2
ARROW
 10
19.894784
 20
3.747116
 30
0.0
 42
1.0
 50
52.287907
  0
LINE
  5
340
100
AcDbEntity
  8
DEFAULT_3
370
     0
390
0
  6
Continuous
 62
     1
100
AcDbLine
 10
18.940988
 20
4.473729
 30
0.0
 11
19.216229
 21
4.473729
 31
0.0
  0
TEXT
  5
341
100
AcDbEntity
  8
_2D_DELETED_OBJS
370
     0
390
0
  6
Continuous
 62
     7
100
AcDbText
 10
17.844533
 20
4.463793
 30
0.0
 40
0.142
  1
**
  7
Vcadd_SIMP
100
AcDbText
  0
TEXT
  5
342
100
AcDbEntity
  8
_2D_DELETED_OBJS
370
     0
390
0
  6
Continuous
 62
     7
100
AcDbText
 10
18.072924
 20
4.413215
 30
0.0
 40
0.142
  1
.020 R
  7
Vcadd_SIMP
100
AcDbText
  0
LINE
  5
343
100
AcDbEntity
  8
_2D_DELETED_OBJS
370
     0
390
0
  6
Continuous
 62
     1
100
AcDbLine
 10
19.884784
 20
4.190117
 30
0.0
 11
19.634939
 21
4.064324
 31
0.0
  0
LINE
  5
344
100
AcDbEntity
  8
_2D_DELETED_OBJS
370
     0
390
0
  6
Continuous
 62
     1
100
AcDbLine
 10
19.634939
 20
4.064324
 30
0.0
 11
19.216229
 21
4.473729
 31
0.0
  0
INSERT
  5
345
100
AcDbEntity
  8
_2D_DELETED_OBJS
370
     0
390
0
  6
Continuous
 62
     1
100
AcDbBlockReference
  2
ARROW
 10
19.884784
 20
4.190117
 30
0.0
 41
1.0
 42
1.0
 50
26.724472
  0
LINE
  5
346
100
AcDbEntity
  8
DEFAULT_3
370
     0
390
0
  6
Continuous
 62
     1
100
AcDbLine
 10
19.513049
 20
4.833981
 30
0.0
 11
19.827006
 21
4.290191
 31
0.0
  0
ARC
  5
347
100
AcDbEntity
  8
_2D_DELETED_OBJS
370
     0
390
0
  6
Continuous
 62
     1
100
AcDbCircle
 10
19.861785
 20
4.229952
 30
0.0
 40
0.61008
100
AcDbArc
 50
66.444835
 51
90.0
  0
ARC
  5
348
100
AcDbEntity
  8
_2D_DELETED_OBJS
370
     0
390
0
  6
Continuous
 62
     1
100
AcDbCircle
 10
19.861785
 20
4.229952
 30
0.0
 40
0.61008
100
AcDbArc
 50
120.000013
 51
144.460267
  0
LINE
  5
349
100
AcDbEntity
  8
_2D_DELETED_OBJS
370
     0
390
0
  6
Continuous
 62
     1
100
AcDbLine
 10
19.861785
 20
4.229952
 30
0.0
 11
20.071142
 21
4.229952
 31
0.0
  0
LINE
  5
34A
100
AcDbEntity
  8
_2D_DELETED_OBJS
370
     0
390
0
  6
Continuous
 62
     1
100
AcDbLine
 10
19.885286
 20
4.189249
 30
0.0
 11
20.054829
 21
4.189249
 31
0.0
  0
TEXT
  5
34B
100
AcDbEntity
  8
_2D_DELETED_OBJS
370
     0
390
0
  6
Continuous
 62
     7
100
AcDbText
 10
19.060429
 20
4.744307
 30
0.0
 40
0.142
  1
30^  
  7
Vcadd_SIMP
100
AcDbText
  0
TEXT
  5
34C
100
AcDbEntity
  8
_2D_DELETED_OBJS
370
     0
390
0
  6
Continuous
 62
     7
100
AcDbText
 10
19.060429
 20
4.531307
 30
0.0
 40
0.142
  1
**
  7
Vcadd_SIMP
100
AcDbText
  0
INSERT
  5
34D
100
AcDbEntity
  8
_2D_DELETED_OBJS
370
     0
390
0
  6
Continuous
 62
     1
100
AcDbBlockReference
  2
ARROW
 10
19.556745
 20
4.758297
 30
0.0
 41
1.0
 42
1.0
 50
37.608807
  0
INSERT
  5
34E
100
AcDbEntity
  8
_2D_DELETED_OBJS
370
     0
390
0
  6
Continuous
 62
     1
100
AcDbBlockReference
  2
ARROW
 10
19.861785
 20
4.840032
 30
0.0
 41
1.0
 42
1.0
 50
170.491468
  0
LINE
  5
34F
100
AcDbEntity
  8
_2D_DELETED_OBJS
370
     0
390
0
  6
Continuous
 62
     7
100
AcDbLine
 10
18.941164
 20
5.347918
 30
0.0
 11
19.021193
 21
5.516253
 31
0.0
  0
TEXT
  5
350
100
AcDbEntity
  8
_2D_DELETED_OBJS
370
     0
390
0
  6
Continuous
 62
     7
100
AcDbText
 10
18.917662
 20
5.363083
 30
0.0
 40
0.16275
  1
O
  7
Vcadd_SIMP
100
AcDbText
  0
LINE
  5
351
100
AcDbEntity
  8
DEFAULT_3
370
     0
390
0
  6
Continuous
 62
     1
100
AcDbLine
 10
18.85725
 20
5.428797
 30
0.0
 11
18.183928
 21
5.428797
 31
0.0
  0
TEXT
  5
352
100
AcDbEntity
  8
_2D_DELETED_OBJS
370
     0
390
0
  6
Continuous
 62
     7
100
AcDbText
 10
18.183398
 20
5.453616
 30
0.0
 40
0.142
  1
1.672
  7
Vcadd_SIMP
100
AcDbText
  0
TEXT
  5
353
100
AcDbEntity
  8
_2D_DELETED_OBJS
370
     0
390
0
  6
Continuous
 62
     7
100
AcDbText
 10
18.183398
 20
5.276116
 30
0.0
 40
0.142
  1
1.674
  7
Vcadd_SIMP
100
AcDbText
  0
LINE
  5
354
100
AcDbEntity
  8
DEFAULT_3
370
     0
390
0
  6
Continuous
 62
     1
100
AcDbLine
 10
19.861785
 20
5.428797
 30
0.0
 11
19.093597
 21
5.428797
 31
0.0
  0
LINE
  5
355
100
AcDbEntity
  8
0
370
     0
390
0
  6
Continuous
 62
     1
100
AcDbLine
 10
19.382982
 20
5.648063
 30
0.0
 11
19.256967
 21
5.428797
 31
0.0
  0
LINE
  5
356
100
AcDbEntity
  8
0
370
     0
390
0
  6
Continuous
 62
     1
100
AcDbLine
 10
19.296268
 20
5.648064
 30
0.0
 11
19.382982
 21
5.648063
 31
0.0
  0
LINE
  5
357
100
AcDbEntity
  8
0
370
     0
390
0
  6
Continuous
 62
     1
100
AcDbLine
 10
19.256977
 20
5.428814
 30
0.0
 11
19.204574
 21
5.519578
 31
0.0
  0
TEXT
  5
358
100
AcDbEntity
  8
_2D_DELETED_OBJS
370
     0
390
0
  6
Continuous
 62
     7
100
AcDbText
 10
19.098045
 20
5.540548
 30
0.0
 40
0.103092
  1
63
  7
Vcadd_SIMP
100
AcDbText
  0
INSERT
  5
359
100
AcDbEntity
  8
DEFAULT_3
370
    30
390
0
  6
Continuous
 62
     7
100
AcDbBlockReference
  2
ARROW
 10
19.861785
 20
5.428797
 30
0.0
 42
1.0
  0
LINE
  5
35A
100
AcDbEntity
  8
DEFAULT_2
370
     0
390
0
  6
Continuous
 62
     7
100
AcDbLine
 10
21.725281
 20
10.825119
 30
0.0
 11
21.725281
 21
10.947455
 31
0.0
  0
LINE
  5
35B
100
AcDbEntity
  8
DEFAULT_2
370
     0
390
0
  6
Continuous
 62
     7
100
AcDbLine
 10
20.697784
 20
10.947455
 30
0.0
 11
21.725281
 21
10.947455
 31
0.0
  0
LINE
  5
35C
100
AcDbEntity
  8
DEFAULT_2
370
     0
390
0
  6
Continuous
 62
     7
100
AcDbLine
 10
21.603783
 20
11.012055
 30
0.0
 11
21.725281
 21
10.947455
 31
0.0
  0
LINE
  5
35D
100
AcDbEntity
  8
DEFAULT_2
370
     0
390
0
  6
Continuous
 62
     7
100
AcDbLine
 10
20.697784
 20
11.012055
 30
0.0
 11
21.603783
 21
11.012055
 31
0.0
  0
LINE
  5
35E
100
AcDbEntity
  8
DEFAULT_2
370
     0
390
0
  6
Continuous
 62
     7
100
AcDbLine
 10
21.603783
 20
11.564815
 30
0.0
 11
21.727281
 21
11.636117
 31
0.0
  0
LINE
  5
35F
100
AcDbEntity
  8
DEFAULT_2
370
     0
390
0
  6
Continuous
 62
     7
100
AcDbLine
 10
20.697782
 20
11.636117
 30
0.0
 11
21.727281
 21
11.636117
 31
0.0
  0
LINE
  5
360
100
AcDbEntity
  8
DEFAULT_2
370
     0
390
0
  6
Continuous
 62
     7
100
AcDbLine
 10
20.697782
 20
11.564815
 30
0.0
 11
21.603783
 21
11.564815
 31
0.0
  0
LINE
  5
361
100
AcDbEntity
  8
DEFAULT_2
370
     0
390
0
  6
Continuous
 62
     7
100
AcDbLine
 10
21.603783
 20
11.012055
 30
0.0
 11
21.603783
 21
11.564815
 31
0.0
  0
LINE
  5
362
100
AcDbEntity
  8
DEFAULT_2
370
     0
390
0
  6
Continuous
 62
     7
100
AcDbLine
 10
21.727281
 20
11.636117
 30
0.0
 11
21.727281
 21
11.713117
 31
0.0
  0
LINE
  5
363
100
AcDbEntity
  8
DEFAULT_2
370
     0
390
0
  6
Continuous
 62
     7
100
AcDbLine
 10
21.639285
 20
11.713117
 30
0.0
 11
21.639285
 21
11.886617
 31
0.0
  0
LINE
  5
364
100
AcDbEntity
  8
DEFAULT_2
370
     0
390
0
  6
Continuous
 62
     7
100
AcDbLine
 10
20.697782
 20
11.713117
 30
0.0
 11
21.727284
 21
11.713117
 31
0.0
  0
LINE
  5
365
100
AcDbEntity
  8
DEFAULT_2
370
     0
390
0
  6
Continuous
 62
     7
100
AcDbLine
 10
20.697782
 20
11.886617
 30
0.0
 11
21.727284
 21
11.886617
 31
0.0
  0
LINE
  5
366
100
AcDbEntity
  8
DEFAULT_2
370
     0
390
0
  6
Continuous
 62
     7
100
AcDbLine
 10
21.620783
 20
13.883145
 30
0.0
 11
21.504782
 21
13.950118
 31
0.0
  0
ARC
  5
367
100
AcDbEntity
  8
DEFAULT_2
370
     0
390
0
  6
Continuous
 62
     7
100
AcDbCircle
 10
21.401611
 20
13.558007
 30
0.0
 40
0.392111
100
AcDbArc
 50
63.983555
 51
123.983749
  0
LINE
  5
368
100
AcDbEntity
  8
DEFAULT_2
370
     0
390
0
  6
Continuous
 62
     7
100
AcDbLine
 10
21.135765
 20
13.883145
 30
0.0
 11
21.182438
 21
13.883145
 31
0.0
  0
LINE
  5
369
100
AcDbEntity
  8
DEFAULT_2
370
     0
390
0
  6
Continuous
 62
     7
100
AcDbLine
 10
20.697782
 20
13.950118
 30
0.0
 11
21.504782
 21
13.950118
 31
0.0
  0
ARC
  5
36A
100
AcDbEntity
  8
DEFAULT_2
370
     0
390
0
  6
Continuous
 62
     7
100
AcDbCircle
 10
20.697782
 20
12.484486
 30
0.0
 40
1.465632
100
AcDbArc
 50
72.612309
 51
90.0
  0
LINE
  5
36B
100
AcDbEntity
  8
DEFAULT_1
370
     0
390
0
  6
Continuous
 62
     7
100
AcDbLine
 10
21.765722
 20
12.950118
 30
0.0
 11
21.765722
 21
12.950118
 31
0.0
  0
LINE
  5
36C
100
AcDbEntity
  8
DEFAULT_2
370
     0
390
0
  6
Continuous
 62
     7
100
AcDbLine
 10
20.697782
 20
13.011607
 30
0.0
 11
21.620783
 21
13.011607
 31
0.0
  0
LINE
  5
36D
100
AcDbEntity
  8
DEFAULT_2
370
     0
390
0
  6
Continuous
 62
     7
100
AcDbLine
 10
20.697782
 20
12.950118
 30
0.0
 11
21.727284
 21
12.950118
 31
0.0
  0
LINE
  5
36E
100
AcDbEntity
  8
DEFAULT_2
370
     0
390
0
  6
Continuous
 62
     7
100
AcDbLine
 10
21.727284
 20
12.950118
 30
0.0
 11
21.620783
 21
13.011607
 31
0.0
  0
LINE
  5
36F
100
AcDbEntity
  8
DEFAULT_2
370
     0
390
0
  6
Continuous
 62
     7
100
AcDbLine
 10
21.620783
 20
13.011607
 30
0.0
 11
21.620783
 21
13.883145
 31
0.0
  0
LINE
  5
370
100
AcDbEntity
  8
DEFAULT_2
370
     0
390
0
  6
Continuous
 62
     7
100
AcDbLine
 10
21.182438
 20
13.883145
 30
0.0
 11
21.182438
 21
13.011607
 31
0.0
  0
LINE
  5
371
100
AcDbEntity
  8
DEFAULT_2
370
     0
390
0
  6
Continuous
 62
     7
100
AcDbLine
 10
21.135765
 20
13.883145
 30
0.0
 11
21.135765
 21
13.011607
 31
0.0
  0
LINE
  5
372
100
AcDbEntity
  8
DEFAULT_2
370
     0
390
0
  6
Continuous
 62
     7
100
AcDbLine
 10
21.727284
 20
11.886617
 30
0.0
 11
21.727284
 21
12.950118
 31
0.0
  0
LINE
  5
373
100
AcDbEntity
  8
DEFAULT_1
370
     0
390
0
  6
Continuous
 62
     1
100
AcDbLine
 10
21.729283
 20
10.825119
 30
0.0
 11
21.729283
 21
11.950119
 31
0.0
  0
LINE
  5
374
100
AcDbEntity
  8
DEFAULT_2
370
     0
390
0
  6
Continuous
 62
     7
100
AcDbLine
 10
20.697784
 20
10.825117
 30
0.0
 11
21.725281
 21
10.825117
 31
0.0
  0
LINE
  5
375
100
AcDbEntity
  8
DEFAULT_1
370
     0
390
0
  6
Continuous
 62
     1
100
AcDbLine
 10
21.86277
 20
11.263117
 30
0.0
 11
21.931198
 21
11.263117
 31
0.0
  0
TEXT
  5
376
100
AcDbEntity
  8
_2D_DELETED_OBJS
370
     0
390
0
  6
Continuous
 62
     7
100
AcDbText
 10
21.885592
 20
11.300371
 30
0.0
 40
0.142
  1
PORT
  7
Vcadd_SIMP
100
AcDbText
  0
TEXT
  5
377
100
AcDbEntity
  8
_2D_DELETED_OBJS
370
     0
390
0
  6
Continuous
 62
     7
100
AcDbText
 10
24.188386
 20
11.20545
 30
0.0
 40
0.142
  1
 .406
  7
Vcadd_SIMP
100
AcDbText
  0
LINE
  5
378
100
AcDbEntity
  8
DEFAULT_3
370
     0
390
0
  6
Continuous
 62
     1
100
AcDbLine
 10
21.971449
 20
11.263117
 30
0.0
 11
24.384321
 21
11.263121
 31
0.0
  0
LINE
  5
379
100
AcDbEntity
  8
DEFAULT_1
370
     0
390
0
  6
Continuous
 62
     1
100
AcDbLine
 10
21.83057
 20
11.263117
 30
0.0
 11
21.536227
 21
11.263117
 31
0.0
  0
LINE
  5
37A
100
AcDbEntity
  8
DEFAULT_1
370
     0
390
0
  6
Continuous
 62
     1
100
AcDbLine
 10
22.06057
 20
11.679604
 30
0.0
 11
22.042826
 21
11.475623
 31
0.0
  0
LINE
  5
37B
100
AcDbEntity
  8
DEFAULT_1
370
     0
390
0
  6
Continuous
 62
     1
100
AcDbLine
 10
22.058109
 20
11.715607
 30
0.0
 11
21.978207
 21
11.638804
 31
0.0
  0
LINE
  5
37C
100
AcDbEntity
  8
DEFAULT_3
370
     0
390
0
  6
Continuous
 62
     1
100
AcDbLine
 10
22.115988
 20
11.638117
 30
0.0
 11
22.528009
 21
11.638117
 31
0.0
  0
LINE
  5
37D
100
AcDbEntity
  8
DEFAULT_3
370
     0
390
0
  6
Continuous
 62
     1
100
AcDbLine
 10
22.45801
 20
11.638117
 30
0.0
 11
22.45801
 21
11.801794
 31
0.0
  0
LINE
  5
37E
100
AcDbEntity
  8
DEFAULT_3
370
     0
390
0
  6
Continuous
 62
     1
100
AcDbLine
 10
22.45801
 20
11.801794
 30
0.0
 11
22.626308
 21
11.801794
 31
0.0
  0
INSERT
  5
37F
100
AcDbEntity
  8
DEFAULT_3
370
    30
390
0
  6
Continuous
 62
     7
100
AcDbBlockReference
  2
ARROW
 10
22.45801
 20
11.638117
 30
0.0
 42
1.0
 50
90.0
  0
LINE
  5
380
100
AcDbEntity
  8
_2D_DELETED_OBJS
370
     0
390
0
  6
Continuous
 62
     1
100
AcDbLine
 10
22.45801
 20
11.638117
 30
0.0
 11
22.45801
 21
10.888119
 31
0.0
  0
LINE
  5
381
100
AcDbEntity
  8
DEFAULT_1
370
     0
390
0
  6
Continuous
 62
     1
100
AcDbLine
 10
22.056961
 20
11.638117
 30
0.0
 11
21.728783
 21
11.638117
 31
0.0
  0
LINE
  5
382
100
AcDbEntity
  8
DEFAULT_1
370
     0
390
0
  6
Continuous
 62
     1
100
AcDbLine
 10
22.051984
 20
11.799763
 30
0.0
 11
21.890339
 21
11.638117
 31
0.0
  0
LINE
  5
383
100
AcDbEntity
  8
DEFAULT_2
370
     0
390
0
  6
Continuous
 62
     7
100
AcDbLine
 10
21.639285
 20
11.879846
 30
0.0
 11
21.725284
 21
11.879846
 31
0.0
  0
LINE
  5
384
100
AcDbEntity
  8
DEFAULT_2
370
     0
390
0
  6
Continuous
 62
     7
100
AcDbLine
 10
21.639285
 20
11.879846
 30
0.0
 11
21.639285
 21
11.836845
 31
0.0
  0
ARC
  5
385
100
AcDbEntity
  8
DEFAULT_2
370
     0
390
0
  6
Continuous
 62
     7
100
AcDbCircle
 10
21.649288
 20
11.836847
 30
0.0
 40
0.010003
100
AcDbArc
 50
180.013467
 51
269.975604
  0
ARC
  5
386
100
AcDbEntity
  8
DEFAULT_2
370
     0
390
0
  6
Continuous
 62
     7
100
AcDbCircle
 10
21.715287
 20
11.836841
 30
0.0
 40
0.009996
100
AcDbArc
 50
269.987077
 51
360.023852
  0
LINE
  5
387
100
AcDbEntity
  8
DEFAULT_2
370
     0
390
0
  6
Continuous
 62
     7
100
AcDbLine
 10
21.725284
 20
11.879846
 30
0.0
 11
21.725284
 21
11.836845
 31
0.0
  0
ARC
  5
388
100
AcDbEntity
  8
DEFAULT_2
370
     0
390
0
  6
Continuous
 62
     7
100
AcDbCircle
 10
21.682284
 20
11.705839
 30
0.0
 40
0.125426
100
AcDbArc
 50
74.745211
 51
105.254789
  0
ELLIPSE
  5
389
100
AcDbEntity
  8
DEFAULT_1
370
     0
390
0
  6
Continuous
 62
     1
100
AcDbEllipse
 10
21.684462
 20
11.773971
 30
0.0
 11
0.0003623962402344
 21
0.0573821067810059
 31
0.0
210
0.0
220
0.0
230
1.0
 40
0.766551
 41
0.0
 42
6.2831853071795862
  0
TEXT
  5
38A
100
AcDbEntity
  8
_2D_DELETED_OBJS
370
     0
390
0
  6
Continuous
 62
     7
100
AcDbText
 10
22.656231
 20
11.736861
 30
0.0
 40
0.142
  1
.750
  7
Vcadd_SIMP
100
AcDbText
  0
LINE
  5
38B
100
AcDbEntity
  8
DEFAULT_1
370
     0
390
0
  6
Continuous
 62
     1
100
AcDbLine
 10
21.968175
 20
11.981119
 30
0.0
 11
21.728783
 21
11.741727
 31
0.0
  0
LINE
  5
38C
100
AcDbEntity
  8
DEFAULT_1
370
     0
390
0
  6
Continuous
 62
     1
100
AcDbLine
 10
22.050148
 20
11.825457
 30
0.0
 11
22.052558
 21
11.877176
 31
0.0
  0
LINE
  5
38D
100
AcDbEntity
  8
DEFAULT_1
370
     0
390
0
  6
Continuous
 62
     1
100
AcDbLine
 10
22.052558
 20
11.877176
 30
0.0
 11
22.058808
 21
11.925542
 31
0.0
  0
LINE
  5
38E
100
AcDbEntity
  8
DEFAULT_1
370
     0
390
0
  6
Continuous
 62
     1
100
AcDbLine
 10
22.058808
 20
11.925542
 30
0.0
 11
22.073748
 21
11.981119
 31
0.0
  0
LINE
  5
38F
100
AcDbEntity
  8
DEFAULT_1
370
     0
390
0
  6
Continuous
 62
     1
100
AcDbLine
 10
22.056564
 20
11.981119
 30
0.0
 11
21.728783
 21
11.653339
 31
0.0
  0
LINE
  5
390
100
AcDbEntity
  8
DEFAULT_1
370
     0
390
0
  6
Continuous
 62
     1
100
AcDbLine
 10
22.054272
 20
11.890439
 30
0.0
 11
21.80195
 21
11.638117
 31
0.0
  0
LINE
  5
391
100
AcDbEntity
  8
DEFAULT_1
370
     0
390
0
  6
Continuous
 62
     1
100
AcDbLine
 10
21.791398
 20
11.981119
 30
0.0
 11
21.728783
 21
11.918504
 31
0.0
  0
LINE
  5
392
100
AcDbEntity
  8
DEFAULT_1
370
     0
390
0
  6
Continuous
 62
     1
100
AcDbLine
 10
21.879786
 20
11.981119
 30
0.0
 11
21.728783
 21
11.830116
 31
0.0
  0
LINE
  5
393
100
AcDbEntity
  8
DEFAULT_1
370
     0
390
0
  6
Continuous
 62
     1
100
AcDbLine
 10
24.150297
 20
11.981119
 30
0.0
 11
22.130691
 21
11.981119
 31
0.0
  0
LINE
  5
394
100
AcDbEntity
  8
DEFAULT_1
370
     0
390
0
  6
Continuous
 62
     1
100
AcDbLine
 10
22.073748
 20
11.981119
 30
0.0
 11
21.760283
 21
11.981119
 31
0.0
  0
TEXT
  5
395
100
AcDbEntity
  8
_2D_DELETED_OBJS
370
     0
390
0
  6
Continuous
 62
     7
100
AcDbText
 10
23.473229
 20
11.568481
 30
0.0
 40
0.142
  1
L.S. DEPTH
  7
Vcadd_SIMP
100
AcDbText
  0
TEXT
  5
396
100
AcDbEntity
  8
_2D_DELETED_OBJS
370
     0
390
0
  6
Continuous
 62
     7
100
AcDbText
 10
23.897316
 20
11.751175
 30
0.0
 40
0.142
  1
MINIMUM
  7
Vcadd_SIMP
100
AcDbText
  0
TEXT
  5
397
100
AcDbEntity
  8
_2D_DELETED_OBJS
370
     0
390
0
  6
Continuous
 62
     7
100
AcDbText
 10
24.187615
 20
11.919706
 30
0.0
 40
0.142
  1
1.156
  7
Vcadd_SIMP
100
AcDbText
  0
LINE
  5
398
100
AcDbEntity
  8
DEFAULT_3
370
     0
390
0
  6
Continuous
 62
     1
100
AcDbLine
 10
19.122752
 20
12.493655
 30
0.0
 11
19.491397
 21
12.12501
 31
0.0
  0
ARC
  5
399
100
AcDbEntity
  8
DEFAULT_3
370
     0
390
0
  6
Continuous
 62
     1
100
AcDbCircle
 10
19.861671
 20
11.273054
 30
0.0
 40
1.263863
100
AcDbArc
 50
119.365987
 51
132.436145
  0
TEXT
  5
39A
100
AcDbEntity
  8
_2D_DELETED_OBJS
370
     0
390
0
  6
Continuous
 62
     7
100
AcDbText
 10
19.101049
 20
12.633649
 30
0.0
 40
0.142
  1
45^  
  7
Vcadd_SIMP
100
AcDbText
  0
TEXT
  5
39B
100
AcDbEntity
  8
_2D_DELETED_OBJS
370
     0
390
0
  6
Continuous
 62
     7
100
AcDbText
 10
19.101049
 20
12.420649
 30
0.0
 40
0.142
  1
 **
  7
Vcadd_SIMP
100
AcDbText
  0
INSERT
  5
39C
100
AcDbEntity
  8
DEFAULT_3
370
    30
390
0
  6
Continuous
 62
     7
100
AcDbBlockReference
  2
ARROW
 10
19.241889
 20
12.374518
 30
0.0
 42
1.0
 50
32.423763
  0
LINE
  5
39D
100
AcDbEntity
  8
DEFAULT_1
370
     0
390
0
  6
Continuous
 62
     1
100
AcDbLine
 10
21.729283
 20
11.950119
 30
0.0
 11
21.760283
 21
11.981119
 31
0.0
  0
LINE
  5
39E
100
AcDbEntity
  8
DEFAULT_1
370
     0
390
0
  6
CL____X1
 62
     1
100
AcDbLine
 10
21.760283
 20
11.981119
 30
0.0
 11
21.853786
 21
12.074622
 31
0.0
  0
LINE
  5
39F
100
AcDbEntity
  8
DEFAULT_3
370
     0
390
0
  6
Continuous
 62
     1
100
AcDbLine
 10
20.265677
 20
14.813103
 30
0.0
 11
20.029019
 21
14.813103
 31
0.0
  0
LINE
  5
3A0
100
AcDbEntity
  8
DEFAULT_3
370
     0
390
0
  6
Continuous
 62
     1
100
AcDbLine
 10
20.265677
 20
14.419696
 30
0.0
 11
20.141961
 21
14.419696
 31
0.0
  0
LINE
  5
3A1
100
AcDbEntity
  8
DEFAULT_3
370
     0
390
0
  6
Continuous
 62
     1
100
AcDbLine
 10
20.265677
 20
15.335826
 30
0.0
 11
19.916077
 21
15.335826
 31
0.0
  0
TEXT
  5
3A2
100
AcDbEntity
  8
_2D_DELETED_OBJS
370
     0
390
0
  6
Continuous
 62
     7
100
AcDbText
 10
20.247794
 20
15.263106
 30
0.0
 40
0.142
  1
.047 DRILL-REAMER 
  7
Vcadd_SIMP
100
AcDbText
  0
TEXT
  5
3A3
100
AcDbEntity
  8
_2D_DELETED_OBJS
370
     0
390
0
  6
Continuous
 62
     7
100
AcDbText
 10
20.95653
 20
15.085608
 30
0.0
 40
0.142
  1
RELATIONSHIP
  7
Vcadd_SIMP
100
AcDbText
  0
LINE
  5
3A4
100
AcDbEntity
  8
DEFAULT_3
370
     0
390
0
  6
Continuous
 62
     1
100
AcDbLine
 10
20.141961
 20
14.419696
 30
0.0
 11
20.141961
 21
10.825119
 31
0.0
  0
LINE
  5
3A5
100
AcDbEntity
  8
_2D_DELETED_OBJS
370
     0
390
0
  6
Continuous
 62
     1
100
AcDbLine
 10
21.927174
 20
12.074622
 30
0.0
 11
23.934797
 21
12.074622
 31
0.0
  0
LINE
  5
3A6
100
AcDbEntity
  8
_2D_DELETED_OBJS
370
     0
390
0
  6
Continuous
 62
     1
100
AcDbLine
 10
23.934797
 20
12.074622
 30
0.0
 11
23.714494
 21
12.473414
 31
0.0
  0
LINE
  5
3A7
100
AcDbEntity
  8
_2D_DELETED_OBJS
370
     0
390
0
  6
Continuous
 62
     1
100
AcDbLine
 10
23.714494
 20
12.473414
 30
0.0
 11
24.068385
 21
12.473414
 31
0.0
  0
TEXT
  5
3A8
100
AcDbEntity
  8
_2D_DELETED_OBJS
370
     0
390
0
  6
Continuous
 62
     7
100
AcDbText
 10
24.084583
 20
12.415371
 30
0.0
 40
0.142
  1
1.250*
  7
Vcadd_SIMP
100
AcDbText
  0
TEXT
  5
3A9
100
AcDbEntity
  8
_2D_DELETED_OBJS
370
     0
390
0
  6
Continuous
 62
     7
100
AcDbText
 10
24.084583
 20
12.202371
 30
0.0
 40
0.142
  1
 REF
  7
Vcadd_SIMP
100
AcDbText
  0
LINE
  5
3AA
100
AcDbEntity
  8
_2D_DELETED_OBJS
370
     0
390
0
  6
Continuous
 62
     7
100
AcDbLine
 10
23.177477
 20
12.189809
 30
0.0
 11
23.257506
 21
12.358144
 31
0.0
  0
TEXT
  5
3AB
100
AcDbEntity
  8
_2D_DELETED_OBJS
370
     0
390
0
  6
Continuous
 62
     7
100
AcDbText
 10
23.153975
 20
12.204973
 30
0.0
 40
0.16275
  1
O
  7
Vcadd_SIMP
100
AcDbText
  0
TEXT
  5
3AC
100
AcDbEntity
  8
_2D_DELETED_OBJS
370
     0
390
0
  6
Continuous
 62
     7
100
AcDbText
 10
22.385282
 20
12.219619
 30
0.0
 40
0.142
  1
2.312
  7
Vcadd_SIMP
100
AcDbText
  0
LINE
  5
3AD
100
AcDbEntity
  8
_2D_DELETED_OBJS
370
     0
390
0
  6
Continuous
 62
     1
100
AcDbLine
 10
22.376436
 20
12.271312
 30
0.0
 11
21.853783
 21
12.271312
 31
0.0
  0
TEXT
  5
3AE
100
AcDbEntity
  8
_2D_DELETED_OBJS
370
     0
390
0
  6
Continuous
 62
     7
100
AcDbText
 10
22.974813
 20
12.405067
 30
0.0
 40
0.142
  1
*
  7
Vcadd_SIMP
100
AcDbText
  0
INSERT
  5
3AF
100
AcDbEntity
  8
_2D_DELETED_OBJS
370
     0
390
0
  6
Continuous
 62
     1
100
AcDbBlockReference
  2
ARROW
 10
21.853783
 20
12.271312
 30
0.0
 41
1.0
 42
1.0
 50
180.0
  0
LINE
  5
3B0
100
AcDbEntity
  8
_2D_DELETED_OBJS
370
     0
390
0
  6
Continuous
 62
     1
100
AcDbLine
 10
21.92372
 20
14.186733
 30
0.0
 11
21.573603
 21
13.910384
 31
0.0
  0
INSERT
  5
3B1
100
AcDbEntity
  8
_2D_DELETED_OBJS
370
     0
390
0
  6
Continuous
 62
     1
100
AcDbBlockReference
  2
ARROW
 10
21.573603
 20
13.910384
 30
0.0
 41
1.0
 42
1.0
 50
218.284187
  0
TEXT
  5
3B2
100
AcDbEntity
  8
_2D_DELETED_OBJS
370
     0
390
0
  6
Continuous
 62
     7
100
AcDbText
 10
22.102113
 20
14.13879
 30
0.0
 40
0.142
  1
1.625 HEX
  7
Vcadd_SIMP
100
AcDbText
  0
LINE
  5
3B3
100
AcDbEntity
  8
_2D_DELETED_OBJS
370
     0
390
0
  6
Continuous
 62
     1
100
AcDbLine
 10
22.081486
 20
14.186733
 30
0.0
 11
21.92372
 21
14.186733
 31
0.0
  0
LINE
  5
3B4
100
AcDbEntity
  8
DEFAULT_1
370
     0
390
0
  6
Continuous
 62
     1
100
AcDbLine
 10
21.954817
 20
12.562022
 30
0.0
 11
21.9302
 21
12.551086
 31
0.0
  0
LINE
  5
3B5
100
AcDbEntity
  8
DEFAULT_1
370
     0
390
0
  6
Continuous
 62
     1
100
AcDbLine
 10
21.9302
 20
12.551086
 30
0.0
 11
21.905584
 21
12.559288
 31
0.0
  0
LINE
  5
3B6
100
AcDbEntity
  8
DEFAULT_1
370
     0
390
0
  6
Continuous
 62
     1
100
AcDbLine
 10
21.905584
 20
12.559288
 30
0.0
 11
21.875498
 21
12.562022
 31
0.0
  0
LINE
  5
3B7
100
AcDbEntity
  8
DEFAULT_1
370
     0
390
0
  6
Continuous
 62
     1
100
AcDbLine
 10
21.875498
 20
12.562022
 30
0.0
 11
21.853783
 21
12.549194
 31
0.0
  0
LINE
  5
3B8
100
AcDbEntity
  8
DEFAULT_1
370
     0
390
0
  6
Continuous
 62
     1
100
AcDbLine
 10
21.954817
 20
12.562022
 30
0.0
 11
22.008463
 21
12.55161
 31
0.0
  0
LINE
  5
3B9
100
AcDbEntity
  8
DEFAULT_1
370
     0
390
0
  6
Continuous
 62
     1
100
AcDbLine
 10
22.008463
 20
12.55161
 30
0.0
 11
22.050148
 21
12.55161
 31
0.0
  0
LINE
  5
3BA
100
AcDbEntity
  8
DEFAULT_1
370
     0
390
0
  6
Continuous
 62
     1
100
AcDbLine
 10
22.050148
 20
12.55161
 30
0.0
 11
22.081413
 21
12.530773
 31
0.0
  0
LINE
  5
3BB
100
AcDbEntity
  8
DEFAULT_1
370
     0
390
0
  6
Continuous
 62
     1
100
AcDbLine
 10
22.081413
 20
12.530773
 30
0.0
 11
22.070991
 21
12.291157
 31
0.0
  0
LINE
  5
3BC
100
AcDbEntity
  8
DEFAULT_1
370
     0
390
0
  6
Continuous
 62
     1
100
AcDbLine
 10
22.070991
 20
12.291157
 30
0.0
 11
22.091835
 21
12.186975
 31
0.0
  0
LINE
  5
3BD
100
AcDbEntity
  8
DEFAULT_1
370
     0
390
0
  6
Continuous
 62
     1
100
AcDbLine
 10
22.091835
 20
12.186975
 30
0.0
 11
22.091835
 21
12.041122
 31
0.0
  0
LINE
  5
3BE
100
AcDbEntity
  8
DEFAULT_1
370
     0
390
0
  6
Continuous
 62
     1
100
AcDbLine
 10
22.091835
 20
12.041122
 30
0.0
 11
22.073748
 21
11.981119
 31
0.0
  0
LINE
  5
3BF
100
AcDbEntity
  8
DEFAULT_1
370
     0
390
0
  6
CL____X1
 62
     1
100
AcDbLine
 10
21.853786
 20
12.074622
 30
0.0
 11
21.853786
 21
12.549196
 31
0.0
  0
LINE
  5
3C0
100
AcDbEntity
  8
DEFAULT_3
370
     0
390
0
  6
Continuous
 62
     1
100
AcDbLine
 10
20.029019
 20
14.813103
 30
0.0
 11
20.029019
 21
10.872119
 31
0.0
  0
LINE
  5
3C1
100
AcDbEntity
  8
DEFAULT_3
370
     0
390
0
  6
Continuous
 62
     1
100
AcDbLine
 10
19.916077
 20
10.872119
 30
0.0
 11
19.916077
 21
15.335826
 31
0.0
  0
LINE
  5
3C2
100
AcDbEntity
  8
DEFAULT_2
370
     0
390
0
  6
Continuous
 62
     7
100
AcDbLine
 10
21.509783
 20
4.075684
 30
0.0
 11
21.423784
 21
4.075684
 31
0.0
  0
LINE
  5
3C3
100
AcDbEntity
  8
DEFAULT_2
370
     0
390
0
  6
Continuous
 62
     7
100
AcDbLine
 10
21.509783
 20
4.075684
 30
0.0
 11
21.509783
 21
4.032685
 31
0.0
  0
ARC
  5
3C4
100
AcDbEntity
  8
DEFAULT_2
370
     0
390
0
  6
Continuous
 62
     7
100
AcDbCircle
 10
21.49978
 20
4.032685
 30
0.0
 40
0.010003
100
AcDbArc
 50
270.046269
 51
359.997452
  0
ARC
  5
3C5
100
AcDbEntity
  8
DEFAULT_2
370
     0
390
0
  6
Continuous
 62
     7
100
AcDbCircle
 10
21.433787
 20
4.032685
 30
0.0
 40
0.010003
100
AcDbArc
 50
180.002535
 51
270.0
  0
LINE
  5
3C6
100
AcDbEntity
  8
DEFAULT_2
370
     0
390
0
  6
Continuous
 62
     7
100
AcDbLine
 10
21.423784
 20
4.075684
 30
0.0
 11
21.423784
 21
4.032685
 31
0.0
  0
ARC
  5
3C7
100
AcDbEntity
  8
DEFAULT_2
370
     0
390
0
  6
Continuous
 62
     7
100
AcDbCircle
 10
21.466787
 20
3.901622
 30
0.0
 40
0.125478
100
AcDbArc
 50
74.751717
 51
105.248283
  0
LINE
  5
3C8
100
AcDbEntity
  8
DEFAULT_2
370
     0
390
0
  6
Continuous
 62
     7
100
AcDbLine
 10
21.423784
 20
3.873101
 30
0.0
 11
21.509783
 21
3.873101
 31
0.0
  0
LINE
  5
3C9
100
AcDbEntity
  8
DEFAULT_2
370
     0
390
0
  6
Continuous
 62
     7
100
AcDbLine
 10
21.423784
 20
3.873101
 30
0.0
 11
21.423784
 21
3.9161
 31
0.0
  0
ARC
  5
3CA
100
AcDbEntity
  8
DEFAULT_2
370
     0
390
0
  6
Continuous
 62
     7
100
AcDbCircle
 10
21.433787
 20
3.916099
 30
0.0
 40
0.010003
100
AcDbArc
 50
90.0
 51
179.997465
  0
ARC
  5
3CB
100
AcDbEntity
  8
DEFAULT_2
370
     0
390
0
  6
Continuous
 62
     7
100
AcDbCircle
 10
21.49978
 20
3.916099
 30
0.0
 40
0.010003
100
AcDbArc
 50
0.002548
 51
89.953731
  0
LINE
  5
3CC
100
AcDbEntity
  8
DEFAULT_2
370
     0
390
0
  6
Continuous
 62
     7
100
AcDbLine
 10
21.509783
 20
3.873101
 30
0.0
 11
21.509783
 21
3.9161
 31
0.0
  0
ARC
  5
3CD
100
AcDbEntity
  8
DEFAULT_2
370
     0
390
0
  6
Continuous
 62
     7
100
AcDbCircle
 10
21.466787
 20
4.047162
 30
0.0
 40
0.125478
100
AcDbArc
 50
254.751717
 51
285.248283
  0
ELLIPSE
  5
3CE
100
AcDbEntity
  8
DEFAULT_1
370
     0
390
0
  6
Continuous
 62
     1
100
AcDbEllipse
 10
21.46684
 20
3.973542
 30
0.0
 11
0.0004415512084961
 21
0.0520648956298828
 31
0.0
210
0.0
220
0.0
230
1.0
 40
0.813972
 41
0.0
 42
6.2831853071795862
  0
LINE
  5
3CF
100
AcDbEntity
  8
DEFAULT_1
370
     0
390
0
  6
Continuous
 62
     1
100
AcDbLine
 10
21.322784
 20
3.737116
 30
0.0
 11
21.322784
 21
2.987116
 31
0.0
  0
LINE
  5
3D0
100
AcDbEntity
  8
DEFAULT_1
370
     0
390
0
  6
CL____X1
 62
     1
100
AcDbLine
 10
20.072784
 20
2.987116
 30
0.0
 11
20.697784
 21
2.626272
 31
0.0
  0
LINE
  5
3D1
100
AcDbEntity
  8
DEFAULT_1
370
     0
390
0
  6
Continuous
 62
     1
100
AcDbLine
 10
20.697784
 20
2.626272
 30
0.0
 11
21.322784
 21
2.987116
 31
0.0
  0
LINE
  5
3D2
100
AcDbEntity
  8
DEFAULT_1
370
     0
390
0
  6
Continuous
 62
     7
100
AcDbLine
 10
20.697784
 20
6.258263
 30
0.0
 11
20.697784
 21
2.570664
 31
0.0
  0
LINE
  5
3D3
100
AcDbEntity
  8
_2D_DELETED_OBJS
370
     0
390
0
  6
Continuous
 62
     7
100
AcDbLine
 10
21.022057
 20
1.914833
 30
0.0
 11
21.102085
 21
2.083168
 31
0.0
  0
TEXT
  5
3D4
100
AcDbEntity
  8
_2D_DELETED_OBJS
370
     0
390
0
  6
Continuous
 62
     7
100
AcDbText
 10
20.998554
 20
1.929997
 30
0.0
 40
0.16275
  1
O
  7
Vcadd_SIMP
100
AcDbText
  0
TEXT
  5
3D5
100
AcDbEntity
  8
_2D_DELETED_OBJS
370
     0
390
0
  6
Continuous
 62
     7
100
AcDbText
 10
20.553081
 20
2.340004
 30
0.0
 40
0.142
  1
PORT
  7
Vcadd_SIMP
100
AcDbText
  0
TEXT
  5
3D6
100
AcDbEntity
  8
_2D_DELETED_OBJS
370
     0
390
0
  6
Continuous
 62
     7
100
AcDbText
 10
20.728584
 20
2.162504
 30
0.0
 40
0.142
  1
1
  7
Vcadd_SIMP
100
AcDbText
  0
LINE
  5
3D7
100
AcDbEntity
  8
DEFAULT_3
370
     0
390
0
  6
Continuous
 62
     1
100
AcDbLine
 10
21.322784
 20
1.894104
 30
0.0
 11
20.072784
 21
1.894104
 31
0.0
  0
INSERT
  5
3D8
100
AcDbEntity
  8
DEFAULT_3
370
    30
390
0
  6
Continuous
 62
     7
100
AcDbBlockReference
  2
ARROW
 10
20.072784
 20
1.894104
 30
0.0
 42
1.0
 50
180.0
  0
INSERT
  5
3D9
100
AcDbEntity
  8
_2D_DELETED_OBJS
370
     0
390
0
  6
Continuous
 62
     1
100
AcDbBlockReference
  2
ARROW
 10
21.322784
 20
1.894104
 30
0.0
 42
1.0
  0
TEXT
  5
3DA
100
AcDbEntity
  8
_2D_DELETED_OBJS
370
     0
390
0
  6
Continuous
 62
     7
100
AcDbText
 10
20.250195
 20
1.938302
 30
0.0
 40
0.142
  1
1.250
  7
Vcadd_SIMP
100
AcDbText
  0
LINE
  5
3DB
100
AcDbEntity
  8
DEFAULT_1
370
     0
390
0
  6
Continuous
 62
     1
100
AcDbLine
 10
21.322784
 20
2.871502
 30
0.0
 11
21.322784
 21
1.787551
 31
0.0
  0
LINE
  5
3DC
100
AcDbEntity
  8
DEFAULT_1
370
     0
390
0
  6
Continuous
 62
     1
100
AcDbLine
 10
20.072784
 20
2.871502
 30
0.0
 11
20.072784
 21
1.787551
 31
0.0
  0
LINE
  5
3DD
100
AcDbEntity
  8
DEFAULT_1
370
     0
390
0
  6
CL____X1
 62
     1
100
AcDbLine
 10
20.072784
 20
3.741734
 30
0.0
 11
19.914785
 21
3.832955
 31
0.0
  0
LINE
  5
3DE
100
AcDbEntity
  8
DEFAULT_1
370
     0
390
0
  6
CL____X1
 62
     1
100
AcDbLine
 10
19.914785
 20
4.248384
 30
0.0
 11
19.914785
 21
3.832955
 31
0.0
  0
LINE
  5
3DF
100
AcDbEntity
  8
DEFAULT_1
370
     0
390
0
  6
CL____X1
 62
     1
100
AcDbLine
 10
20.072784
 20
3.741734
 30
0.0
 11
20.072784
 21
2.987116
 31
0.0
  0
LINE
  5
3E0
100
AcDbEntity
  8
DEFAULT_1
370
     0
390
0
  6
Continuous
 62
     7
100
AcDbLine
 10
20.072784
 20
3.737116
 30
0.0
 11
19.904784
 21
3.737116
 31
0.0
  0
LINE
  5
3E1
100
AcDbEntity
  8
DEFAULT_1
370
     0
390
0
  6
Continuous
 62
     1
100
AcDbLine
 10
19.995665
 20
2.987116
 30
0.0
 11
17.299862
 21
2.987116
 31
0.0
  0
TEXT
  5
3E2
100
AcDbEntity
  8
_2D_DELETED_OBJS
370
     0
390
0
  6
Continuous
 62
     7
100
AcDbText
 10
16.441005
 20
2.923215
 30
0.0
 40
0.142
  1
 7.838
  7
Vcadd_SIMP
100
AcDbText
  0
TEXT
  5
3E3
100
AcDbEntity
  8
_2D_DELETED_OBJS
370
     0
390
0
  6
Continuous
 62
     7
100
AcDbText
 10
16.441005
 20
2.710215
 30
0.0
 40
0.142
  1
(WORKING PARTS CLEARANCE,
  7
Vcadd_SIMP
100
AcDbText
  0
TEXT
  5
3E4
100
AcDbEntity
  8
_2D_DELETED_OBJS
370
     0
390
0
  6
Continuous
 62
     7
100
AcDbText
 10
16.441005
 20
2.497215
 30
0.0
 40
0.142
  1
   BUILT INTO TD-54A
  7
Vcadd_SIMP
100
AcDbText
  0
LINE
  5
3E5
100
AcDbEntity
  8
DEFAULT_1
370
     0
390
0
  6
Continuous
 62
     7
100
AcDbLine
 10
19.666286
 20
10.825119
 30
0.0
 11
19.666286
 21
11.950121
 31
0.0
  0
LINE
  5
3E6
100
AcDbEntity
  8
DEFAULT_1
370
     0
390
0
  6
Continuous
 62
     7
100
AcDbLine
 10
19.541786
 20
12.074622
 30
0.0
 11
19.541786
 21
13.316862
 31
0.0
  0
LINE
  5
3E7
100
AcDbEntity
  8
DEFAULT_1
370
     0
390
0
  6
Continuous
 62
     7
100
AcDbLine
 10
19.541786
 20
12.074622
 30
0.0
 11
19.666286
 21
11.950121
 31
0.0
  0
ARC
  5
3E8
100
AcDbEntity
  8
DEFAULT_3
370
     0
390
0
  6
Continuous
 62
     1
100
AcDbCircle
 10
19.666115
 20
11.248256
 30
0.0
 40
1.263839
100
AcDbArc
 50
82.533667
 51
95.645586
  0
INSERT
  5
3E9
100
AcDbEntity
  8
DEFAULT_3
370
    30
390
0
  6
Continuous
 62
     7
100
AcDbBlockReference
  2
ARROW
 10
19.541786
 20
12.505964
 30
0.0
 42
1.0
 50
181.085052
  0
LINE
  5
3EA
100
AcDbEntity
  8
DEFAULT_1
370
     0
390
0
  6
CL____X1
 62
     1
100
AcDbLine
 10
19.576898
 20
13.313073
 30
0.0
 11
19.576898
 21
12.061119
 31
0.0
  0
LINE
  5
3EB
100
AcDbEntity
  8
DEFAULT_1
370
     0
390
0
  6
CL____X1
 62
     1
100
AcDbLine
 10
19.695785
 20
11.992479
 30
0.0
 11
19.695785
 21
10.872119
 31
0.0
  0
LINE
  5
3EC
100
AcDbEntity
  8
DEFAULT_1
370
     0
390
0
  6
CL____X1
 62
     1
100
AcDbLine
 10
19.576898
 20
12.061119
 30
0.0
 11
19.695785
 21
11.992479
 31
0.0
  0
TEXT
  5
3ED
100
AcDbEntity
  8
0
370
     0
390
0
  6
Continuous
 62
     7
100
AcDbText
 10
15.20888
 20
10.041935
 30
0.0
 40
0.065844
  1
A
 50
270.0
  7
Vcadd_SIMP
100
AcDbText
  0
LINE
  5
3EE
100
AcDbEntity
  8
0
370
     0
390
0
  6
Continuous
 62
     7
100
AcDbLine
 10
15.318625
 20
6.259932
 30
0.0
 11
15.318625
 21
10.134933
 31
0.0
  0
TEXT
  5
3EF
100
AcDbEntity
  8
_2D_DELETED_OBJS
370
     0
390
0
  6
Continuous
 62
     7
100
AcDbText
 10
20.324264
 20
14.805106
 30
0.0
 40
0.142
  1
FORM DRILL
  7
Vcadd_SIMP
100
AcDbText
  0
TEXT
  5
3F0
100
AcDbEntity
  8
_2D_DELETED_OBJS
370
     0
390
0
  6
Continuous
 62
     7
100
AcDbText
 10
20.324264
 20
14.592106
 30
0.0
 40
0.142
  1
994-054-***
  7
Vcadd_SIMP
100
AcDbText
  0
TEXT
  5
3F1
100
AcDbEntity
  8
_2D_DELETED_OBJS
370
     0
390
0
  6
Continuous
 62
     7
100
AcDbText
 10
20.324264
 20
14.346976
 30
0.0
 40
0.142
  1
FORM REAMER
  7
Vcadd_SIMP
100
AcDbText
  0
TEXT
  5
3F2
100
AcDbEntity
  8
_2D_DELETED_OBJS
370
     0
390
0
  6
Continuous
 62
     7
100
AcDbText
 10
20.324264
 20
14.133976
 30
0.0
 40
0.142
  1
995-054-***
  7
Vcadd_SIMP
100
AcDbText
  0
LINE
  5
3F3
100
AcDbEntity
  8
_2D_DELETED_OBJS
370
     0
390
0
  6
Continuous
 62
     1
100
AcDbLine
 10
19.666286
 20
11.950121
 30
0.0
 11
19.516467
 21
11.78493
 31
0.0
  0
INSERT
  5
3F4
100
AcDbEntity
  8
_2D_DELETED_OBJS
370
     0
390
0
  6
Continuous
 62
     1
100
AcDbBlockReference
  2
ARROW
 10
19.666286
 20
11.950121
 30
0.0
 41
1.0
 42
1.0
 50
47.793787
  0
LINE
  5
3F5
100
AcDbEntity
  8
_2D_DELETED_OBJS
370
     0
390
0
  6
Continuous
 62
     1
100
AcDbLine
 10
19.306555
 20
11.78493
 30
0.0
 11
19.516467
 21
11.78493
 31
0.0
  0
TEXT
  5
3F6
100
AcDbEntity
  8
_2D_DELETED_OBJS
370
     0
390
0
  6
Continuous
 62
     7
100
AcDbText
 10
18.436424
 20
11.728667
 30
0.0
 40
0.142
  1
.031 R
  7
Vcadd_SIMP
100
AcDbText
  0
TEXT
  5
3F7
100
AcDbEntity
  8
_2D_DELETED_OBJS
370
     0
390
0
  6
Continuous
 62
     7
100
AcDbText
 10
18.198937
 20
11.731575
 30
0.0
 40
0.142
  1
**
  7
Vcadd_SIMP
100
AcDbText
  0
LINE
  5
3F8
100
AcDbEntity
  8
DEFAULT_3
370
    30
390
0
  6
Continuous
 62
     1
100
AcDbLine
 10
21.777282
 20
10.825119
 30
0.0
 11
24.150297
 21
10.825119
 31
0.0
  0
LINE
  5
3F9
100
AcDbEntity
  8
DEFAULT_3
370
    30
390
0
  6
Continuous
 62
     1
100
AcDbLine
 10
19.594968
 20
10.825119
 30
0.0
 11
17.318181
 21
10.825119
 31
0.0
  0
LINE
  5
3FA
100
AcDbEntity
  8
0
370
     0
390
0
  6
Continuous
 62
     7
100
AcDbLine
 10
15.786626
 20
7.509932
 30
0.0
 11
15.786626
 21
9.884933
 31
0.0
  0
TEXT
  5
3FB
100
AcDbEntity
  8
0
370
     0
390
0
  6
Continuous
 62
     7
100
AcDbText
 10
15.985999
 20
1.3697
 30
0.0
 40
0.1504
  1
SHEET 1 OF 3
 50
270.0
  7
Vcadd_SIMP
100
AcDbText
  0
TEXT
  5
3FC
100
AcDbEntity
  8
0
370
     0
390
0
  6
Continuous
 62
     7
100
AcDbText
 10
24.654887
 20
1.3697
 30
0.0
 40
0.1504
  1
SHEET 1 OF 3
 50
270.0
  7
Vcadd_SIMP
100
AcDbText
  0
TEXT
  5
3FD
100
AcDbEntity
  8
0
370
     0
390
0
  6
Continuous
 62
     7
100
AcDbText
 10
15.985999
 20
2.037776
 30
0.0
 40
0.1504
  1
A
 50
270.0
  7
Vcadd_SIMP
100
AcDbText
  0
TEXT
  5
3FE
100
AcDbEntity
  8
0
370
     0
390
0
  6
Continuous
 62
     7
100
AcDbText
 10
16.191015
 20
1.167858
 30
0.0
 40
0.15
  1
T-54AD INCH
 50
270.0
  7
Vcadd_SIMP
100
AcDbText
  0
TEXT
  5
3FF
100
AcDbEntity
  8
0
370
     0
390
0
  6
Continuous
 62
     7
100
AcDbText
 10
24.679161
 20
2.037776
 30
0.0
 40
0.1504
  1
A
 50
270.0
  7
Vcadd_SIMP
100
AcDbText
  0
TEXT
  5
400
100
AcDbEntity
  8
0
370
     0
390
0
  6
Continuous
 62
     7
100
AcDbText
 10
24.830565
 20
1.177263
 30
0.0
 40
0.15
  1
T-54AD INCH
 50
270.0
  7
Vcadd_SIMP
100
AcDbText
  0
TEXT
  5
401
100
AcDbEntity
  8
_2D_DELETED_OBJS
370
     0
390
0
  6
Continuous
 62
     7
100
AcDbText
 10
16.133147
 20
15.148786
 30
0.0
 40
0.142
  1
T-54AD CAVITY DETAILS
  7
Vcadd_SIMP
100
AcDbText
  0
LINE
  5
402
100
AcDbEntity
  8
_2D_DELETED_OBJS
370
     0
390
0
  6
Continuous
 62
     1
100
AcDbLine
 10
16.097243
 20
15.093587
 30
0.0
 11
19.092438
 21
15.093587
 31
0.0
  0
TEXT
  5
403
100
AcDbEntity
  8
0
370
     0
390
0
  6
Continuous
 62
     7
100
AcDbText
 10
15.338677
 20
4.518153
 30
0.0
 40
0.094
  1
CL
 50
270.0
  7
Vcadd_SIMP
100
AcDbText
  0
TEXT
  5
404
100
AcDbEntity
  8
0
370
     0
390
0
  6
Continuous
 62
     7
100
AcDbText
 10
15.048444
 20
5.211925
 30
0.0
 40
0.062
  1
03APR12
 50
270.0
  7
Vcadd_SIMP
100
AcDbText
  0
TEXT
  5
405
100
AcDbEntity
  8
0
370
     0
390
0
  6
Continuous
 62
     7
100
AcDbText
 10
16.170564
 20
4.647912
 30
0.0
 40
0.142
  1
T-54AD CAVITY
 50
270.0
  7
Vcadd_SIMP
100
AcDbText
  0
LINE
  5
406
100
AcDbEntity
  8
0
370
     0
390
0
  6
Continuous
 62
     7
100
AcDbLine
 10
15.942624
 20
9.884933
 30
0.0
 11
15.942624
 21
7.509932
 31
0.0
  0
TEXT
  5
407
100
AcDbEntity
  8
0
370
     0
390
0
  6
Continuous
 62
     7
100
AcDbText
 10
15.208903
 20
9.853718
 30
0.0
 40
0.065844
  1
RELEASED
 50
270.0
  7
Vcadd_SIMP
100
AcDbText
  0
TEXT
  5
408
100
AcDbEntity
  8
0
370
     0
390
0
  6
Continuous
 62
     7
100
AcDbText
 10
15.20704
 20
6.976283
 30
0.0
 40
0.065844
  1
DAS
 50
270.0
  7
Vcadd_SIMP
100
AcDbText
  0
SPLINE
  5
409
100
AcDbEntity
  8
DEFAULT_1
370
     0
390
0
  6
Continuous
 62
     1
100
AcDbSpline
210
0.0
220
0.0
230
1.0
 70
     0
 71
     2
 72
     0
 73
     0
 74
     2
 44
0.000001
 12
0.0020184450693002
 22
0.0358186370087727
 32
0.0
 13
-0.0010860995313209
 23
0.0358590193043824
 33
0.0
 11
21.998041052668601
 21
6.3767741623187604
 31
0.0
 11
22.004096387876501
 21
6.4842300733450786
 31
0.0
  0
SPLINE
  5
40A
100
AcDbEntity
  8
DEFAULT_1
370
     0
390
0
  6
Continuous
 62
     1
100
AcDbSpline
210
0.0
220
0.0
230
1.0
 70
     0
 71
     2
 72
     0
 73
     0
 74
     2
 44
0.000001
 12
-0.001212822424641
 22
0.040042944024691
 32
0.0
 13
-0.0058933851616985
 23
0.0396254503537072
 33
0.0
 11
22.004096387876501
 21
6.4842300733450786
 31
0.0
 11
21.99116741201734
 21
6.6037165425489901
 31
0.0
  0
SPLINE
  5
40B
100
AcDbEntity
  8
DEFAULT_1
370
     0
390
0
  6
Continuous
 62
     1
100
AcDbSpline
210
0.0
220
0.0
230
1.0
 70
     0
 71
     2
 72
     0
 73
     0
 74
     2
 44
0.000001
 12
-0.0038034454600009
 22
0.0255732885452398
 32
0.0
 13
-0.0051507654264924
 23
0.0253363158313631
 33
0.0
 11
21.99116741201734
 21
6.6037165425489901
 31
0.0
 11
21.975041711357832
 21
6.6795854778104511
 31
0.0
  0
SPLINE
  5
40C
100
AcDbEntity
  8
DEFAULT_1
370
     0
390
0
  6
Continuous
 62
     1
100
AcDbSpline
210
0.0
220
0.0
230
1.0
 70
     0
 71
     2
 72
     0
 73
     0
 74
     2
 44
0.000001
 12
-0.0051515187725819
 22
0.0253400214970094
 32
0.0
 13
-0.0049266456466022
 23
0.025384700073193
 33
0.0
 11
21.975041711357832
 21
6.6795854778104511
 31
0.0
 11
21.960261774418022
 21
6.7557395780300311
 31
0.0
  0
LINE
  5
40D
100
AcDbEntity
  8
DEFAULT_1
370
     0
390
0
  6
Continuous
 62
     1
100
AcDbLine
 10
21.295787
 20
5.544117
 30
0.0
 11
21.97702
 21
5.544117
 31
0.0
  0
LINE
  5
40E
100
AcDbEntity
  8
DEFAULT_1
370
     0
390
0
  6
Continuous
 62
     1
100
AcDbLine
 10
21.833738
 20
5.544117
 30
0.0
 11
24.142627
 21
5.544117
 31
0.0
  0
TEXT
  5
40F
100
AcDbEntity
  8
_2D_DELETED_OBJS
370
     0
390
0
  6
Continuous
 62
     7
100
AcDbText
 10
24.171164
 20
5.486447
 30
0.0
 40
0.142
  1
5.281
  7
Vcadd_SIMP
100
AcDbText
  0
TEXT
  5
410
100
AcDbEntity
  8
_2D_DELETED_OBJS
370
     0
390
0
  6
Continuous
 62
     7
100
AcDbText
 10
22.111691
 20
5.932469
 30
0.0
 40
0.142
  1
2.562
  7
Vcadd_SIMP
100
AcDbText
  0
LINE
  5
411
100
AcDbEntity
  8
DEFAULT_3
370
     0
390
0
  6
Continuous
 62
     1
100
AcDbLine
 10
22.45801
 20
6.825116
 30
0.0
 11
22.45801
 21
6.124374
 31
0.0
  0
LINE
  5
412
100
AcDbEntity
  8
DEFAULT_3
370
     0
390
0
  6
Continuous
 62
     1
100
AcDbLine
 10
22.45801
 20
5.8545
 30
0.0
 11
22.45801
 21
4.263118
 31
0.0
  0
LINE
  5
413
100
AcDbEntity
  8
0
370
     0
390
0
  6
Continuous
 62
     7
100
AcDbLine
 10
21.509786
 20
9.785979
 30
0.0
 11
21.424073
 21
9.700266
 31
0.0
  0
LINE
  5
414
100
AcDbEntity
  8
0
370
     0
390
0
  6
Continuous
 62
     7
100
AcDbLine
 10
21.385286
 20
6.758479
 30
0.0
 11
21.385286
 21
5.315979
 31
0.0
  0
LINE
  5
415
100
AcDbEntity
  8
0
370
     0
390
0
  6
Continuous
 62
     7
100
AcDbLine
 10
21.385286
 20
4.971979
 30
0.0
 11
21.385286
 21
4.261979
 31
0.0
  0
LINE
  5
416
100
AcDbEntity
  8
0
370
     0
390
0
  6
Continuous
 62
     7
100
AcDbLine
 10
21.415286
 20
7.647979
 30
0.0
 11
21.415286
 21
9.679053
 31
0.0
  0
LINE
  5
417
100
AcDbEntity
  8
0
370
     0
390
0
  6
Continuous
 62
     7
100
AcDbLine
 10
21.423786
 20
4.089979
 30
0.0
 11
21.423786
 21
3.851979
 31
0.0
  0
LINE
  5
418
100
AcDbEntity
  8
0
370
     0
390
0
  6
Continuous
 62
     7
100
AcDbLine
 10
21.471286
 20
6.946479
 30
0.0
 11
21.471286
 21
7.183979
 31
0.0
  0
LINE
  5
419
100
AcDbEntity
  8
0
370
     0
390
0
  6
Continuous
 62
     7
100
AcDbLine
 10
21.508786
 20
4.167979
 30
0.0
 11
21.508786
 21
4.089979
 31
0.0
  0
LINE
  5
41A
100
AcDbEntity
  8
0
370
     0
390
0
  6
Continuous
 62
     7
100
AcDbLine
 10
21.508786
 20
3.851979
 30
0.0
 11
21.508786
 21
3.763979
 31
0.0
  0
LINE
  5
41B
100
AcDbEntity
  8
0
370
     0
390
0
  6
Continuous
 62
     7
100
AcDbLine
 10
21.509786
 20
9.885979
 30
0.0
 11
21.509786
 21
9.785979
 31
0.0
  0
LINE
  5
41C
100
AcDbEntity
  8
0
370
     0
390
0
  6
Continuous
 62
     7
100
AcDbLine
 10
21.555786
 20
6.852479
 30
0.0
 11
21.555786
 21
6.946479
 31
0.0
  0
LINE
  5
41D
100
AcDbEntity
  8
0
370
     0
390
0
  6
Continuous
 62
     7
100
AcDbLine
 10
21.555786
 20
7.183979
 30
0.0
 11
21.555786
 21
7.277979
 31
0.0
  0
LINE
  5
41E
100
AcDbEntity
  8
0
370
     0
390
0
  6
Continuous
 62
     7
100
AcDbLine
 10
21.486785
 20
3.741981
 30
0.0
 11
21.508785
 21
3.763981
 31
0.0
  0
ARC
  5
41F
100
AcDbEntity
  8
0
370
     0
390
0
  6
Continuous
 62
     7
100
AcDbCircle
 10
20.406522
 20
9.105974
 30
0.0
 40
0.812887
100
AcDbArc
 50
357.350491
 51
362.691985
  0
ARC
  5
420
100
AcDbEntity
  8
0
370
     0
390
0
  6
Continuous
 62
     7
100
AcDbCircle
 10
21.509286
 20
7.371979
 30
0.0
 40
0.094
100
AcDbArc
 50
226.336262
 51
270.0
  0
ARC
  5
421
100
AcDbEntity
  8
0
370
     0
390
0
  6
Continuous
 62
     7
100
AcDbCircle
 10
21.479286
 20
6.758479
 30
0.0
 40
0.094
100
AcDbArc
 50
90.0
 51
180.0
  0
ARC
  5
422
100
AcDbEntity
  8
0
370
     0
390
0
  6
Continuous
 62
     7
100
AcDbCircle
 10
21.479286
 20
4.261979
 30
0.0
 40
0.094
100
AcDbArc
 50
180.0
 51
270.0
  0
ARC
  5
423
100
AcDbEntity
  8
0
370
     0
390
0
  6
Continuous
 62
     7
100
AcDbCircle
 10
21.445286
 20
9.679053
 30
0.0
 40
0.03
100
AcDbArc
 50
135.0
 51
180.0
  0
SPLINE
  5
424
100
AcDbEntity
  8
0
370
     0
390
0
  6
Continuous
 62
     7
100
AcDbSpline
210
0.0
220
0.0
230
1.0
 70
     0
 71
     2
 72
     0
 73
     0
 74
     2
 44
0.000001
 12
-0.0014826114999948
 22
0.0121313484999988
 32
0.0
 13
-0.0011362540039457
 23
0.0121686761862971
 33
0.0
 11
21.402085826609152
 21
7.3719793091083092
 31
0.0
 11
21.397637992109154
 21
7.4083733546083126
 31
0.0
  0
SPLINE
  5
425
100
AcDbEntity
  8
0
370
     0
390
0
  6
Continuous
 62
     7
100
AcDbSpline
210
0.0
220
0.0
230
1.0
 70
     0
 71
     2
 72
     0
 73
     0
 74
     2
 44
0.000001
 12
-0.0012657425143381
 22
0.0135554292779183
 32
0.0
 13
-0.0005102228628147
 23
0.0136048314819259
 33
0.0
 11
21.397637992109154
 21
7.4083733546083126
 31
0.0
 11
21.394882464859151
 21
7.4491234831083082
 31
0.0
  0
SPLINE
  5
426
100
AcDbEntity
  8
0
370
     0
390
0
  6
Continuous
 62
     7
100
AcDbSpline
210
0.0
220
0.0
230
1.0
 70
     0
 71
     2
 72
     0
 73
     0
 74
     2
 44
0.000001
 12
-0.0005257553942002
 22
0.0140189984812569
 32
0.0
 13
0.0002994660633924
 23
0.0140256571050656
 33
0.0
 11
21.394882464859151
 21
7.4491234831083082
 31
0.0
 11
21.394531417359154
 21
7.4912085802333079
 31
0.0
  0
SPLINE
  5
427
100
AcDbEntity
  8
0
370
     0
390
0
  6
Continuous
 62
     7
100
AcDbSpline
210
0.0
220
0.0
230
1.0
 70
     0
 71
     2
 72
     0
 73
     0
 74
     2
 44
0.000001
 12
0.0002952027470045
 22
0.0138259823470168
 32
0.0
 13
0.0010820818667554
 23
0.0137867338900666
 33
0.0
 11
21.394531417359154
 21
7.4912085802333079
 31
0.0
 11
21.396665673734155
 21
7.5326410474833123
 31
0.0
  0
SPLINE
  5
428
100
AcDbEntity
  8
0
370
     0
390
0
  6
Continuous
 62
     7
100
AcDbSpline
210
0.0
220
0.0
230
1.0
 70
     0
 71
     2
 72
     0
 73
     0
 74
     2
 44
0.000001
 12
0.0009960725479132
 22
0.0126908948160622
 32
0.0
 13
0.0016478901585515
 23
0.0126228138613573
 33
0.0
 11
21.396665673734155
 21
7.5326410474833123
 31
0.0
 11
21.400763437484152
 21
7.570610338733311
 31
0.0
  0
SPLINE
  5
429
100
AcDbEntity
  8
0
370
     0
390
0
  6
Continuous
 62
     7
100
AcDbSpline
210
0.0
220
0.0
230
1.0
 70
     0
 71
     2
 72
     0
 73
     0
 74
     2
 44
0.000001
 12
0.0014144038252084
 22
0.0108343120550902
 32
0.0
 13
0.0018723350387546
 23
0.0107646280655871
 33
0.0
 11
21.400763437484152
 21
7.570610338733311
 31
0.0
 11
21.405849892609154
 21
7.6029920261083079
 31
0.0
  0
SPLINE
  5
42A
100
AcDbEntity
  8
0
370
     0
390
0
  6
Continuous
 62
     7
100
AcDbSpline
210
0.0
220
0.0
230
1.0
 70
     0
 71
     2
 72
     0
 73
     0
 74
     2
 44
0.000001
 12
0.0014333361831405
 22
0.0082406890781517
 32
0.0
 13
0.00169040256106
 23
0.0081918220365296
 33
0.0
 11
21.405849892609154
 21
7.6029920261083079
 31
0.0
 11
21.410678707734156
 21
7.6276162667333098
 31
0.0
  0
SPLINE
  5
42B
100
AcDbEntity
  8
0
370
     0
390
0
  6
Continuous
 62
     7
100
AcDbSpline
210
0.0
220
0.0
230
1.0
 70
     0
 71
     2
 72
     0
 73
     0
 74
     2
 44
0.000001
 12
0.0010539395316798
 22
0.0051074727876479
 32
0.0
 13
0.0011508606423227
 23
0.0050865102570405
 33
0.0
 11
21.410678707734156
 21
7.6276162667333098
 31
0.0
 11
21.414082277859155
 21
7.6428868041083105
 31
0.0
  0
SPLINE
  5
42C
100
AcDbEntity
  8
0
370
     0
390
0
  6
Continuous
 62
     7
100
AcDbSpline
210
0.0
220
0.0
230
1.0
 70
     0
 71
     2
 72
     0
 73
     0
 74
     2
 44
0.000001
 12
0.0003849261087971
 22
0.0017012751401957
 32
0.0
 13
0.0004012397083315
 23
0.0016975016666656
 33
0.0
 11
21.414082277859155
 21
7.6428868041083105
 31
0.0
 11
21.415285996984153
 21
7.647979309108309
 31
0.0
  0
SPLINE
  5
42D
100
AcDbEntity
  8
0
370
     0
390
0
  6
Continuous
 62
     7
100
AcDbSpline
210
0.0
220
0.0
230
1.0
 70
     0
 71
     2
 72
     0
 73
     0
 74
     2
 44
0.000001
 12
-0.0060373681666697
 22
0.0121355070416662
 32
0.0
 13
-0.0046740713977727
 23
0.0127229478544386
 33
0.0
 11
21.098930134234156
 21
7.3719793091083092
 31
0.0
 11
21.080818029734154
 21
7.4083858302333079
 31
0.0
  0
SPLINE
  5
42E
100
AcDbEntity
  8
0
370
     0
390
0
  6
Continuous
 62
     7
100
AcDbSpline
210
0.0
220
0.0
230
1.0
 70
     0
 71
     2
 72
     0
 73
     0
 74
     2
 44
0.000001
 12
-0.0048346457131174
 22
0.0131600354526142
 32
0.0
 13
-0.0019265880822772
 23
0.0138869935784047
 33
0.0
 11
21.080818029734154
 21
7.4083858302333079
 31
0.0
 11
21.070569365609153
 21
7.4491780828583094
 31
0.0
  0
SPLINE
  5
42F
100
AcDbEntity
  8
0
370
     0
390
0
  6
Continuous
 62
     7
100
AcDbSpline
210
0.0
220
0.0
230
1.0
 70
     0
 71
     2
 72
     0
 73
     0
 74
     2
 44
0.000001
 12
-0.0019288358765266
 22
0.0139031958504567
 32
0.0
 13
0.0011052447927753
 23
0.0139927730147669
 33
0.0
 11
21.070569365609153
 21
7.4491780828583094
 31
0.0
 11
21.069319432734154
 21
7.4912685928583107
 31
0.0
  0
SPLINE
  5
430
100
AcDbEntity
  8
0
370
     0
390
0
  6
Continuous
 62
     7
100
AcDbSpline
210
0.0
220
0.0
230
1.0
 70
     0
 71
     2
 72
     0
 73
     0
 74
     2
 44
0.000001
 12
0.0011083536933363
 22
0.0140321327476958
 32
0.0
 13
0.0040776558269471
 23
0.0134722648547125
 33
0.0
 11
21.069319432734154
 21
7.4912685928583107
 31
0.0
 11
21.077171212984155
 21
7.5327597042333112
 31
0.0
  0
SPLINE
  5
431
100
AcDbEntity
  8
0
370
     0
390
0
  6
Continuous
 62
     7
100
AcDbSpline
210
0.0
220
0.0
230
1.0
 70
     0
 71
     2
 72
     0
 73
     0
 74
     2
 44
0.000001
 12
0.0039851212493964
 22
0.0131665376452705
 32
0.0
 13
0.0067219562178309
 23
0.0120022585183897
 33
0.0
 11
21.077171212984155
 21
7.5327597042333112
 31
0.0
 11
21.093366534359156
 21
7.570718388483308
 31
0.0
  0
SPLINE
  5
432
100
AcDbEntity
  8
0
370
     0
390
0
  6
Continuous
 62
     7
100
AcDbSpline
210
0.0
220
0.0
230
1.0
 70
     0
 71
     2
 72
     0
 73
     0
 74
     2
 44
0.000001
 12
0.006497519438291
 22
0.0116015197807808
 32
0.0
 13
0.008889716524461
 23
0.0098886783843763
 33
0.0
 11
21.093366534359156
 21
7.570718388483308
 31
0.0
 11
21.116593835734157
 21
7.6031500034833117
 31
0.0
  0
SPLINE
  5
433
100
AcDbEntity
  8
0
370
     0
390
0
  6
Continuous
 62
     7
100
AcDbSpline
210
0.0
220
0.0
230
1.0
 70
     0
 71
     2
 72
     0
 73
     0
 74
     2
 44
0.000001
 12
0.0082952590734067
 22
0.0092274201169751
 32
0.0
 13
0.0102551024025459
 23
0.0069849466585872
 33
0.0
 11
21.116593835734157
 21
7.6031500034833117
 31
0.0
 11
21.144582958609149
 21
7.6276901429833108
 31
0.0
  0
SPLINE
  5
434
100
AcDbEntity
  8
0
370
     0
390
0
  6
Continuous
 62
     7
100
AcDbSpline
210
0.0
220
0.0
230
1.0
 70
     0
 71
     2
 72
     0
 73
     0
 74
     2
 44
0.000001
 12
0.0093595780265119
 22
0.0063749878544126
 32
0.0
 13
0.0107376697417081
 23
0.0035978631847655
 33
0.0
 11
21.144582958609149
 21
7.6276901429833108
 31
0.0
 11
21.174959310734152
 21
7.6429038463583128
 31
0.0
  0
SPLINE
  5
435
100
AcDbEntity
  8
0
370
     0
390
0
  6
Continuous
 62
     7
100
AcDbSpline
210
0.0
220
0.0
230
1.0
 70
     0
 71
     2
 72
     0
 73
     0
 74
     2
 44
0.000001
 12
0.0096714143601631
 22
0.0032405937701565
 32
0.0
 13
0.0100586005833279
 23
0.0016918209166672
 33
0.0
 11
21.174959310734152
 21
7.6429038463583128
 31
0.0
 11
21.20513511248415
 21
7.647979309108309
 31
0.0
  0
SPLINE
  5
436
100
AcDbEntity
  8
0
370
     0
390
0
  6
Continuous
 62
     7
100
AcDbSpline
210
0.0
220
0.0
230
1.0
 70
     0
 71
     2
 72
     0
 73
     0
 74
     2
 44
0.000001
 12
-0.0092142180000003
 22
0.0014197089583323
 32
0.0
 13
-0.008907563162559
 23
0.0027518548985839
 33
0.0
 11
21.183921909109152
 21
4.9719793091083107
 31
0.0
 11
21.156279255109155
 21
4.9762384359833129
 31
0.0
  0
SPLINE
  5
437
100
AcDbEntity
  8
0
370
     0
390
0
  6
Continuous
 62
     7
100
AcDbSpline
210
0.0
220
0.0
230
1.0
 70
     0
 71
     2
 72
     0
 73
     0
 74
     2
 44
0.000001
 12
-0.0099903626613695
 22
0.0030863691816219
 32
0.0
 13
-0.0088872174247925
 23
0.0055091185570166
 33
0.0
 11
21.156279255109155
 21
4.9762384359833129
 31
0.0
 11
21.127771227859157
 21
4.9893262001083079
 31
0.0
  0
SPLINE
  5
438
100
AcDbEntity
  8
0
370
     0
390
0
  6
Continuous
 62
     7
100
AcDbSpline
210
0.0
220
0.0
230
1.0
 70
     0
 71
     2
 72
     0
 73
     0
 74
     2
 44
0.000001
 12
-0.0095632318481158
 22
0.0059281747617081
 32
0.0
 13
-0.0079928108057246
 23
0.0079191940757894
 33
0.0
 11
21.127771227859157
 21
4.9893262001083079
 31
0.0
 11
21.101326139234153
 21
5.010303454983311
 31
0.0
  0
SPLINE
  5
439
100
AcDbEntity
  8
0
370
     0
390
0
  6
Continuous
 62
     7
100
AcDbSpline
210
0.0
220
0.0
230
1.0
 70
     0
 71
     2
 72
     0
 73
     0
 74
     2
 44
0.000001
 12
-0.0085220776632084
 22
0.0084435861906762
 32
0.0
 13
-0.0066206488943408
 23
0.0100043472388247
 33
0.0
 11
21.101326139234153
 21
5.010303454983311
 31
0.0
 11
21.078508213234151
 21
5.038135484233309
 31
0.0
  0
SPLINE
  5
43A
100
AcDbEntity
  8
0
370
     0
390
0
  6
Continuous
 62
     7
100
AcDbSpline
210
0.0
220
0.0
230
1.0
 70
     0
 71
     2
 72
     0
 73
     0
 74
     2
 44
0.000001
 12
-0.0068430537130268
 22
0.0103404192869458
 32
0.0
 13
-0.0046547253497522
 23
0.0114928319864003
 33
0.0
 11
21.078508213234151
 21
5.038135484233309
 31
0.0
 11
21.061138579984153
 21
5.0710301758583105
 31
0.0
  0
SPLINE
  5
43B
100
AcDbEntity
  8
0
370
     0
390
0
  6
Continuous
 62
     7
100
AcDbSpline
210
0.0
220
0.0
230
1.0
 70
     0
 71
     2
 72
     0
 73
     0
 74
     2
 44
0.000001
 12
-0.0048205319647749
 22
0.0119022197430407
 32
0.0
 13
-0.0023950481696673
 23
0.0126160258203623
 33
0.0
 11
21.061138579984153
 21
5.0710301758583105
 31
0.0
 11
21.050222326859156
 21
5.1079752524833095
 31
0.0
  0
SPLINE
  5
43C
100
AcDbEntity
  8
0
370
     0
390
0
  6
Continuous
 62
     7
100
AcDbSpline
210
0.0
220
0.0
230
1.0
 70
     0
 71
     2
 72
     0
 73
     0
 74
     2
 44
0.000001
 12
-0.0023904390416618
 22
0.0125917470276615
 32
0.0
 13
0.0001415199090289
 23
0.0128158598672048
 33
0.0
 11
21.050222326859156
 21
5.1079752524833095
 31
0.0
 11
21.046853533234156
 21
5.1462773132333082
 31
0.0
  0
SPLINE
  5
43D
100
AcDbEntity
  8
0
370
     0
390
0
  6
Continuous
 62
     7
100
AcDbSpline
210
0.0
220
0.0
230
1.0
 70
     0
 71
     2
 72
     0
 73
     0
 74
     2
 44
0.000001
 12
0.0001403226404193
 22
0.0127074367713362
 32
0.0
 13
0.0026268892349108
 23
0.0124337481351535
 33
0.0
 11
21.046853533234156
 21
5.1462773132333082
 31
0.0
 11
21.051063698359158
 21
5.1841687669833112
 31
0.0
  0
SPLINE
  5
43E
100
AcDbEntity
  8
0
370
     0
390
0
  6
Continuous
 62
     7
100
AcDbSpline
210
0.0
220
0.0
230
1.0
 70
     0
 71
     2
 72
     0
 73
     0
 74
     2
 44
0.000001
 12
0.0025918103365115
 22
0.0122677106099953
 32
0.0
 13
0.0049133897965241
 23
0.0115357186658862
 33
0.0
 11
21.051063698359158
 21
5.1841687669833112
 31
0.0
 11
21.062434186609156
 21
5.2200245871083082
 31
0.0
  0
SPLINE
  5
43F
100
AcDbEntity
  8
0
370
     0
390
0
  6
Continuous
 62
     7
100
AcDbSpline
210
0.0
220
0.0
230
1.0
 70
     0
 71
     2
 72
     0
 73
     0
 74
     2
 44
0.000001
 12
0.0047520193758892
 22
0.0111568511527302
 32
0.0
 13
0.0068328628714944
 23
0.0100184330497477
 33
0.0
 11
21.062434186609156
 21
5.2200245871083082
 31
0.0
 11
21.079923098484155
 21
5.2519252313583094
 31
0.0
  0
SPLINE
  5
440
100
AcDbEntity
  8
0
370
     0
390
0
  6
Continuous
 62
     7
100
AcDbSpline
210
0.0
220
0.0
230
1.0
 70
     0
 71
     2
 72
     0
 73
     0
 74
     2
 44
0.000001
 12
0.0066101338591302
 22
0.0096918648541688
 32
0.0
 13
0.0084247918695866
 23
0.0081638836310471
 33
0.0
 11
21.079923098484155
 21
5.2519252313583094
 31
0.0
 11
21.102566874359155
 21
5.2788676596083102
 31
0.0
  0
SPLINE
  5
441
100
AcDbEntity
  8
0
370
     0
390
0
  6
Continuous
 62
     7
100
AcDbSpline
210
0.0
220
0.0
230
1.0
 70
     0
 71
     2
 72
     0
 73
     0
 74
     2
 44
0.000001
 12
0.0079355722755849
 22
0.0076898147285487
 32
0.0
 13
0.0094372463140004
 23
0.0057484728327992
 33
0.0
 11
21.102566874359155
 21
5.2788676596083102
 31
0.0
 11
21.128732251109156
 21
5.2992228083583077
 31
0.0
  0
SPLINE
  5
442
100
AcDbEntity
  8
0
370
     0
390
0
  6
Continuous
 62
     7
100
AcDbSpline
210
0.0
220
0.0
230
1.0
 70
     0
 71
     2
 72
     0
 73
     0
 74
     2
 44
0.000001
 12
0.0087406045690273
 22
0.0053241301790319
 32
0.0
 13
0.0097930495790166
 23
0.0029733332033945
 33
0.0
 11
21.128732251109156
 21
5.2992228083583077
 31
0.0
 11
21.156717845234155
 21
5.3118524281083088
 31
0.0
  0
SPLINE
  5
443
100
AcDbEntity
  8
0
370
     0
390
0
  6
Continuous
 62
     7
100
AcDbSpline
210
0.0
220
0.0
230
1.0
 70
     0
 71
     2
 72
     0
 73
     0
 74
     2
 44
0.000001
 12
0.0087761779037834
 22
0.0026645940010503
 32
0.0
 13
0.0090680212916681
 23
0.0013756269999998
 33
0.0
 11
21.156717845234155
 21
5.3118524281083088
 31
0.0
 11
21.183921909109152
 21
5.3159793091083083
 31
0.0
  0
SPLINE
  5
444
100
AcDbEntity
  8
0
370
     0
390
0
  6
Continuous
 62
     7
100
AcDbSpline
210
0.0
220
0.0
230
1.0
 70
     0
 71
     2
 72
     0
 73
     0
 74
     2
 44
0.000001
 12
-0.006695531041661
 22
0.0006563753333335
 32
0.0
 13
-0.0066308861699014
 23
0.001136799502941
 33
0.0
 11
21.22571197435915
 21
7.3039793091083078
 31
0.0
 11
21.205625381234157
 21
7.3059484351083102
 31
0.0
  0
SPLINE
  5
445
100
AcDbEntity
  8
0
370
     0
390
0
  6
Continuous
 62
     7
100
AcDbSpline
210
0.0
220
0.0
230
1.0
 70
     0
 71
     2
 72
     0
 73
     0
 74
     2
 44
0.000001
 12
-0.006515222490588
 22
0.0011169701151612
 32
0.0
 13
-0.0063232025869411
 23
0.0019268771067402
 33
0.0
 11
21.205625381234157
 21
7.3059484351083102
 31
0.0
 11
21.186377846484156
 21
7.3107227542333115
 31
0.0
  0
SPLINE
  5
446
100
AcDbEntity
  8
0
370
     0
390
0
  6
Continuous
 62
     7
100
AcDbSpline
210
0.0
220
0.0
230
1.0
 70
     0
 71
     2
 72
     0
 73
     0
 74
     2
 44
0.000001
 12
-0.0059816877050309
 22
0.001822806867251
 32
0.0
 13
-0.0057641016605103
 23
0.0024245297942471
 33
0.0
 11
21.186377846484156
 21
7.3107227542333115
 31
0.0
 11
21.16876478685915
 21
7.3171810082333097
 31
0.0
  0
SPLINE
  5
447
100
AcDbEntity
  8
0
370
     0
390
0
  6
Continuous
 62
     7
100
AcDbSpline
210
0.0
220
0.0
230
1.0
 70
     0
 71
     2
 72
     0
 73
     0
 74
     2
 44
0.000001
 12
-0.0055099751552561
 22
0.0023176376331158
 32
0.0
 13
-0.0052615477568949
 23
0.0028367914290328
 33
0.0
 11
21.16876478685915
 21
7.3171810082333097
 31
0.0
 11
21.152594206234156
 21
7.3249330244833084
 31
0.0
  0
SPLINE
  5
448
100
AcDbEntity
  8
0
370
     0
390
0
  6
Continuous
 62
     7
100
AcDbSpline
210
0.0
220
0.0
230
1.0
 70
     0
 71
     2
 72
     0
 73
     0
 74
     2
 44
0.000001
 12
-0.0052037773049172
 22
0.002805644182903
 32
0.0
 13
-0.0048947816895506
 23
0.0033154260256882
 33
0.0
 11
21.152594206234156
 21
7.3249330244833084
 31
0.0
 11
21.137404548984158
 21
7.3340890471083116
 31
0.0
  0
SPLINE
  5
449
100
AcDbEntity
  8
0
370
     0
390
0
  6
Continuous
 62
     7
100
AcDbSpline
210
0.0
220
0.0
230
1.0
 70
     0
 71
     2
 72
     0
 73
     0
 74
     2
 44
0.000001
 12
-0.0049844276457378
 22
0.0033761467186721
 32
0.0
 13
-0.0045705927576627
 23
0.0039182352488307
 33
0.0
 11
21.137404548984158
 21
7.3340890471083116
 31
0.0
 11
21.122997281609155
 21
7.3449801727333126
 31
0.0
  0
SPLINE
  5
44A
100
AcDbEntity
  8
0
370
     0
390
0
  6
Continuous
 62
     7
100
AcDbSpline
210
0.0
220
0.0
230
1.0
 70
     0
 71
     2
 72
     0
 73
     0
 74
     2
 44
0.000001
 12
-0.0046096587184401
 22
0.0039517253523282
 32
0.0
 13
-0.0040401578890474
 23
0.0045323515962803
 33
0.0
 11
21.122997281609155
 21
7.3449801727333126
 31
0.0
 11
21.109915258234153
 21
7.3576548106083104
 31
0.0
  0
SPLINE
  5
44B
100
AcDbEntity
  8
0
370
     0
390
0
  6
Continuous
 62
     7
100
AcDbSpline
210
0.0
220
0.0
230
1.0
 70
     0
 71
     2
 72
     0
 73
     0
 74
     2
 44
0.000001
 12
-0.0040039420435036
 22
0.0044917237421505
 32
0.0
 13
-0.0036617079999957
 23
0.0047748328333341
 33
0.0
 11
21.109915258234153
 21
7.3576548106083104
 31
0.0
 11
21.098930134234156
 21
7.3719793091083092
 31
0.0
  0
SPLINE
  5
44C
100
AcDbEntity
  8
0
370
     0
390
0
  6
Continuous
 62
     7
100
AcDbSpline
210
0.0
220
0.0
230
1.0
 70
     0
 71
     2
 72
     0
 73
     0
 74
     2
 44
0.000001
 12
-0.0008152761250031
 22
0.0006539114583362
 32
0.0
 13
-0.0007966760725324
 23
0.0006764485130439
 33
0.0
 11
21.444386074109154
 21
7.3039793091083078
 31
0.0
 11
21.441940245734152
 21
7.3059410434833092
 31
0.0
  0
SPLINE
  5
44D
100
AcDbEntity
  8
0
370
     0
390
0
  6
Continuous
 62
     7
100
AcDbSpline
210
0.0
220
0.0
230
1.0
 70
     0
 71
     2
 72
     0
 73
     0
 74
     2
 44
0.000001
 12
-0.0018322385791407
 22
0.0015557327565716
 32
0.0
 13
-0.0017551233616047
 23
0.0016422376826473
 33
0.0
 11
21.441940245734152
 21
7.3059410434833092
 31
0.0
 11
21.436500670484158
 21
7.3106747148583091
 31
0.0
  0
SPLINE
  5
44E
100
AcDbEntity
  8
0
370
     0
390
0
  6
Continuous
 62
     7
100
AcDbSpline
210
0.0
220
0.0
230
1.0
 70
     0
 71
     2
 72
     0
 73
     0
 74
     2
 44
0.000001
 12
-0.0022321496021789
 22
0.0020885826433581
 32
0.0
 13
-0.0020807836112056
 23
0.0022394215476229
 33
0.0
 11
21.436500670484158
 21
7.3106747148583091
 31
0.0
 11
21.429984541609151
 21
7.3171277829833121
 31
0.0
  0
SPLINE
  5
44F
100
AcDbEntity
  8
0
370
     0
390
0
  6
Continuous
 62
     7
100
AcDbSpline
210
0.0
220
0.0
230
1.0
 70
     0
 71
     2
 72
     0
 73
     0
 74
     2
 44
0.000001
 12
-0.0023307120548921
 22
0.0025084044150105
 32
0.0
 13
-0.0021095179315971
 23
0.0026970809198801
 33
0.0
 11
21.429984541609151
 21
7.3171277829833121
 31
0.0
 11
21.423276388359156
 21
7.3249072098583108
 31
0.0
  0
SPLINE
  5
450
100
AcDbEntity
  8
0
370
     0
390
0
  6
Continuous
 62
     7
100
AcDbSpline
210
0.0
220
0.0
230
1.0
 70
     0
 71
     2
 72
     0
 73
     0
 74
     2
 44
0.000001
 12
-0.0023185662240763
 22
0.0029643553300787
 32
0.0
 13
-0.0020109599019875
 23
0.0031810677658584
 33
0.0
 11
21.423276388359156
 21
7.3249072098583108
 31
0.0
 11
21.416714109609153
 21
7.3340944218583077
 31
0.0
  0
SPLINE
  5
451
100
AcDbEntity
  8
0
370
     0
390
0
  6
Continuous
 62
     7
100
AcDbSpline
210
0.0
220
0.0
230
1.0
 70
     0
 71
     2
 72
     0
 73
     0
 74
     2
 44
0.000001
 12
-0.0022276786321278
 22
0.0035238876132571
 32
0.0
 13
-0.0017971190728616
 23
0.0037617414898996
 33
0.0
 11
21.416714109609153
 21
7.3340944218583077
 31
0.0
 11
21.410578796859156
 21
7.3449930897333102
 31
0.0
  0
SPLINE
  5
452
100
AcDbEntity
  8
0
370
     0
390
0
  6
Continuous
 62
     7
100
AcDbSpline
210
0.0
220
0.0
230
1.0
 70
     0
 71
     2
 72
     0
 73
     0
 74
     2
 44
0.000001
 12
-0.0019630510783202
 22
0.0041090714575418
 32
0.0
 13
-0.0013670787554574
 23
0.0043438615833882
 33
0.0
 11
21.410578796859156
 21
7.3449930897333102
 31
0.0
 11
21.405456799609155
 21
7.3576582973583102
 31
0.0
  0
SPLINE
  5
453
100
AcDbEntity
  8
0
370
     0
390
0
  6
Continuous
 62
     7
100
AcDbSpline
210
0.0
220
0.0
230
1.0
 70
     0
 71
     2
 72
     0
 73
     0
 74
     2
 44
0.000001
 12
-0.001472217907807
 22
0.0046779388433347
 32
0.0
 13
-0.0011236576666676
 23
0.0047736705833312
 33
0.0
 11
21.405456799609155
 21
7.3576582973583102
 31
0.0
 11
21.402085826609152
 21
7.3719793091083092
 31
0.0
  0
SPLINE
  5
454
100
AcDbEntity
  8
0
370
     0
390
0
  6
Continuous
 62
     7
100
AcDbSpline
210
0.0
220
0.0
230
1.0
 70
     0
 71
     2
 72
     0
 73
     0
 74
     2
 44
0.000001
 12
0.000160104541667
 22
0.0008747103333295
 32
0.0
 13
0.0001150629131459
 23
0.0008817664982974
 33
0.0
 11
21.211910530609153
 21
6.2090412287333114
 31
0.0
 11
21.21239084423415
 21
6.2116653597333089
 31
0.0
  0
SPLINE
  5
455
100
AcDbEntity
  8
0
370
     0
390
0
  6
Continuous
 62
     7
100
AcDbSpline
210
0.0
220
0.0
230
1.0
 70
     0
 71
     2
 72
     0
 73
     0
 74
     2
 44
0.000001
 12
0.001589702833563
 22
0.0121824370902193
 32
0.0
 13
0.0010766421039428
 23
0.0122384545730281
 33
0.0
 11
21.21239084423415
 21
6.2116653597333089
 31
0.0
 11
21.217024341359156
 21
6.2482301113583079
 31
0.0
  0
SPLINE
  5
456
100
AcDbEntity
  8
0
370
     0
390
0
  6
Continuous
 62
     7
100
AcDbSpline
210
0.0
220
0.0
230
1.0
 70
     0
 71
     2
 72
     0
 73
     0
 74
     2
 44
0.000001
 12
0.0011782184633944
 22
0.0133930979371666
 32
0.0
 13
0.0003516312269412
 23
0.0134402242013341
 33
0.0
 11
21.217024341359156
 21
6.2482301113583079
 31
0.0
 11
21.219150892359153
 21
6.2885084829833078
 31
0.0
  0
SPLINE
  5
457
100
AcDbEntity
  8
0
370
     0
390
0
  6
Continuous
 62
     7
100
AcDbSpline
210
0.0
220
0.0
230
1.0
 70
     0
 71
     2
 72
     0
 73
     0
 74
     2
 44
0.000001
 12
0.0003572026958985
 22
0.0136531796676653
 32
0.0
 13
-0.0003578200472738
 23
0.0136531635021786
 33
0.0
 11
21.219150892359153
 21
6.2885084829833078
 31
0.0
 11
21.219150103109158
 21
6.329482037608309
 31
0.0
  0
SPLINE
  5
458
100
AcDbEntity
  8
0
370
     0
390
0
  6
Continuous
 62
     7
100
AcDbSpline
210
0.0
220
0.0
230
1.0
 70
     0
 71
     2
 72
     0
 73
     0
 74
     2
 44
0.000001
 12
-0.000352266210264
 22
0.0134412484754201
 32
0.0
 13
-0.0011789041390671
 23
0.0133940821668244
 33
0.0
 11
21.219150103109158
 21
6.329482037608309
 31
0.0
 11
21.217021375234154
 21
6.3697634202333093
 31
0.0
  0
SPLINE
  5
459
100
AcDbEntity
  8
0
370
     0
390
0
  6
Continuous
 62
     7
100
AcDbSpline
210
0.0
220
0.0
230
1.0
 70
     0
 71
     2
 72
     0
 73
     0
 74
     2
 44
0.000001
 12
-0.0010766262979942
 22
0.0122320557035938
 32
0.0
 13
-0.0015894661691185
 23
0.0121760382809235
 33
0.0
 11
21.217021375234154
 21
6.3697634202333093
 31
0.0
 11
21.212388047984152
 21
6.4063089134833104
 31
0.0
  0
SPLINE
  5
45A
100
AcDbEntity
  8
0
370
     0
390
0
  6
Continuous
 62
     7
100
AcDbSpline
210
0.0
220
0.0
230
1.0
 70
     0
 71
     2
 72
     0
 73
     0
 74
     2
 44
0.000001
 12
-0.0001146811195731
 22
0.0008785098602004
 32
0.0
 13
-0.0001595433749983
 23
0.0008714799166665
 33
0.0
 11
21.212388047984152
 21
6.4063089134833104
 31
0.0
 11
21.211909417859154
 21
6.4089233532333099
 31
0.0
  0
SPLINE
  5
45B
100
AcDbEntity
  8
0
370
     0
390
0
  6
Continuous
 62
     7
100
AcDbSpline
210
0.0
220
0.0
230
1.0
 70
     0
 71
     2
 72
     0
 73
     0
 74
     2
 44
0.000001
 12
0.0017063635416683
 22
0.0022322396666663
 32
0.0
 13
0.0014243318386384
 23
0.002421951543532
 33
0.0
 11
21.136571976609154
 21
7.3346727132333109
 31
0.0
 11
21.141691067234152
 21
7.3413694322333098
 31
0.0
  0
SPLINE
  5
45C
100
AcDbEntity
  8
0
370
     0
390
0
  6
Continuous
 62
     7
100
AcDbSpline
210
0.0
220
0.0
230
1.0
 70
     0
 71
     2
 72
     0
 73
     0
 74
     2
 44
0.000001
 12
0.0051983056621197
 22
0.008839263492245
 32
0.0
 13
0.0040051074851633
 23
0.0094400251522195
 33
0.0
 11
21.141691067234152
 21
7.3413694322333098
 31
0.0
 11
21.156400084734155
 21
7.3683886744833123
 31
0.0
  0
SPLINE
  5
45D
100
AcDbEntity
  8
0
370
     0
390
0
  6
Continuous
 62
     7
100
AcDbSpline
210
0.0
220
0.0
230
1.0
 70
     0
 71
     2
 72
     0
 73
     0
 74
     2
 44
0.000001
 12
0.0043584953576321
 22
0.0102729592037853
 32
0.0
 13
0.0026430508115425
 23
0.0108417920563344
 33
0.0
 11
21.156400084734155
 21
7.3683886744833123
 31
0.0
 11
21.166672895734152
 21
7.4002515197333105
 31
0.0
  0
SPLINE
  5
45E
100
AcDbEntity
  8
0
370
     0
390
0
  6
Continuous
 62
     7
100
AcDbSpline
210
0.0
220
0.0
230
1.0
 70
     0
 71
     2
 72
     0
 73
     0
 74
     2
 44
0.000001
 12
0.0028614483262075
 22
0.0117376584654192
 32
0.0
 13
0.0013749772634242
 23
0.0120029142419451
 33
0.0
 11
21.166672895734152
 21
7.4002515197333105
 31
0.0
 11
21.172873222359151
 21
7.4359614702333117
 31
0.0
  0
SPLINE
  5
45F
100
AcDbEntity
  8
0
370
     0
390
0
  6
Continuous
 62
     7
100
AcDbSpline
210
0.0
220
0.0
230
1.0
 70
     0
 71
     2
 72
     0
 73
     0
 74
     2
 44
0.000001
 12
0.0014317565723161
 22
0.0124985712927597
 32
0.0
 13
0.0000755690392076
 23
0.0125800834879133
 33
0.0
 11
21.172873222359151
 21
7.4359614702333117
 31
0.0
 11
21.175079565984152
 21
7.4736378547333091
 31
0.0
  0
SPLINE
  5
460
100
AcDbEntity
  8
0
370
     0
390
0
  6
Continuous
 62
     7
100
AcDbSpline
210
0.0
220
0.0
230
1.0
 70
     0
 71
     2
 72
     0
 73
     0
 74
     2
 44
0.000001
 12
0.0000763457837785
 22
0.0127093892410812
 32
0.0
 13
-0.0012934844595307
 23
0.0126436269129169
 33
0.0
 11
21.175079565984152
 21
7.4736378547333091
 31
0.0
 11
21.173328345609157
 21
7.5117264732333107
 31
0.0
  0
SPLINE
  5
461
100
AcDbEntity
  8
0
370
     0
390
0
  6
Continuous
 62
     7
100
AcDbSpline
210
0.0
220
0.0
230
1.0
 70
     0
 71
     2
 72
     0
 73
     0
 74
     2
 44
0.000001
 12
-0.0012647109733663
 22
0.0123623701715658
 32
0.0
 13
-0.0027876565162614
 23
0.0121101883243959
 33
0.0
 11
21.173328345609157
 21
7.5117264732333107
 31
0.0
 11
21.167417285734153
 21
7.5485355561083098
 31
0.0
  0
SPLINE
  5
462
100
AcDbEntity
  8
0
370
     0
390
0
  6
Continuous
 62
     7
100
AcDbSpline
210
0.0
220
0.0
230
1.0
 70
     0
 71
     2
 72
     0
 73
     0
 74
     2
 44
0.000001
 12
-0.0025724275061521
 22
0.0111751865298437
 32
0.0
 13
-0.0043394076102743
 23
0.0106146935350537
 33
0.0
 11
21.167417285734153
 21
7.5485355561083098
 31
0.0
 11
21.157287220734155
 21
7.5814126207333095
 31
0.0
  0
SPLINE
  5
463
100
AcDbEntity
  8
0
370
     0
390
0
  6
Continuous
 62
     7
100
AcDbSpline
210
0.0
220
0.0
230
1.0
 70
     0
 71
     2
 72
     0
 73
     0
 74
     2
 44
0.000001
 12
-0.0039831565232902
 22
0.0097432621210203
 32
0.0
 13
-0.0053574685921483
 23
0.0090605862355577
 33
0.0
 11
21.157287220734155
 21
7.5814126207333095
 31
0.0
 11
21.142557732109154
 21
7.6093449031083091
 31
0.0
  0
SPLINE
  5
464
100
AcDbEntity
  8
0
370
     0
390
0
  6
Continuous
 62
     7
100
AcDbSpline
210
0.0
220
0.0
230
1.0
 70
     0
 71
     2
 72
     0
 73
     0
 74
     2
 44
0.000001
 12
-0.0021171634601984
 22
0.0035805608144912
 32
0.0
 13
-0.0025423044166644
 23
0.0032923373333347
 33
0.0
 11
21.142557732109154
 21
7.6093449031083091
 31
0.0
 11
21.134930818859154
 21
7.6192219151083114
 31
0.0
  0
SPLINE
  5
465
100
AcDbEntity
  8
0
370
     0
390
0
  6
Continuous
 62
     7
100
AcDbSpline
210
0.0
220
0.0
230
1.0
 70
     0
 71
     2
 72
     0
 73
     0
 74
     2
 44
0.000001
 12
0.0054551339166693
 22
0.0060721092916651
 32
0.0
 13
0.0046218526068493
 23
0.0067281108625874
 33
0.0
 11
21.125325665484155
 21
4.9911531043583119
 31
0.0
 11
21.141691067234152
 21
5.0093694322333091
 31
0.0
  0
SPLINE
  5
466
100
AcDbEntity
  8
0
370
     0
390
0
  6
Continuous
 62
     7
100
AcDbSpline
210
0.0
220
0.0
230
1.0
 70
     0
 71
     2
 72
     0
 73
     0
 74
     2
 44
0.000001
 12
0.0058062981882046
 22
0.0084523288028713
 32
0.0
 13
0.0040051074851633
 23
0.0094400251522142
 33
0.0
 11
21.141691067234152
 21
5.0093694322333091
 31
0.0
 11
21.156400084734155
 21
5.0363886744833115
 31
0.0
  0
SPLINE
  5
467
100
AcDbEntity
  8
0
370
     0
390
0
  6
Continuous
 62
     7
100
AcDbSpline
210
0.0
220
0.0
230
1.0
 70
     0
 71
     2
 72
     0
 73
     0
 74
     2
 44
0.000001
 12
0.0043584953576321
 22
0.0102729592037889
 32
0.0
 13
0.0026430508115425
 23
0.0108417920563344
 33
0.0
 11
21.156400084734155
 21
5.0363886744833115
 31
0.0
 11
21.166672895734152
 21
5.0682515197333098
 31
0.0
  0
SPLINE
  5
468
100
AcDbEntity
  8
0
370
     0
390
0
  6
Continuous
 62
     7
100
AcDbSpline
210
0.0
220
0.0
230
1.0
 70
     0
 71
     2
 72
     0
 73
     0
 74
     2
 44
0.000001
 12
0.0028614483262075
 22
0.0117376584654192
 32
0.0
 13
0.0013749772634242
 23
0.0120029142419398
 33
0.0
 11
21.166672895734152
 21
5.0682515197333098
 31
0.0
 11
21.172873222359151
 21
5.1039614702333109
 31
0.0
  0
SPLINE
  5
469
100
AcDbEntity
  8
0
370
     0
390
0
  6
Continuous
 62
     7
100
AcDbSpline
210
0.0
220
0.0
230
1.0
 70
     0
 71
     2
 72
     0
 73
     0
 74
     2
 44
0.000001
 12
0.0014317565723161
 22
0.0124985712927597
 32
0.0
 13
0.0000755690392076
 23
0.0125800834879133
 33
0.0
 11
21.172873222359151
 21
5.1039614702333109
 31
0.0
 11
21.175079565984152
 21
5.1416378547333084
 31
0.0
  0
SPLINE
  5
46A
100
AcDbEntity
  8
0
370
     0
390
0
  6
Continuous
 62
     7
100
AcDbSpline
210
0.0
220
0.0
230
1.0
 70
     0
 71
     2
 72
     0
 73
     0
 74
     2
 44
0.000001
 12
0.0000763457837785
 22
0.0127093892410866
 32
0.0
 13
-0.0012934844595307
 23
0.0126436269129169
 33
0.0
 11
21.175079565984152
 21
5.1416378547333084
 31
0.0
 11
21.173328345609157
 21
5.1797264732333099
 31
0.0
  0
SPLINE
  5
46B
100
AcDbEntity
  8
0
370
     0
390
0
  6
Continuous
 62
     7
100
AcDbSpline
210
0.0
220
0.0
230
1.0
 70
     0
 71
     2
 72
     0
 73
     0
 74
     2
 44
0.000001
 12
-0.0012647109733663
 22
0.0123623701715658
 32
0.0
 13
-0.0027876565162614
 23
0.0121101883243959
 33
0.0
 11
21.173328345609157
 21
5.1797264732333099
 31
0.0
 11
21.167417285734153
 21
5.2165355561083091
 31
0.0
  0
SPLINE
  5
46C
100
AcDbEntity
  8
0
370
     0
390
0
  6
Continuous
 62
     7
100
AcDbSpline
210
0.0
220
0.0
230
1.0
 70
     0
 71
     2
 72
     0
 73
     0
 74
     2
 44
0.000001
 12
-0.0025724275061521
 22
0.0111751865298437
 32
0.0
 13
-0.0043394076102743
 23
0.0106146935350502
 33
0.0
 11
21.167417285734153
 21
5.2165355561083091
 31
0.0
 11
21.157287220734155
 21
5.2494126207333087
 31
0.0
  0
SPLINE
  5
46D
100
AcDbEntity
  8
0
370
     0
390
0
  6
Continuous
 62
     7
100
AcDbSpline
210
0.0
220
0.0
230
1.0
 70
     0
 71
     2
 72
     0
 73
     0
 74
     2
 44
0.000001
 12
-0.0039831565232902
 22
0.0097432621210203
 32
0.0
 13
-0.0058808451487451
 23
0.0087299686702949
 33
0.0
 11
21.157287220734155
 21
5.2494126207333087
 31
0.0
 11
21.142557732109154
 21
5.2773449031083084
 31
0.0
  0
SPLINE
  5
46E
100
AcDbEntity
  8
0
370
     0
390
0
  6
Continuous
 62
     7
100
AcDbSpline
210
0.0
220
0.0
230
1.0
 70
     0
 71
     2
 72
     0
 73
     0
 74
     2
 44
0.000001
 12
-0.004820081482098
 22
0.0071552913335893
 32
0.0
 13
-0.0057156114583279
 23
0.0064624426666651
 33
0.0
 11
21.142557732109154
 21
5.2773449031083084
 31
0.0
 11
21.125410897734156
 21
5.2967322311083107
 31
0.0
  0
SPLINE
  5
46F
100
AcDbEntity
  8
0
370
     0
390
0
  6
Continuous
 62
     7
100
AcDbSpline
210
0.0
220
0.0
230
1.0
 70
     0
 71
     2
 72
     0
 73
     0
 74
     2
 44
0.000001
 12
-0.00728554016667
 22
0.0017038803333342
 32
0.0
 13
-0.0068021686839472
 23
0.0031165373261892
 33
0.0
 11
21.319159224234156
 21
8.9339793091083095
 31
0.0
 11
21.297302603734153
 21
8.9390909501083087
 31
0.0
  0
SPLINE
  5
470
100
AcDbEntity
  8
0
370
     0
390
0
  6
Continuous
 62
     7
100
AcDbSpline
210
0.0
220
0.0
230
1.0
 70
     0
 71
     2
 72
     0
 73
     0
 74
     2
 44
0.000001
 12
-0.0083506134691547
 22
0.0038259854735152
 32
0.0
 13
-0.0068459184849345
 23
0.0061240762774801
 33
0.0
 11
21.297302603734153
 21
8.9390909501083087
 31
0.0
 11
21.274437013609152
 21
8.9544696034833109
 31
0.0
  0
SPLINE
  5
471
100
AcDbEntity
  8
0
370
     0
390
0
  6
Continuous
 62
     7
100
AcDbSpline
210
0.0
220
0.0
230
1.0
 70
     0
 71
     2
 72
     0
 73
     0
 74
     2
 44
0.000001
 12
-0.0078895214907497
 22
0.0070576404770932
 32
0.0
 13
-0.0061487001465039
 23
0.0086167467738889
 33
0.0
 11
21.274437013609152
 21
8.9544696034833109
 31
0.0
 11
21.253459303859152
 21
8.9783113576083089
 31
0.0
  0
SPLINE
  5
472
100
AcDbEntity
  8
0
370
     0
390
0
  6
Continuous
 62
     7
100
AcDbSpline
210
0.0
220
0.0
230
1.0
 70
     0
 71
     2
 72
     0
 73
     0
 74
     2
 44
0.000001
 12
-0.0065894065803462
 22
0.0092343497877856
 32
0.0
 13
-0.0048754429287641
 23
0.010243219773713
 33
0.0
 11
21.253459303859152
 21
8.9783113576083089
 31
0.0
 11
21.236407287359157
 21
9.0077642044833084
 31
0.0
  0
SPLINE
  5
473
100
AcDbEntity
  8
0
370
     0
390
0
  6
Continuous
 62
     7
100
AcDbSpline
210
0.0
220
0.0
230
1.0
 70
     0
 71
     2
 72
     0
 73
     0
 74
     2
 44
0.000001
 12
-0.0047514309677652
 22
0.0099826728265491
 32
0.0
 13
-0.0031237900015526
 23
0.0106052717565142
 33
0.0
 11
21.236407287359157
 21
9.0077642044833084
 31
0.0
 11
21.224674814484153
 21
9.0387870631083089
 31
0.0
  0
SPLINE
  5
474
100
AcDbEntity
  8
0
370
     0
390
0
  6
Continuous
 62
     7
100
AcDbSpline
210
0.0
220
0.0
230
1.0
 70
     0
 71
     2
 72
     0
 73
     0
 74
     2
 44
0.000001
 12
-0.0032219732720051
 22
0.0109386041074693
 32
0.0
 13
-0.0015445446133668
 23
0.0112981659362354
 33
0.0
 11
21.224674814484153
 21
9.0387870631083089
 31
0.0
 11
21.217422037859151
 21
9.0722191551083107
 31
0.0
  0
SPLINE
  5
475
100
AcDbEntity
  8
0
370
     0
390
0
  6
Continuous
 62
     7
100
AcDbSpline
210
0.0
220
0.0
230
1.0
 70
     0
 71
     2
 72
     0
 73
     0
 74
     2
 44
0.000001
 12
-0.0016689172836379
 22
0.0122079376932867
 32
0.0
 13
0.0001588831325989
 23
0.0123204619951096
 33
0.0
 11
21.217422037859151
 21
9.0722191551083107
 31
0.0
 11
21.215061389609154
 21
9.10910815873331
 31
0.0
  0
SPLINE
  5
476
100
AcDbEntity
  8
0
370
     0
390
0
  6
Continuous
 62
     7
100
AcDbSpline
210
0.0
220
0.0
230
1.0
 70
     0
 71
     2
 72
     0
 73
     0
 74
     2
 44
0.000001
 12
0.0001585837893714
 22
0.0122972496706026
 32
0.0
 13
0.0020228039924888
 23
0.0121307774807384
 33
0.0
 11
21.215061389609154
 21
9.10910815873331
 31
0.0
 11
21.218371625859156
 21
9.1458541764833079
 31
0.0
  0
SPLINE
  5
477
100
AcDbEntity
  8
0
370
     0
390
0
  6
Continuous
 62
     7
100
AcDbSpline
210
0.0
220
0.0
230
1.0
 70
     0
 71
     2
 72
     0
 73
     0
 74
     2
 44
0.000001
 12
0.0019543074039063
 22
0.0117200026961513
 32
0.0
 13
0.0037085353615183
 23
0.0112882481412768
 33
0.0
 11
21.218371625859156
 21
9.1458541764833079
 31
0.0
 11
21.226957645484156
 21
9.1804501342333076
 31
0.0
  0
SPLINE
  5
478
100
AcDbEntity
  8
0
370
     0
390
0
  6
Continuous
 62
     7
100
AcDbSpline
210
0.0
220
0.0
230
1.0
 70
     0
 71
     2
 72
     0
 73
     0
 74
     2
 44
0.000001
 12
0.0034602590895219
 22
0.0105325308856514
 32
0.0
 13
0.0050678615148243
 23
0.0098602423646881
 33
0.0
 11
21.226957645484156
 21
9.1804501342333076
 31
0.0
 11
21.239814653859156
 21
9.2111236689833085
 31
0.0
  0
SPLINE
  5
479
100
AcDbEntity
  8
0
370
     0
390
0
  6
Continuous
 62
     7
100
AcDbSpline
210
0.0
220
0.0
230
1.0
 70
     0
 71
     2
 72
     0
 73
     0
 74
     2
 44
0.000001
 12
0.0047390755673575
 22
0.0092205427362408
 32
0.0
 13
0.006241323144355
 23
0.0082778699549912
 33
0.0
 11
21.239814653859156
 21
9.2111236689833085
 31
0.0
 11
21.256283155109152
 21
9.2375070667333112
 31
0.0
  0
SPLINE
  5
47A
100
AcDbEntity
  8
0
370
     0
390
0
  6
Continuous
 62
     7
100
AcDbSpline
210
0.0
220
0.0
230
1.0
 70
     0
 71
     2
 72
     0
 73
     0
 74
     2
 44
0.000001
 12
0.0056881941975178
 22
0.0075442547608446
 32
0.0
 13
0.0071383951394139
 23
0.006189882709613
 33
0.0
 11
21.256283155109152
 21
9.2375070667333112
 31
0.0
 11
21.275451161609155
 21
9.2583883867333121
 31
0.0
  0
SPLINE
  5
47B
100
AcDbEntity
  8
0
370
     0
390
0
  6
Continuous
 62
     7
100
AcDbSpline
210
0.0
220
0.0
230
1.0
 70
     0
 71
     2
 72
     0
 73
     0
 74
     2
 44
0.000001
 12
0.0064621494600914
 22
0.0056034930021056
 32
0.0
 13
0.0078050994303993
 23
0.0034984185499596
 33
0.0
 11
21.275451161609155
 21
9.2583883867333121
 31
0.0
 11
21.29679314835915
 21
9.2726343049833098
 31
0.0
  0
SPLINE
  5
47C
100
AcDbEntity
  8
0
370
     0
390
0
  6
Continuous
 62
     7
100
AcDbSpline
210
0.0
220
0.0
230
1.0
 70
     0
 71
     2
 72
     0
 73
     0
 74
     2
 44
0.000001
 12
0.0069947913241464
 22
0.0031352204977892
 32
0.0
 13
0.0074553586250019
 23
0.0017816680416658
 33
0.0
 11
21.29679314835915
 21
9.2726343049833098
 31
0.0
 11
21.319159224234156
 21
9.2779793091083071
 31
0.0
  0
SPLINE
  5
47D
100
AcDbEntity
  8
0
370
     0
390
0
  6
Continuous
 62
     7
100
AcDbSpline
210
0.0
220
0.0
230
1.0
 70
     0
 71
     2
 72
     0
 73
     0
 74
     2
 44
0.000001
 12
-0.0077535861666647
 22
-0.0019140864166669
 32
0.0
 13
-0.0071967903664465
 23
-0.0034623739942052
 33
0.0
 11
21.293178462109154
 21
6.480979309108311
 31
0.0
 11
21.269917703609156
 21
6.4752370498583085
 31
0.0
  0
SPLINE
  5
47E
100
AcDbEntity
  8
0
370
     0
390
0
  6
Continuous
 62
     7
100
AcDbSpline
210
0.0
220
0.0
230
1.0
 70
     0
 71
     2
 72
     0
 73
     0
 74
     2
 44
0.000001
 12
-0.0088948688584729
 22
-0.0042793191199486
 32
0.0
 13
-0.0071608348252283
 23
-0.0067936520918863
 33
0.0
 11
21.269917703609156
 21
6.4752370498583085
 31
0.0
 11
21.245731035734153
 21
6.4581523644833103
 31
0.0
  0
SPLINE
  5
47F
100
AcDbEntity
  8
0
370
     0
390
0
  6
Continuous
 62
     7
100
AcDbSpline
210
0.0
220
0.0
230
1.0
 70
     0
 71
     2
 72
     0
 73
     0
 74
     2
 44
0.000001
 12
-0.0085634715352327
 22
-0.0081243664641217
 32
0.0
 13
-0.0064559744117325
 23
-0.0098822451686473
 33
0.0
 11
21.245731035734153
 21
6.4581523644833103
 31
0.0
 11
21.223153356734155
 21
6.4308706162333094
 31
0.0
  0
SPLINE
  5
480
100
AcDbEntity
  8
0
370
     0
390
0
  6
Continuous
 62
     7
100
AcDbSpline
210
0.0
220
0.0
230
1.0
 70
     0
 71
     2
 72
     0
 73
     0
 74
     2
 44
0.000001
 12
-0.0072944466546581
 22
-0.0111657056880432
 32
0.0
 13
-0.0049454303352121
 23
-0.0123864706155263
 33
0.0
 11
21.223153356734155
 21
6.4308706162333094
 31
0.0
 11
21.20471108673415
 21
6.3953625876083082
 31
0.0
  0
SPLINE
  5
481
100
AcDbEntity
  8
0
370
     0
390
0
  6
Continuous
 62
     7
100
AcDbSpline
210
0.0
220
0.0
230
1.0
 70
     0
 71
     2
 72
     0
 73
     0
 74
     2
 44
0.000001
 12
-0.0052684581947453
 22
-0.0131955357158375
 32
0.0
 13
-0.0026920171121603
 23
-0.0139510522343542
 33
0.0
 11
21.20471108673415
 21
6.3953625876083082
 31
0.0
 11
21.192652977359153
 21
6.3544784668583096
 31
0.0
  0
SPLINE
  5
482
100
AcDbEntity
  8
0
370
     0
390
0
  6
Continuous
 62
     7
100
AcDbSpline
210
0.0
220
0.0
230
1.0
 70
     0
 71
     2
 72
     0
 73
     0
 74
     2
 44
0.000001
 12
-0.0028204389715185
 22
-0.0146165829473066
 32
0.0
 13
-0.0000301749980736
 23
-0.0148861836115533
 33
0.0
 11
21.192652977359153
 21
6.3544784668583096
 31
0.0
 11
21.188246667859154
 21
6.3100377333583131
 31
0.0
  0
SPLINE
  5
483
100
AcDbEntity
  8
0
370
     0
390
0
  6
Continuous
 62
     7
100
AcDbSpline
210
0.0
220
0.0
230
1.0
 70
     0
 71
     2
 72
     0
 73
     0
 74
     2
 44
0.000001
 12
-0.0000309543731092
 22
-0.015270671452976
 32
0.0
 13
0.002824538741244
 23
-0.015007209790534
 33
0.0
 11
21.188246667859154
 21
6.3100377333583131
 31
0.0
 11
21.192470426109153
 21
6.2644207502333122
 31
0.0
  0
SPLINE
  5
484
100
AcDbEntity
  8
0
370
     0
390
0
  6
Continuous
 62
     7
100
AcDbSpline
210
0.0
220
0.0
230
1.0
 70
     0
 71
     2
 72
     0
 73
     0
 74
     2
 44
0.000001
 12
0.0026847497052884
 22
-0.0142644890912713
 32
0.0
 13
0.005354405754403
 23
-0.0134912515739707
 33
0.0
 11
21.192470426109153
 21
6.2644207502333122
 31
0.0
 11
21.204698235484152
 21
6.2226280182333111
 31
0.0
  0
SPLINE
  5
485
100
AcDbEntity
  8
0
370
     0
390
0
  6
Continuous
 62
     7
100
AcDbSpline
210
0.0
220
0.0
230
1.0
 70
     0
 71
     2
 72
     0
 73
     0
 74
     2
 44
0.000001
 12
0.0049291545379759
 22
-0.0124197655106961
 32
0.0
 13
0.0073073678929951
 23
-0.0111870243709511
 33
0.0
 11
21.204698235484152
 21
6.2226280182333111
 31
0.0
 11
21.223175709609155
 21
6.1870540501083111
 31
0.0
  0
SPLINE
  5
486
100
AcDbEntity
  8
0
370
     0
390
0
  6
Continuous
 62
     7
100
AcDbSpline
210
0.0
220
0.0
230
1.0
 70
     0
 71
     2
 72
     0
 73
     0
 74
     2
 44
0.000001
 12
0.0064495369619166
 22
-0.0098737504708843
 32
0.0
 13
0.0085563072637953
 23
-0.0081164697616565
 33
0.0
 11
21.223175709609155
 21
6.1870540501083111
 31
0.0
 11
21.245737274984151
 21
6.15980037060831
 31
0.0
  0
SPLINE
  5
487
100
AcDbEntity
  8
0
370
     0
390
0
  6
Continuous
 62
     7
100
AcDbSpline
210
0.0
220
0.0
230
1.0
 70
     0
 71
     2
 72
     0
 73
     0
 74
     2
 44
0.000001
 12
0.0071554663303068
 22
-0.0067876391426669
 32
0.0
 13
0.0088878408227941
 23
-0.0042753981152419
 33
0.0
 11
21.245737274984151
 21
6.15980037060831
 31
0.0
 11
21.269903411109155
 21
6.1427283889833104
 31
0.0
  0
SPLINE
  5
488
100
AcDbEntity
  8
0
370
     0
390
0
  6
Continuous
 62
     7
100
AcDbSpline
210
0.0
220
0.0
230
1.0
 70
     0
 71
     2
 72
     0
 73
     0
 74
     2
 44
0.000001
 12
0.0072016203684484
 22
-0.0034642603039217
 32
0.0
 13
0.0077583503333329
 23
-0.0019163599583329
 33
0.0
 11
21.269903411109155
 21
6.1427283889833104
 31
0.0
 11
21.293178462109154
 21
6.1369793091083098
 31
0.0
  0
SPLINE
  5
489
100
AcDbEntity
  8
0
370
     0
390
0
  6
Continuous
 62
     7
100
AcDbSpline
210
0.0
220
0.0
230
1.0
 70
     0
 71
     2
 72
     0
 73
     0
 74
     2
 44
0.000001
 12
-0.0004262302499995
 22
0.0017281425416691
 32
0.0
 13
-0.0004086976106663
 23
0.0017323726889362
 33
0.0
 11
21.385285996984152
 21
4.9719793091083107
 31
0.0
 11
21.384007306234153
 21
4.9771637367333108
 31
0.0
  0
SPLINE
  5
48A
100
AcDbEntity
  8
0
370
     0
390
0
  6
Continuous
 62
     7
100
AcDbSpline
210
0.0
220
0.0
230
1.0
 70
     0
 71
     2
 72
     0
 73
     0
 74
     2
 44
0.000001
 12
-0.0012245827479731
 22
0.0051907171770882
 32
0.0
 13
-0.0011207002053197
 23
0.0052141325998623
 33
0.0
 11
21.384007306234153
 21
4.9771637367333108
 31
0.0
 11
21.380386239859156
 21
4.9927482228583093
 31
0.0
  0
SPLINE
  5
48B
100
AcDbEntity
  8
0
370
     0
390
0
  6
Continuous
 62
     7
100
AcDbSpline
210
0.0
220
0.0
230
1.0
 70
     0
 71
     2
 72
     0
 73
     0
 74
     2
 44
0.000001
 12
-0.0017823776830568
 22
0.0082926312838438
 32
0.0
 13
-0.0015061089917268
 23
0.0083472294517275
 33
0.0
 11
21.380386239859156
 21
4.9927482228583093
 31
0.0
 11
21.375298825734156
 21
5.0176805242333087
 31
0.0
  0
SPLINE
  5
48C
100
AcDbEntity
  8
0
370
     0
390
0
  6
Continuous
 62
     7
100
AcDbSpline
210
0.0
220
0.0
230
1.0
 70
     0
 71
     2
 72
     0
 73
     0
 74
     2
 44
0.000001
 12
-0.0019844431976566
 22
0.0109982762175473
 32
0.0
 13
-0.0014867936251122
 23
0.0110765310128436
 33
0.0
 11
21.375298825734156
 21
5.0176805242333087
 31
0.0
 11
21.369916644234152
 21
5.0507733176083098
 31
0.0
  0
SPLINE
  5
48D
100
AcDbEntity
  8
0
370
     0
390
0
  6
Continuous
 62
     7
100
AcDbSpline
210
0.0
220
0.0
230
1.0
 70
     0
 71
     2
 72
     0
 73
     0
 74
     2
 44
0.000001
 12
-0.0017362670439809
 22
0.0129350943092721
 32
0.0
 13
-0.0010252740052863
 23
0.0130107686649072
 33
0.0
 11
21.369916644234152
 21
5.0507733176083098
 31
0.0
 11
21.365632841984155
 21
5.0896915733583077
 31
0.0
  0
SPLINE
  5
48E
100
AcDbEntity
  8
0
370
     0
390
0
  6
Continuous
 62
     7
100
AcDbSpline
210
0.0
220
0.0
230
1.0
 70
     0
 71
     2
 72
     0
 73
     0
 74
     2
 44
0.000001
 12
-0.0011029205002764
 22
0.0139961058320459
 32
0.0
 13
-0.0002695673345556
 23
0.0140369065517945
 33
0.0
 11
21.365632841984155
 21
5.0896915733583077
 31
0.0
 11
21.363534910609154
 21
5.1317577758583086
 31
0.0
  0
SPLINE
  5
48F
100
AcDbEntity
  8
0
370
     0
390
0
  6
Continuous
 62
     7
100
AcDbSpline
210
0.0
220
0.0
230
1.0
 70
     0
 71
     2
 72
     0
 73
     0
 74
     2
 44
0.000001
 12
-0.0002617180390132
 22
0.0136281781417757
 32
0.0
 13
0.0005600990995092
 23
0.0136191785653406
 33
0.0
 11
21.363534910609154
 21
5.1317577758583086
 31
0.0
 11
21.364039755859153
 21
5.1726467322333098
 31
0.0
  0
SPLINE
  5
490
100
AcDbEntity
  8
0
370
     0
390
0
  6
Continuous
 62
     7
100
AcDbSpline
210
0.0
220
0.0
230
1.0
 70
     0
 71
     2
 72
     0
 73
     0
 74
     2
 44
0.000001
 12
0.0005279641770244
 22
0.0128377967564308
 32
0.0
 13
0.0012422420265494
 23
0.0127884559849534
 33
0.0
 11
21.364039755859153
 21
5.1726467322333098
 31
0.0
 11
21.366797668734151
 21
5.2110938889833109
 31
0.0
  0
SPLINE
  5
491
100
AcDbEntity
  8
0
370
     0
390
0
  6
Continuous
 62
     7
100
AcDbSpline
210
0.0
220
0.0
230
1.0
 70
     0
 71
     2
 72
     0
 73
     0
 74
     2
 44
0.000001
 12
0.0011154394181077
 22
0.0114830665823806
 32
0.0
 13
0.0016776708004755
 23
0.0114144839531214
 33
0.0
 11
21.366797668734151
 21
5.2110938889833109
 31
0.0
 11
21.371110294359156
 21
5.2454355032333106
 31
0.0
  0
SPLINE
  5
492
100
AcDbEntity
  8
0
370
     0
390
0
  6
Continuous
 62
     7
100
AcDbSpline
210
0.0
220
0.0
230
1.0
 70
     0
 71
     2
 72
     0
 73
     0
 74
     2
 44
0.000001
 12
0.0014492580315633
 22
0.0098604163227769
 32
0.0
 13
0.0018401191351565
 23
0.0097950048733519
 33
0.0
 11
21.371110294359156
 21
5.2454355032333106
 31
0.0
 11
21.376176059359153
 21
5.2749022888583115
 31
0.0
  0
SPLINE
  5
493
100
AcDbEntity
  8
0
370
     0
390
0
  6
Continuous
 62
     7
100
AcDbSpline
210
0.0
220
0.0
230
1.0
 70
     0
 71
     2
 72
     0
 73
     0
 74
     2
 44
0.000001
 12
0.0014107257262168
 22
0.0075093319227193
 32
0.0
 13
0.0016316040300595
 23
0.007464454520548
 33
0.0
 11
21.376176059359153
 21
5.2749022888583115
 31
0.0
 11
21.380861310984152
 21
5.2973404334833125
 31
0.0
  0
SPLINE
  5
494
100
AcDbEntity
  8
0
370
     0
390
0
  6
Continuous
 62
     7
100
AcDbSpline
210
0.0
220
0.0
230
1.0
 70
     0
 71
     2
 72
     0
 73
     0
 74
     2
 44
0.000001
 12
0.0010255025048025
 22
0.0046915897894042
 32
0.0
 13
0.0011092074532897
 23
0.0046725077811605
 33
0.0
 11
21.380861310984152
 21
5.2973404334833125
 31
0.0
 11
21.384146824734152
 21
5.3113678862333087
 31
0.0
  0
SPLINE
  5
495
100
AcDbEntity
  8
0
370
     0
390
0
  6
Continuous
 62
     7
100
AcDbSpline
210
0.0
220
0.0
230
1.0
 70
     0
 71
     2
 72
     0
 73
     0
 74
     2
 44
0.000001
 12
0.0003657080503316
 22
0.0015405357273313
 32
0.0
 13
0.0003797240833308
 23
0.001537140958332
 33
0.0
 11
21.384146824734152
 21
5.3113678862333087
 31
0.0
 11
21.385285996984152
 21
5.3159793091083083
 31
0.0
  0
SPLINE
  5
496
100
AcDbEntity
  8
0
370
     0
390
0
  6
Continuous
 62
     7
100
AcDbSpline
210
0.0
220
0.0
230
1.0
 70
     0
 71
     2
 72
     0
 73
     0
 74
     2
 44
0.000001
 12
0.0083831080416701
 22
-0.0013054682083347
 32
0.0
 13
0.0080589183462862
 23
-0.002652278787977
 33
0.0
 11
21.20513511248415
 21
7.647979309108309
 31
0.0
 11
21.230284436609153
 21
7.6440629044833104
 31
0.0
  0
SPLINE
  5
497
100
AcDbEntity
  8
0
370
     0
390
0
  6
Continuous
 62
     7
100
AcDbSpline
210
0.0
220
0.0
230
1.0
 70
     0
 71
     2
 72
     0
 73
     0
 74
     2
 44
0.000001
 12
0.0083672366814653
 22
-0.0027537497478747
 32
0.0
 13
0.0071213647375643
 23
-0.0051845878941403
 33
0.0
 11
21.230284436609153
 21
7.6440629044833104
 31
0.0
 11
21.253781055109151
 21
7.6319693936083128
 31
0.0
  0
SPLINE
  5
498
100
AcDbEntity
  8
0
370
     0
390
0
  6
Continuous
 62
     7
100
AcDbSpline
210
0.0
220
0.0
230
1.0
 70
     0
 71
     2
 72
     0
 73
     0
 74
     2
 44
0.000001
 12
0.0075359649053901
 22
-0.0054864304608735
 32
0.0
 13
0.0057724256286207
 23
-0.007319206829921
 33
0.0
 11
21.253781055109151
 21
7.6319693936083128
 31
0.0
 11
21.273765062359153
 21
7.6124075779833129
 31
0.0
  0
SPLINE
  5
499
100
AcDbEntity
  8
0
370
     0
390
0
  6
Continuous
 62
     7
100
AcDbSpline
210
0.0
220
0.0
230
1.0
 70
     0
 71
     2
 72
     0
 73
     0
 74
     2
 44
0.000001
 12
0.0063168443726873
 22
-0.0080095082120923
 32
0.0
 13
0.0044577667901819
 23
-0.009175132689645
 33
0.0
 11
21.273765062359153
 21
7.6124075779833129
 31
0.0
 11
21.289776635484152
 21
7.5863284248583094
 31
0.0
  0
SPLINE
  5
49A
100
AcDbEntity
  8
0
370
     0
390
0
  6
Continuous
 62
     7
100
AcDbSpline
210
0.0
220
0.0
230
1.0
 70
     0
 71
     2
 72
     0
 73
     0
 74
     2
 44
0.000001
 12
0.0047759757425752
 22
-0.009830081568456
 32
0.0
 13
0.0030539224335264
 23
-0.0104935220829905
 33
0.0
 11
21.289776635484152
 21
7.5863284248583094
 31
0.0
 11
21.301341349234153
 21
7.5556490926083084
 31
0.0
  0
SPLINE
  5
49B
100
AcDbEntity
  8
0
370
     0
390
0
  6
Continuous
 62
     7
100
AcDbSpline
210
0.0
220
0.0
230
1.0
 70
     0
 71
     2
 72
     0
 73
     0
 74
     2
 44
0.000001
 12
0.0032759262659248
 22
-0.0112563450323311
 32
0.0
 13
0.0017065397201463
 23
-0.0115984791490167
 33
0.0
 11
21.301341349234153
 21
7.5556490926083084
 31
0.0
 11
21.308713355734156
 21
7.5212603373583127
 31
0.0
  0
SPLINE
  5
49C
100
AcDbEntity
  8
0
370
     0
390
0
  6
Continuous
 62
     7
100
AcDbSpline
210
0.0
220
0.0
230
1.0
 70
     0
 71
     2
 72
     0
 73
     0
 74
     2
 44
0.000001
 12
0.0018068709443781
 22
-0.0122803792528181
 32
0.0
 13
0.0002898893029162
 23
-0.0124092087336223
 33
0.0
 11
21.308713355734156
 21
7.5212603373583127
 31
0.0
 11
21.311860501859151
 21
7.4841557831083092
 31
0.0
  0
SPLINE
  5
49D
100
AcDbEntity
  8
0
370
     0
390
0
  6
Continuous
 62
     7
100
AcDbSpline
210
0.0
220
0.0
230
1.0
 70
     0
 71
     2
 72
     0
 73
     0
 74
     2
 44
0.000001
 12
0.0003028902581192
 22
-0.0129657369158611
 32
0.0
 13
-0.0012963694671058
 23
-0.0129043210780164
 33
0.0
 11
21.311860501859151
 21
7.4841557831083092
 31
0.0
 11
21.310488501984153
 21
7.4452721579833101
 31
0.0
  0
SPLINE
  5
49E
100
AcDbEntity
  8
0
370
     0
390
0
  6
Continuous
 62
     7
100
AcDbSpline
210
0.0
220
0.0
230
1.0
 70
     0
 71
     2
 72
     0
 73
     0
 74
     2
 44
0.000001
 12
-0.0013058210703818
 22
-0.0129984042282594
 32
0.0
 13
-0.0030857407124074
 23
-0.0126941673773828
 33
0.0
 11
21.310488501984153
 21
7.4452721579833101
 31
0.0
 11
21.304070222984151
 21
7.4066097883583089
 31
0.0
  0
SPLINE
  5
49F
100
AcDbEntity
  8
0
370
     0
390
0
  6
Continuous
 62
     7
100
AcDbSpline
210
0.0
220
0.0
230
1.0
 70
     0
 71
     2
 72
     0
 73
     0
 74
     2
 44
0.000001
 12
-0.0028705176767012
 22
-0.0118087795586153
 32
0.0
 13
-0.0037993307083326
 23
-0.0115434930833338
 33
0.0
 11
21.304070222984151
 21
7.4066097883583089
 31
0.0
 11
21.292672230859154
 21
7.3719793091083092
 31
0.0
  0
SPLINE
  5
4A0
100
AcDbEntity
  8
0
370
     0
390
0
  6
Continuous
 62
     7
100
AcDbSpline
210
0.0
220
0.0
230
1.0
 70
     0
 71
     2
 72
     0
 73
     0
 74
     2
 44
0.000001
 12
0.0064449790416674
 22
-0.0016256255416636
 32
0.0
 13
0.0058407987023301
 23
-0.0031726146579913
 33
0.0
 11
21.319159224234156
 21
9.2779793091083071
 31
0.0
 11
21.338494161359154
 21
9.2731024324833093
 31
0.0
  0
SPLINE
  5
4A1
100
AcDbEntity
  8
0
370
     0
390
0
  6
Continuous
 62
     7
100
AcDbSpline
210
0.0
220
0.0
230
1.0
 70
     0
 71
     2
 72
     0
 73
     0
 74
     2
 44
0.000001
 12
0.0064963878726338
 22
-0.0035287186631656
 32
0.0
 13
0.0045405443511477
 23
-0.005834240978114
 33
0.0
 11
21.338494161359154
 21
9.2731024324833093
 31
0.0
 11
21.355133557109152
 21
9.2584387117333087
 31
0.0
  0
SPLINE
  5
4A2
100
AcDbEntity
  8
0
370
     0
390
0
  6
Continuous
 62
     7
100
AcDbSpline
210
0.0
220
0.0
230
1.0
 70
     0
 71
     2
 72
     0
 73
     0
 74
     2
 44
0.000001
 12
0.0055065263202358
 22
-0.0070754515362026
 32
0.0
 13
0.0034207182634347
 23
-0.008287492571263
 33
0.0
 11
21.355133557109152
 21
9.2584387117333087
 31
0.0
 11
21.368202237484155
 21
9.2349299003583134
 31
0.0
  0
SPLINE
  5
4A3
100
AcDbEntity
  8
0
370
     0
390
0
  6
Continuous
 62
     7
100
AcDbSpline
210
0.0
220
0.0
230
1.0
 70
     0
 71
     2
 72
     0
 73
     0
 74
     2
 44
0.000001
 12
0.0041471929527148
 22
-0.0100475479535049
 32
0.0
 13
0.0024313200890163
 23
-0.0105943905860499
 33
0.0
 11
21.368202237484155
 21
9.2349299003583134
 31
0.0
 11
21.377711692984157
 21
9.2037378802333087
 31
0.0
  0
SPLINE
  5
4A4
100
AcDbEntity
  8
0
370
     0
390
0
  6
Continuous
 62
     7
100
AcDbSpline
210
0.0
220
0.0
230
1.0
 70
     0
 71
     2
 72
     0
 73
     0
 74
     2
 44
0.000001
 12
0.0027536199532214
 22
-0.0119988007510159
 32
0.0
 13
0.0014277047549882
 23
-0.012227644967119
 33
0.0
 11
21.377711692984157
 21
9.2037378802333087
 31
0.0
 11
21.383723107359152
 21
9.1672982633583118
 31
0.0
  0
SPLINE
  5
4A5
100
AcDbEntity
  8
0
370
     0
390
0
  6
Continuous
 62
     7
100
AcDbSpline
210
0.0
220
0.0
230
1.0
 70
     0
 71
     2
 72
     0
 73
     0
 74
     2
 44
0.000001
 12
0.0015616997340118
 22
-0.0133752513088012
 32
0.0
 13
0.0004931404148252
 23
-0.0134570823793254
 33
0.0
 11
21.383723107359152
 21
9.1672982633583118
 31
0.0
 11
21.386670751609152
 21
9.1270075984833099
 31
0.0
  0
SPLINE
  5
4A6
100
AcDbEntity
  8
0
370
     0
390
0
  6
Continuous
 62
     7
100
AcDbSpline
210
0.0
220
0.0
230
1.0
 70
     0
 71
     2
 72
     0
 73
     0
 74
     2
 44
0.000001
 12
0.0005013897471429
 22
-0.0136821946216266
 32
0.0
 13
-0.0004778420821019
 23
-0.0136830372464338
 33
0.0
 11
21.386670751609152
 21
9.1270075984833099
 31
0.0
 11
21.386704753984155
 21
9.0859334774833087
 31
0.0
  0
SPLINE
  5
4A7
100
AcDbEntity
  8
0
370
     0
390
0
  6
Continuous
 62
     7
100
AcDbSpline
210
0.0
220
0.0
230
1.0
 70
     0
 71
     2
 72
     0
 73
     0
 74
     2
 44
0.000001
 12
-0.0004707435190419
 22
-0.0134797694589714
 32
0.0
 13
-0.0015349169284988
 23
-0.013400366194638
 33
0.0
 11
21.386704753984155
 21
9.0859334774833087
 31
0.0
 11
21.383826839109155
 21
9.0455719901083107
 31
0.0
  0
SPLINE
  5
4A8
100
AcDbEntity
  8
0
370
     0
390
0
  6
Continuous
 62
     7
100
AcDbSpline
210
0.0
220
0.0
230
1.0
 70
     0
 71
     2
 72
     0
 73
     0
 74
     2
 44
0.000001
 12
-0.0014030351576473
 22
-0.012248991816648
 32
0.0
 13
-0.0027231988591652
 23
-0.0120245788346764
 33
0.0
 11
21.383826839109155
 21
9.0455719901083107
 31
0.0
 11
21.377899754359156
 21
9.0090627249833126
 31
0.0
  0
SPLINE
  5
4A9
100
AcDbEntity
  8
0
370
     0
390
0
  6
Continuous
 62
     7
100
AcDbSpline
210
0.0
220
0.0
230
1.0
 70
     0
 71
     2
 72
     0
 73
     0
 74
     2
 44
0.000001
 12
-0.0024194951653271
 22
-0.0106835423559808
 32
0.0
 13
-0.0041581137048539
 23
-0.0101342056691465
 33
0.0
 11
21.377899754359156
 21
9.0090627249833126
 31
0.0
 11
21.368431880859156
 21
8.9775938883583102
 31
0.0
  0
SPLINE
  5
4AA
100
AcDbEntity
  8
0
370
     0
390
0
  6
Continuous
 62
     7
100
AcDbSpline
210
0.0
220
0.0
230
1.0
 70
     0
 71
     2
 72
     0
 73
     0
 74
     2
 44
0.000001
 12
-0.0034901149521218
 22
-0.0085061509242692
 32
0.0
 13
-0.0056303585983564
 23
-0.0072687390914368
 33
0.0
 11
21.368431880859156
 21
8.9775938883583102
 31
0.0
 11
21.355083926484156
 21
8.9534557097333121
 31
0.0
  0
SPLINE
  5
4AB
100
AcDbEntity
  8
0
370
     0
390
0
  6
Continuous
 62
     7
100
AcDbSpline
210
0.0
220
0.0
230
1.0
 70
     0
 71
     2
 72
     0
 73
     0
 74
     2
 44
0.000001
 12
-0.00453744686871
 22
-0.0058578005030654
 32
0.0
 13
-0.0065139008763744
 23
-0.0035314793207419
 33
0.0
 11
21.355083926484156
 21
8.9534557097333121
 31
0.0
 11
21.338376812984155
 21
8.9387930832333105
 31
0.0
  0
SPLINE
  5
4AC
100
AcDbEntity
  8
0
370
     0
390
0
  6
Continuous
 62
     7
100
AcDbSpline
210
0.0
220
0.0
230
1.0
 70
     0
 71
     2
 72
     0
 73
     0
 74
     2
 44
0.000001
 12
-0.005805479345792
 22
-0.0031474120723942
 32
0.0
 13
-0.0064058629166652
 23
-0.0016045913749991
 33
0.0
 11
21.338376812984155
 21
8.9387930832333105
 31
0.0
 11
21.319159224234156
 21
8.9339793091083095
 31
0.0
  0
SPLINE
  5
4AD
100
AcDbEntity
  8
0
370
     0
390
0
  6
Continuous
 62
     7
100
AcDbSpline
210
0.0
220
0.0
230
1.0
 70
     0
 71
     2
 72
     0
 73
     0
 74
     2
 44
0.000001
 12
0.0069607761666681
 22
0.0019282016666669
 32
0.0
 13
0.0061919470519101
 23
0.0037188920683562
 33
0.0
 11
21.293178462109154
 21
6.1369793091083098
 31
0.0
 11
21.314060790609151
 21
6.1427639141083086
 31
0.0
  0
SPLINE
  5
4AE
100
AcDbEntity
  8
0
370
     0
390
0
  6
Continuous
 62
     7
100
AcDbSpline
210
0.0
220
0.0
230
1.0
 70
     0
 71
     2
 72
     0
 73
     0
 74
     2
 44
0.000001
 12
0.0069964050743856
 22
0.004202050682931
 32
0.0
 13
0.0046077280371968
 23
0.0067361529259671
 33
0.0
 11
21.314060790609151
 21
6.1427639141083086
 31
0.0
 11
21.331471484109155
 21
6.1599781517333083
 31
0.0
  0
SPLINE
  5
4AF
100
AcDbEntity
  8
0
370
     0
390
0
  6
Continuous
 62
     7
100
AcDbSpline
210
0.0
220
0.0
230
1.0
 70
     0
 71
     2
 72
     0
 73
     0
 74
     2
 44
0.000001
 12
0.0057347203837566
 22
0.0083837312403965
 32
0.0
 13
0.003349365014536
 23
0.0095893545867511
 33
0.0
 11
21.331471484109155
 21
6.1599781517333083
 31
0.0
 11
21.344634758484155
 21
6.1874607628583087
 31
0.0
  0
SPLINE
  5
4B0
100
AcDbEntity
  8
0
370
     0
390
0
  6
Continuous
 62
     7
100
AcDbSpline
210
0.0
220
0.0
230
1.0
 70
     0
 71
     2
 72
     0
 73
     0
 74
     2
 44
0.000001
 12
0.0040483525970956
 22
0.0115905816109194
 32
0.0
 13
0.0021885223812177
 23
0.012080608867798
 33
0.0
 11
21.344634758484155
 21
6.1874607628583087
 31
0.0
 11
21.353552403234154
 21
6.2231966311083093
 31
0.0
  0
SPLINE
  5
4B1
100
AcDbEntity
  8
0
370
     0
390
0
  6
Continuous
 62
     7
100
AcDbSpline
210
0.0
220
0.0
230
1.0
 70
     0
 71
     2
 72
     0
 73
     0
 74
     2
 44
0.000001
 12
0.0024800720421005
 22
0.0136899583763572
 32
0.0
 13
0.0010821225245756
 23
0.0138706426859834
 33
0.0
 11
21.353552403234154
 21
6.2231966311083093
 31
0.0
 11
21.358614177234152
 21
6.2646269328583122
 31
0.0
  0
SPLINE
  5
4B2
100
AcDbEntity
  8
0
370
     0
390
0
  6
Continuous
 62
     7
100
AcDbSpline
210
0.0
220
0.0
230
1.0
 70
     0
 71
     2
 72
     0
 73
     0
 74
     2
 44
0.000001
 12
0.0011505194530663
 22
0.0147473542729628
 32
0.0
 13
0.0000001112589985
 23
0.0147921652590775
 33
0.0
 11
21.358614177234152
 21
6.2646269328583122
 31
0.0
 11
21.360244310734153
 21
6.308973477733308
 31
0.0
  0
SPLINE
  5
4B3
100
AcDbEntity
  8
0
370
     0
390
0
  6
Continuous
 62
     7
100
AcDbSpline
210
0.0
220
0.0
230
1.0
 70
     0
 71
     2
 72
     0
 73
     0
 74
     2
 44
0.000001
 12
0.0000001112661216
 22
0.0147931126971592
 32
0.0
 13
-0.0011503340297949
 23
0.0147483190534761
 33
0.0
 11
21.360244310734153
 21
6.308973477733308
 31
0.0
 11
21.358614844359153
 21
6.3533228913583093
 31
0.0
  0
SPLINE
  5
4B4
100
AcDbEntity
  8
0
370
     0
390
0
  6
Continuous
 62
     7
100
AcDbSpline
210
0.0
220
0.0
230
1.0
 70
     0
 71
     2
 72
     0
 73
     0
 74
     2
 44
0.000001
 12
-0.0010819461512668
 22
0.0138715248130605
 32
0.0
 13
-0.0024798727803557
 23
0.0136908743003072
 33
0.0
 11
21.358614844359153
 21
6.3533228913583093
 31
0.0
 11
21.353553487609155
 21
6.3947558606083108
 31
0.0
  0
SPLINE
  5
4B5
100
AcDbEntity
  8
0
370
     0
390
0
  6
Continuous
 62
     7
100
AcDbSpline
210
0.0
220
0.0
230
1.0
 70
     0
 71
     2
 72
     0
 73
     0
 74
     2
 44
0.000001
 12
-0.0021881428450854
 22
0.0120802925377959
 32
0.0
 13
-0.0040476991490763
 23
0.0115904084702798
 33
0.0
 11
21.353553487609155
 21
6.3947558606083108
 31
0.0
 11
21.344637153734155
 21
6.4304908843583126
 31
0.0
  0
SPLINE
  5
4B6
100
AcDbEntity
  8
0
370
     0
390
0
  6
Continuous
 62
     7
100
AcDbSpline
210
0.0
220
0.0
230
1.0
 70
     0
 71
     2
 72
     0
 73
     0
 74
     2
 44
0.000001
 12
-0.0033488616927357
 22
0.0095893181532603
 32
0.0
 13
-0.005733931396712
 23
0.0083840281499636
 33
0.0
 11
21.344637153734155
 21
6.4304908843583126
 31
0.0
 11
21.331475979234156
 21
6.45797383473331
 31
0.0
  0
SPLINE
  5
4B7
100
AcDbEntity
  8
0
370
     0
390
0
  6
Continuous
 62
     7
100
AcDbSpline
210
0.0
220
0.0
230
1.0
 70
     0
 71
     2
 72
     0
 73
     0
 74
     2
 44
0.000001
 12
-0.004607610806822
 22
0.0067371470001554
 32
0.0
 13
-0.0069967346444244
 23
0.0042029669716062
 33
0.0
 11
21.331475979234156
 21
6.45797383473331
 31
0.0
 11
21.314065732609151
 21
6.4751917427333092
 31
0.0
  0
SPLINE
  5
4B8
100
AcDbEntity
  8
0
370
     0
390
0
  6
Continuous
 62
     7
100
AcDbSpline
210
0.0
220
0.0
230
1.0
 70
     0
 71
     2
 72
     0
 73
     0
 74
     2
 44
0.000001
 12
-0.0061932532501743
 22
0.0037203124286034
 32
0.0
 13
-0.0069624234999992
 23
0.0019291887916673
 33
0.0
 11
21.314065732609151
 21
6.4751917427333092
 31
0.0
 11
21.293178462109154
 21
6.480979309108311
 31
0.0
  0
SPLINE
  5
4B9
100
AcDbEntity
  8
0
370
     0
390
0
  6
Continuous
 62
     7
100
AcDbSpline
210
0.0
220
0.0
230
1.0
 70
     0
 71
     2
 72
     0
 73
     0
 74
     2
 44
0.000001
 12
-0.0020707009583347
 22
-0.0047716988749968
 32
0.0
 13
-0.0021195542666241
 23
-0.0047502002403412
 33
0.0
 11
21.292672230859154
 21
7.3719793091083092
 31
0.0
 11
21.286460127984153
 21
7.3576642124833098
 31
0.0
  0
SPLINE
  5
4BA
100
AcDbEntity
  8
0
370
     0
390
0
  6
Continuous
 62
     7
100
AcDbSpline
210
0.0
220
0.0
230
1.0
 70
     0
 71
     2
 72
     0
 73
     0
 74
     2
 44
0.000001
 12
-0.001895369018154
 22
-0.0042477715750699
 32
0.0
 13
-0.0020490817195054
 23
-0.0041757934785824
 33
0.0
 11
21.286460127984153
 21
7.3576642124833098
 31
0.0
 11
21.280628170109154
 21
7.3449869828583099
 31
0.0
  0
SPLINE
  5
4BB
100
AcDbEntity
  8
0
370
     0
390
0
  6
Continuous
 62
     7
100
AcDbSpline
210
0.0
220
0.0
230
1.0
 70
     0
 71
     2
 72
     0
 73
     0
 74
     2
 44
0.000001
 12
-0.0018056810012226
 22
-0.0036797707370706
 32
0.0
 13
-0.0020626512320732
 23
-0.0035421273904834
 33
0.0
 11
21.280628170109154
 21
7.3449869828583099
 31
0.0
 11
21.27489994623415
 21
7.3341058882333128
 31
0.0
  0
SPLINE
  5
4BC
100
AcDbEntity
  8
0
370
     0
390
0
  6
Continuous
 62
     7
100
AcDbSpline
210
0.0
220
0.0
230
1.0
 70
     0
 71
     2
 72
     0
 73
     0
 74
     2
 44
0.000001
 12
-0.0018301758696282
 22
-0.0031429046154052
 32
0.0
 13
-0.0021796217435011
 23
-0.0029114673603825
 33
0.0
 11
21.27489994623415
 21
7.3341058882333128
 31
0.0
 11
21.268961711609151
 21
7.3249525332333105
 31
0.0
  0
SPLINE
  5
4BD
100
AcDbEntity
  8
0
370
     0
390
0
  6
Continuous
 62
     7
100
AcDbSpline
210
0.0
220
0.0
230
1.0
 70
     0
 71
     2
 72
     0
 73
     0
 74
     2
 44
0.000001
 12
-0.0020473379287935
 22
-0.0027347669719013
 32
0.0
 13
-0.002488387045517
 23
-0.0023406137863802
 33
0.0
 11
21.268961711609151
 21
7.3249525332333105
 31
0.0
 11
21.262249477359155
 21
7.3172078061083097
 31
0.0
  0
SPLINE
  5
4BE
100
AcDbEntity
  8
0
370
     0
390
0
  6
Continuous
 62
     7
100
AcDbSpline
210
0.0
220
0.0
230
1.0
 70
     0
 71
     2
 72
     0
 73
     0
 74
     2
 44
0.000001
 12
-0.0025723778056133
 22
-0.0024196167418697
 32
0.0
 13
-0.0030743821359849
 23
-0.0017377707657484
 33
0.0
 11
21.262249477359155
 21
7.3172078061083097
 31
0.0
 11
21.253855578234152
 21
7.3107434799833078
 31
0.0
  0
SPLINE
  5
4BF
100
AcDbEntity
  8
0
370
     0
390
0
  6
Continuous
 62
     7
100
AcDbSpline
210
0.0
220
0.0
230
1.0
 70
     0
 71
     2
 72
     0
 73
     0
 74
     2
 44
0.000001
 12
-0.0036215873337468
 22
-0.0020470742789325
 32
0.0
 13
-0.0040449088239995
 23
-0.0009721730941372
 33
0.0
 11
21.253855578234152
 21
7.3107434799833078
 31
0.0
 11
21.242332576609151
 21
7.3059499317333083
 31
0.0
  0
SPLINE
  5
4C0
100
AcDbEntity
  8
0
370
     0
390
0
  6
Continuous
 62
     7
100
AcDbSpline
210
0.0
220
0.0
230
1.0
 70
     0
 71
     2
 72
     0
 73
     0
 74
     2
 44
0.000001
 12
-0.0054245297832374
 22
-0.0013037579171904
 32
0.0
 13
-0.0055402007500049
 23
-0.0006568742083335
 33
0.0
 11
21.242332576609151
 21
7.3059499317333083
 31
0.0
 11
21.22571197435915
 21
7.3039793091083078
 31
0.0
  0
SPLINE
  5
4C1
100
AcDbEntity
  8
0
370
     0
390
0
  6
Continuous
 62
     7
100
AcDbSpline
210
0.0
220
0.0
230
1.0
 70
     0
 71
     2
 72
     0
 73
     0
 74
     2
 44
0.000001
 12
0.0093100088333387
 22
-0.001628661041666
 32
0.0
 13
0.008867671421001
 23
-0.0032700466104529
 33
0.0
 11
21.183921909109152
 21
5.3159793091083083
 31
0.0
 11
21.211851935609154
 21
5.3110933259833102
 31
0.0
  0
SPLINE
  5
4C2
100
AcDbEntity
  8
0
370
     0
390
0
  6
Continuous
 62
     7
100
AcDbSpline
210
0.0
220
0.0
230
1.0
 70
     0
 71
     2
 72
     0
 73
     0
 74
     2
 44
0.000001
 12
0.0091037193632602
 22
-0.0033570917587067
 32
0.0
 13
0.0074542169734215
 23
-0.0062114749161957
 33
0.0
 11
21.211851935609154
 21
5.3110933259833102
 31
0.0
 11
21.236986800859157
 21
5.2964110751083089
 31
0.0
  0
SPLINE
  5
4C3
100
AcDbEntity
  8
0
370
     0
390
0
  6
Continuous
 62
     7
100
AcDbSpline
210
0.0
220
0.0
230
1.0
 70
     0
 71
     2
 72
     0
 73
     0
 74
     2
 44
0.000001
 12
0.0080450010572761
 22
-0.0067037654586954
 32
0.0
 13
0.0058170003663953
 23
-0.0087077563168823
 33
0.0
 11
21.236986800859157
 21
5.2964110751083089
 31
0.0
 11
21.257757394234154
 21
5.2728410714833105
 31
0.0
  0
SPLINE
  5
4C4
100
AcDbEntity
  8
0
370
     0
390
0
  6
Continuous
 62
     7
100
AcDbSpline
210
0.0
220
0.0
230
1.0
 70
     0
 71
     2
 72
     0
 73
     0
 74
     2
 44
0.000001
 12
0.0065098424834744
 22
-0.00974490604038
 32
0.0
 13
0.0042448070998802
 23
-0.0109235001524386
 33
0.0
 11
21.257757394234154
 21
5.2728410714833105
 31
0.0
 11
21.273673843359155
 21
5.2414924218583101
 31
0.0
  0
SPLINE
  5
4C5
100
AcDbEntity
  8
0
370
     0
390
0
  6
Continuous
 62
     7
100
AcDbSpline
210
0.0
220
0.0
230
1.0
 70
     0
 71
     2
 72
     0
 73
     0
 74
     2
 44
0.000001
 12
0.0046017380872456
 22
-0.0118420190870285
 32
0.0
 13
0.0025468370913728
 23
-0.0124468080370512
 33
0.0
 11
21.273673843359155
 21
5.2414924218583101
 31
0.0
 11
21.284176762234154
 21
5.2048540078583079
 31
0.0
  0
SPLINE
  5
4C6
100
AcDbEntity
  8
0
370
     0
390
0
  6
Continuous
 62
     7
100
AcDbSpline
210
0.0
220
0.0
230
1.0
 70
     0
 71
     2
 72
     0
 73
     0
 74
     2
 44
0.000001
 12
0.0027248551064289
 22
-0.0133168110961712
 32
0.0
 13
0.0008731242764455
 23
-0.013564658017069
 33
0.0
 11
21.284176762234154
 21
5.2048540078583079
 31
0.0
 11
21.289444730609155
 21
5.1644175249833131
 31
0.0
  0
SPLINE
  5
4C7
100
AcDbEntity
  8
0
370
     0
390
0
  6
Continuous
 62
     7
100
AcDbSpline
210
0.0
220
0.0
230
1.0
 70
     0
 71
     2
 72
     0
 73
     0
 74
     2
 44
0.000001
 12
0.0008809371444656
 22
-0.0136860369384149
 32
0.0
 13
-0.0008921687015118
 23
-0.0136853093622324
 33
0.0
 11
21.289444730609155
 21
5.1644175249833131
 31
0.0
 11
21.289427841359156
 21
5.12327444985831
 31
0.0
  0
SPLINE
  5
4C8
100
AcDbEntity
  8
0
370
     0
390
0
  6
Continuous
 62
     7
100
AcDbSpline
210
0.0
220
0.0
230
1.0
 70
     0
 71
     2
 72
     0
 73
     0
 74
     2
 44
0.000001
 12
-0.00088372991776
 22
-0.0135558637023525
 32
0.0
 13
-0.0027360468955138
 23
-0.0133062566738307
 33
0.0
 11
21.289427841359156
 21
5.12327444985831
 31
0.0
 11
21.284128284734152
 21
5.0828665734833107
 31
0.0
  0
SPLINE
  5
4C9
100
AcDbEntity
  8
0
370
     0
390
0
  6
Continuous
 62
     7
100
AcDbSpline
210
0.0
220
0.0
230
1.0
 70
     0
 71
     2
 72
     0
 73
     0
 74
     2
 44
0.000001
 12
-0.0025583144072812
 22
-0.0124418876779817
 32
0.0
 13
-0.0046137248459033
 23
-0.0118346560847513
 33
0.0
 11
21.284128284734152
 21
5.0828665734833107
 31
0.0
 11
21.273589246359151
 21
5.0462463803583111
 31
0.0
  0
SPLINE
  5
4CA
100
AcDbEntity
  8
0
370
     0
390
0
  6
Continuous
 62
     7
100
AcDbSpline
210
0.0
220
0.0
230
1.0
 70
     0
 71
     2
 72
     0
 73
     0
 74
     2
 44
0.000001
 12
-0.0042497503458954
 22
-0.0109010258456355
 32
0.0
 13
-0.0065151297794728
 23
-0.0097183242612253
 33
0.0
 11
21.273589246359151
 21
5.0462463803583111
 31
0.0
 11
21.257658653734154
 21
5.0149693776083089
 31
0.0
  0
SPLINE
  5
4CB
100
AcDbEntity
  8
0
370
     0
390
0
  6
Continuous
 62
     7
100
AcDbSpline
210
0.0
220
0.0
230
1.0
 70
     0
 71
     2
 72
     0
 73
     0
 74
     2
 44
0.000001
 12
-0.0058351406325556
 22
-0.0087040152224791
 32
0.0
 13
-0.0080587407857138
 23
-0.0066981672227229
 33
0.0
 11
21.257658653734154
 21
5.0149693776083089
 31
0.0
 11
21.236833546359151
 21
4.9914195659833078
 31
0.0
  0
SPLINE
  5
4CC
100
AcDbEntity
  8
0
370
     0
390
0
  6
Continuous
 62
     7
100
AcDbSpline
210
0.0
220
0.0
230
1.0
 70
     0
 71
     2
 72
     0
 73
     0
 74
     2
 44
0.000001
 12
-0.007429408389747
 22
-0.006175086292469
 32
0.0
 13
-0.0090679579174875
 23
-0.0033316570873545
 33
0.0
 11
21.236833546359151
 21
4.9914195659833078
 31
0.0
 11
21.211785320234156
 21
4.9768409321083125
 31
0.0
  0
SPLINE
  5
4CD
100
AcDbEntity
  8
0
370
     0
390
0
  6
Continuous
 62
     7
100
AcDbSpline
210
0.0
220
0.0
230
1.0
 70
     0
 71
     2
 72
     0
 73
     0
 74
     2
 44
0.000001
 12
-0.0088497111136725
 22
-0.003251471061203
 32
0.0
 13
-0.0092878037083324
 23
-0.0016205410000012
 33
0.0
 11
21.211785320234156
 21
4.9768409321083125
 31
0.0
 11
21.183921909109152
 21
4.9719793091083107
 31
0.0
  0
ARC
  5
4CE
100
AcDbEntity
  8
0
370
     0
390
0
  6
Continuous
 62
     7
100
AcDbCircle
 10
20.697786
 20
5.143979
 30
0.0
 40
0.172
100
AcDbArc
 50
270.0
 51
450.0
  0
ARC
  5
4CF
100
AcDbEntity
  8
0
370
     0
390
0
  6
Continuous
 62
     7
100
AcDbCircle
 10
20.697786
 20
6.308979
 30
0.0
 40
0.172
100
AcDbArc
 50
270.0
 51
450.0
  0
LINE
  5
4D0
100
AcDbEntity
  8
0
370
     0
390
0
  6
Continuous
 62
     7
100
AcDbLine
 10
21.486786
 20
3.741979
 30
0.0
 11
20.697786
 21
3.741979
 31
0.0
  0
LINE
  5
4D1
100
AcDbEntity
  8
0
370
     0
390
0
  6
Continuous
 62
     7
100
AcDbLine
 10
21.508786
 20
3.763979
 30
0.0
 11
20.697786
 21
3.763979
 31
0.0
  0
LINE
  5
4D2
100
AcDbEntity
  8
0
370
     0
390
0
  6
Continuous
 62
     7
100
AcDbLine
 10
21.508764
 20
3.851979
 30
0.0
 11
20.697786
 21
3.851979
 31
0.0
  0
LINE
  5
4D3
100
AcDbEntity
  8
0
370
     0
390
0
  6
Continuous
 62
     7
100
AcDbLine
 10
21.508764
 20
4.089979
 30
0.0
 11
20.697786
 21
4.089979
 31
0.0
  0
LINE
  5
4D4
100
AcDbEntity
  8
0
370
     0
390
0
  6
Continuous
 62
     7
100
AcDbLine
 10
21.508764
 20
4.167979
 30
0.0
 11
20.697786
 21
4.167979
 31
0.0
  0
ARC
  5
4D5
100
AcDbEntity
  8
0
370
     0
390
0
  6
Continuous
 62
     7
100
AcDbCircle
 10
20.697786
 20
7.475979
 30
0.0
 40
0.172
100
AcDbArc
 50
270.0
 51
450.0
  0
ARC
  5
4D6
100
AcDbEntity
  8
0
370
     0
390
0
  6
Continuous
 62
     7
100
AcDbCircle
 10
20.697786
 20
9.105979
 30
0.0
 40
0.172
100
AcDbArc
 50
270.0
 51
450.0
  0
LINE
  5
4D7
100
AcDbEntity
  8
0
370
     0
390
0
  6
Continuous
 62
     7
100
AcDbLine
 10
20.697786
 20
7.277979
 30
0.0
 11
21.555786
 21
7.277979
 31
0.0
  0
LINE
  5
4D8
100
AcDbEntity
  8
0
370
     0
390
0
  6
Continuous
 62
     7
100
AcDbLine
 10
20.697786
 20
7.183979
 30
0.0
 11
21.555786
 21
7.183979
 31
0.0
  0
LINE
  5
4D9
100
AcDbEntity
  8
0
370
     0
390
0
  6
Continuous
 62
     7
100
AcDbLine
 10
20.697786
 20
6.946479
 30
0.0
 11
21.555786
 21
6.946479
 31
0.0
  0
LINE
  5
4DA
100
AcDbEntity
  8
0
370
     0
390
0
  6
Continuous
 62
     7
100
AcDbLine
 10
20.697786
 20
6.852479
 30
0.0
 11
21.555786
 21
6.852479
 31
0.0
  0
LINE
  5
4DB
100
AcDbEntity
  8
0
370
     0
390
0
  6
Continuous
 62
     7
100
AcDbLine
 10
20.697786
 20
9.785979
 30
0.0
 11
21.509786
 21
9.785979
 31
0.0
  0
LINE
  5
4DC
100
AcDbEntity
  8
0
370
     0
390
0
  6
Continuous
 62
     7
100
AcDbLine
 10
20.697786
 20
9.885979
 30
0.0
 11
21.531679
 21
9.885979
 31
0.0
  0
LINE
  5
4DD
100
AcDbEntity
  8
DEFAULT_2
370
     0
390
0
  6
Continuous
 62
     7
100
AcDbLine
 10
21.541679
 20
10.014116
 30
0.0
 11
21.541679
 21
9.895979
 31
0.0
  0
LINE
  5
4DE
100
AcDbEntity
  8
0
370
     0
390
0
  6
Continuous
 62
     7
100
AcDbLine
 10
21.531679
 20
9.885979
 30
0.0
 11
21.541679
 21
9.895979
 31
0.0
  0
LINE
  5
4DF
100
AcDbEntity
  8
DEFAULT_2
370
     0
390
0
  6
Continuous
 62
     7
100
AcDbLine
 10
21.541679
 20
9.895979
 30
0.0
 11
20.697786
 21
9.895979
 31
0.0
  0
TEXT
  5
4E0
100
AcDbEntity
  8
_2D_DELETED_OBJS
370
     0
390
0
  6
Continuous
 62
     7
100
AcDbText
 10
21.812531
 20
8.056132
 30
0.0
 40
0.142
  1
PORT
  7
Vcadd_SIMP
 72
     1
 11
22.127523
 21
8.056132
 31
0.0
100
AcDbText
  0
TEXT
  5
4E1
100
AcDbEntity
  8
_2D_DELETED_OBJS
370
     0
390
0
  6
Continuous
 62
     7
100
AcDbText
 10
22.064071
 20
7.843132
 30
0.0
 40
0.142
  1
3
  7
Vcadd_SIMP
 72
     1
 11
22.127523
 21
7.843132
 31
0.0
100
AcDbText
  0
LINE
  5
4E2
100
AcDbEntity
  8
DEFAULT_2
370
     0
390
0
  6
Continuous
 62
     7
100
AcDbLine
 10
22.493473
 20
9.887116
 30
0.0
 11
22.493473
 21
9.887116
 31
0.0
  0
LINE
  5
4E3
100
AcDbEntity
  8
DEFAULT_3
370
     0
390
0
  6
Continuous
 62
     1
100
AcDbLine
 10
22.09478
 20
9.887116
 30
0.0
 11
22.528009
 21
9.887116
 31
0.0
  0
INSERT
  5
4E4
100
AcDbEntity
  8
DEFAULT_3
370
    30
390
0
  6
Continuous
 62
     7
100
AcDbBlockReference
  2
ARROW
 10
22.45801
 20
9.887116
 30
0.0
 42
1.0
 50
90.0
  0
SPLINE
  5
4E5
100
AcDbEntity
  8
DEFAULT_1
370
     0
390
0
  6
Continuous
 62
     1
100
AcDbSpline
210
0.0
220
0.0
230
1.0
 70
     0
 71
     2
 72
     0
 73
     0
 74
     2
 44
0.000001
 12
0.001509551920801
 22
0.0510226285532784
 32
0.0
 13
0.0030532700603061
 23
0.0509535564355055
 33
0.0
 11
22.029306311457667
 21
9.6793213787341656
 31
0.0
 11
22.033834967220066
 21
9.8323892643939992
 31
0.0
  0
SPLINE
  5
4E6
100
AcDbEntity
  8
DEFAULT_1
370
     0
390
0
  6
Continuous
 62
     1
100
AcDbSpline
210
0.0
220
0.0
230
1.0
 70
     0
 71
     2
 72
     0
 73
     0
 74
     2
 44
0.000001
 12
0.0022610606242459
 22
0.0377330134072533
 32
0.0
 13
0.003801490113581
 23
0.0376090596645913
 33
0.0
 11
22.033834967220066
 21
9.8323892643939992
 31
0.0
 11
22.045239437560806
 21
9.9452164433877748
 31
0.0
  0
LINE
  5
4E7
100
AcDbEntity
  8
DEFAULT_1
370
     0
390
0
  6
Continuous
 62
     1
100
AcDbLine
 10
22.038767
 20
9.887116
 30
0.0
 11
21.603783
 21
9.887116
 31
0.0
  0
LINE
  5
4E8
100
AcDbEntity
  8
DEFAULT_1
370
     0
390
0
  6
Continuous
 62
     1
100
AcDbLine
 10
22.035698
 20
10.249256
 30
0.0
 11
21.673562
 21
9.887116
 31
0.0
  0
LINE
  5
4E9
100
AcDbEntity
  8
DEFAULT_1
370
     0
390
0
  6
Continuous
 62
     1
100
AcDbLine
 10
22.016533
 20
10.406868
 30
0.0
 11
21.603783
 21
9.994118
 31
0.0
  0
LINE
  5
4EA
100
AcDbEntity
  8
DEFAULT_1
370
     0
390
0
  6
Continuous
 62
     1
100
AcDbLine
 10
22.024647
 20
10.326593
 30
0.0
 11
21.603783
 21
9.905729
 31
0.0
  0
LINE
  5
4EB
100
AcDbEntity
  8
DEFAULT_1
370
     0
390
0
  6
Continuous
 62
     1
100
AcDbLine
 10
22.042824
 20
10.165328
 30
0.0
 11
21.764616
 21
9.887116
 31
0.0
  0
LINE
  5
4EC
100
AcDbEntity
  8
DEFAULT_1
370
     0
390
0
  6
Continuous
 62
     1
100
AcDbLine
 10
22.047618
 20
10.079067
 30
0.0
 11
21.855669
 21
9.887116
 31
0.0
  0
LINE
  5
4ED
100
AcDbEntity
  8
DEFAULT_1
370
     0
390
0
  6
Continuous
 62
     1
100
AcDbLine
 10
22.05274
 20
9.986893
 30
0.0
 11
21.955628
 21
9.887116
 31
0.0
  0
LINE
  5
4EE
100
AcDbEntity
  8
DEFAULT_1
370
     0
390
0
  6
Continuous
 62
     1
100
AcDbLine
 10
21.723743
 20
8.606116
 30
0.0
 11
21.810821
 21
8.606116
 31
0.0
  0
LINE
  5
4EF
100
AcDbEntity
  8
DEFAULT_3
370
     0
390
0
  6
Continuous
 62
     1
100
AcDbLine
 10
21.677914
 20
8.606116
 30
0.0
 11
21.324375
 21
8.606116
 31
0.0
  0
LINE
  5
4F0
100
AcDbEntity
  8
DEFAULT_3
370
     0
390
0
  6
Continuous
 62
     1
100
AcDbLine
 10
21.856653
 20
8.606116
 30
0.0
 11
24.151401
 21
8.606116
 31
0.0
  0
TEXT
  5
4F1
100
AcDbEntity
  8
_2D_DELETED_OBJS
370
     0
390
0
  6
Continuous
 62
     7
100
AcDbText
 10
24.171164
 20
8.548446
 30
0.0
 40
0.142
  1
2.219
  7
Vcadd_SIMP
100
AcDbText
  0
LINE
  5
4F2
100
AcDbEntity
  8
DEFAULT_3
370
     0
390
0
  6
Continuous
 62
     1
100
AcDbLine
 10
22.45801
 20
9.887116
 30
0.0
 11
22.45801
 21
9.205678
 31
0.0
  0
LINE
  5
4F3
100
AcDbEntity
  8
DEFAULT_3
370
     0
390
0
  6
Continuous
 62
     1
100
AcDbLine
 10
22.45801
 20
8.919563
 30
0.0
 11
22.45801
 21
7.325116
 31
0.0
  0
TEXT
  5
4F4
100
AcDbEntity
  8
_2D_DELETED_OBJS
370
     0
390
0
  6
Continuous
 62
     7
100
AcDbText
 10
22.115272
 20
8.98355
 30
0.0
 40
0.142
  1
2.562
  7
Vcadd_SIMP
100
AcDbText
  0
TEXT
  5
4F5
100
AcDbEntity
  8
_2D_DELETED_OBJS
370
     0
390
0
  6
Continuous
 62
     7
100
AcDbText
 10
22.099345
 20
11.097257
 30
0.0
 40
0.142
  1
4
  7
Vcadd_SIMP
100
AcDbText
  0
TEXT
  5
4F6
100
AcDbEntity
  8
0
370
     0
390
0
  6
Continuous
 62
     7
100
AcDbText
 10
15.206874
 20
7.482434
 30
0.0
 40
0.065844
  1
16APR12
 50
270.0
  7
Vcadd_SIMP
100
AcDbText
  0
TEXT
  5
4F7
100
AcDbEntity
  8
0
370
     0
390
0
  6
Continuous
 62
     7
100
AcDbText
 10
15.159515
 20
6.38504
 30
0.0
 40
0.05
  1
ECR
 50
270.0
 41
0.7
  7
Vcadd_SIMP
 72
     1
 11
15.25356
 21
6.38504
 31
0.0
100
AcDbText
  0
TEXT
  5
4F8
100
AcDbEntity
  8
0
370
     0
390
0
  6
Continuous
 62
     7
100
AcDbText
 10
15.021064
 20
6.38504
 30
0.0
 40
0.05
  1
10996
 50
270.0
 41
0.7
  7
Vcadd_SIMP
 72
     1
 11
15.17856
 21
6.38504
 31
0.0
100
AcDbText
  0
TEXT
  5
4F9
100
AcDbEntity
  8
0
370
     0
390
0
  6
Continuous
 62
     7
100
AcDbText
 10
15.048444
 20
4.669926
 30
0.0
 40
0.062
  1
11APR12
 50
270.0
  7
Vcadd_SIMP
100
AcDbText
  0
CIRCLE
  5
4FA
100
AcDbEntity
  8
_2D_DELETED_OBJS
370
     0
390
0
  6
Continuous
 62
     1
100
AcDbCircle
 10
15.451562
 20
12.809781
 30
0.0
 40
0.068509
  0
TEXT
  5
4FB
100
AcDbEntity
  8
_2D_DELETED_OBJS
370
     0
390
0
  6
Continuous
 62
     7
100
AcDbText
 10
15.705994
 20
13.63165
 30
0.0
 40
0.09
  1
THIS DRAWING DESCRIBES 
  7
Vcadd_SIMP
100
AcDbText
  0
TEXT
  5
4FC
100
AcDbEntity
  8
_2D_DELETED_OBJS
370
     0
390
0
  6
Continuous
 62
     7
100
AcDbText
 10
15.807084
 20
13.519147
 30
0.0
 40
0.09
  1
PROPRIETARY PRODUCT OF
  7
Vcadd_SIMP
100
AcDbText
  0
TEXT
  5
4FD
100
AcDbEntity
  8
_2D_DELETED_OBJS
370
     0
390
0
  6
Continuous
 62
     7
100
AcDbText
 10
15.625123
 20
13.406644
 30
0.0
 40
0.09
  1
SUN HYDRAULICS CORPORATION
  7
Vcadd_SIMP
100
AcDbText
  0
TEXT
  5
4FE
100
AcDbEntity
  8
_2D_DELETED_OBJS
370
     0
390
0
  6
Continuous
 62
     7
100
AcDbText
 10
15.544259
 20
13.294149
 30
0.0
 40
0.09
  1
AND MAY NOT BE REPRODUCED
  7
Vcadd_SIMP
100
AcDbText
  0
TEXT
  5
4FF
100
AcDbEntity
  8
_2D_DELETED_OBJS
370
     0
390
0
  6
Continuous
 62
     7
100
AcDbText
 10
15.457078
 20
13.181645
 30
0.0
 40
0.09
  1
GIVEN TO A THIRD PARTY
  7
Vcadd_SIMP
100
AcDbText
  0
TEXT
  5
500
100
AcDbEntity
  8
_2D_DELETED_OBJS
370
     0
390
0
  6
Continuous
 62
     7
100
AcDbText
 10
15.792519
 20
13.06915
 30
0.0
 40
0.09
  1
WRITTEN PERMISSION
  7
Vcadd_SIMP
100
AcDbText
  0
TEXT
  5
501
100
AcDbEntity
  8
_2D_DELETED_OBJS
370
     0
390
0
  6
Continuous
 62
     7
100
AcDbText
 10
15.650559
 20
12.956647
 30
0.0
 40
0.09
  1
SUN HYDRAULICS CORPORATION
  7
Vcadd_SIMP
100
AcDbText
  0
TEXT
  5
502
100
AcDbEntity
  8
_2D_DELETED_OBJS
370
     0
390
0
  6
Continuous
 62
     7
100
AcDbText
 10
15.900391
 20
13.791158
 30
0.0
 40
0.1
  1
PROPRIETARY NOTICE
  7
Vcadd_SIMP
100
AcDbText
  0
TEXT
  5
503
100
AcDbEntity
  8
_2D_DELETED_OBJS
370
     0
390
0
  6
Continuous
 62
     7
100
AcDbText
 10
15.598908
 20
12.76341
 30
0.0
 40
0.1
  1
SUN HYDRAULICS CORPORATION
  7
Vcadd_SIMP
100
AcDbText
  0
TEXT
  5
504
100
AcDbEntity
  8
_2D_DELETED_OBJS
370
     0
390
0
  6
Continuous
 62
     7
100
AcDbText
 10
15.416955
 20
12.770345
 30
0.0
 40
0.09
  1
C
  7
Vcadd_SIMP
100
AcDbText
  0
TEXT
  5
505
100
AcDbEntity
  8
_2D_DELETED_OBJS
370
     0
390
0
  6
Continuous
 62
     7
100
AcDbText
 10
17.776003
 20
13.63165
 30
0.0
 40
0.09
  1
A
  7
Vcadd_SIMP
100
AcDbText
  0
TEXT
  5
506
100
AcDbEntity
  8
_2D_DELETED_OBJS
370
     0
390
0
  6
Continuous
 62
     7
100
AcDbText
 10
17.884264
 20
13.294149
 30
0.0
 40
0.09
  1
OR
  7
Vcadd_SIMP
100
AcDbText
  0
TEXT
  5
507
100
AcDbEntity
  8
_2D_DELETED_OBJS
370
     0
390
0
  6
Continuous
 62
     7
100
AcDbText
 10
17.527086
 20
13.181645
 30
0.0
 40
0.09
  1
WITHOUT
  7
Vcadd_SIMP
100
AcDbText
  0
TEXT
  5
508
100
AcDbEntity
  8
_2D_DELETED_OBJS
370
     0
390
0
  6
Continuous
 62
     7
100
AcDbText
 10
17.495782
 20
13.06915
 30
0.0
 40
0.09
  1
FROM
  7
Vcadd_SIMP
100
AcDbText
  0
TEXT
  5
509
100
AcDbEntity
  8
_2D_DELETED_OBJS
370
     0
390
0
  6
Continuous
 62
     7
100
AcDbText
 10
16.779808
 20
-0.074964
 30
0.0
 40
0.1136
  1
ALL O-RING "LEAD IN's" TO
  7
Vcadd_SIMP
100
AcDbText
  0
TEXT
  5
50A
100
AcDbEntity
  8
_2D_DELETED_OBJS
370
     0
390
0
  6
Continuous
 62
     7
100
AcDbText
 10
16.779808
 20
-0.245364
 30
0.0
 40
0.1136
  1
BE SMOOTH AND FREE OF NICKS
  7
Vcadd_SIMP
100
AcDbText
  0
TEXT
  5
50B
100
AcDbEntity
  8
_2D_DELETED_OBJS
370
     0
390
0
  6
Continuous
 62
     7
100
AcDbText
 10
16.779808
 20
-0.415764
 30
0.0
 40
0.1136
  1
AND SHARP EDGES.
  7
Vcadd_SIMP
100
AcDbText
  0
TEXT
  5
50C
100
AcDbEntity
  8
_2D_DELETED_OBJS
370
     0
390
0
  6
Continuous
 62
     7
100
AcDbText
 10
16.458318
 20
-0.074964
 30
0.0
 40
0.1136
  1
**
  7
Vcadd_SIMP
100
AcDbText
  0
TEXT
  5
50D
100
AcDbEntity
  8
_2D_DELETED_OBJS
370
     0
390
0
  6
Continuous
 62
     7
100
AcDbText
 10
16.793425
 20
0.816001
 30
0.0
 40
0.10632
  1
MINIMUM CENTERLINE-TO-EDGE 
  7
Vcadd_SIMP
100
AcDbText
  0
TEXT
  5
50E
100
AcDbEntity
  8
_2D_DELETED_OBJS
370
     0
390
0
  6
Continuous
 62
     7
100
AcDbText
 10
16.793425
 20
0.550205
 30
0.0
 40
0.10632
  1
MINIMUM CENTERLINE-TO-CENTERLINE 
  7
Vcadd_SIMP
100
AcDbText
  0
TEXT
  5
50F
100
AcDbEntity
  8
_2D_DELETED_OBJS
370
     0
390
0
  6
Continuous
 62
     7
100
AcDbText
 10
16.604421
 20
1.101473
 30
0.0
 40
0.1056
  1
* SOCKET WRENCH CLEARANCE DIAMETER.
  7
Vcadd_SIMP
100
AcDbText
  0
TEXT
  5
510
100
AcDbEntity
  8
_2D_DELETED_OBJS
370
     0
390
0
  6
Continuous
 62
     7
100
AcDbText
 10
17.325026
 20
0.6831
 30
0.0
 40
0.1064
  1
DISTANCE: 1.531
  7
Vcadd_SIMP
100
AcDbText
  0
TEXT
  5
511
100
AcDbEntity
  8
_2D_DELETED_OBJS
370
     0
390
0
  6
Continuous
 62
     7
100
AcDbText
 10
17.325026
 20
0.4173
 30
0.0
 40
0.1064
  1
DISTANCE: 2.469
  7
Vcadd_SIMP
100
AcDbText
  0
LINE
  5
512
100
AcDbEntity
  8
_2D_DELETED_OBJS
370
     0
390
0
  6
Continuous
 62
     7
100
AcDbLine
 10
16.813874
 20
1.329618
 30
0.0
 11
17.107847
 21
1.329618
 31
0.0
  0
LINE
  5
513
100
AcDbEntity
  8
_2D_DELETED_OBJS
370
     0
390
0
  6
Continuous
 62
     7
100
AcDbLine
 10
17.107847
 20
1.329618
 30
0.0
 11
17.107847
 21
1.594887
 31
0.0
  0
LINE
  5
514
100
AcDbEntity
  8
_2D_DELETED_OBJS
370
     0
390
0
  6
Continuous
 62
     7
100
AcDbLine
 10
17.107847
 20
1.594887
 30
0.0
 11
16.813874
 21
1.594887
 31
0.0
  0
LINE
  5
515
100
AcDbEntity
  8
_2D_DELETED_OBJS
370
     0
390
0
  6
Continuous
 62
     7
100
AcDbLine
 10
16.813874
 20
1.594887
 30
0.0
 11
16.813874
 21
1.329618
 31
0.0
  0
CIRCLE
  5
516
100
AcDbEntity
  8
_2D_DELETED_OBJS
370
     0
390
0
  6
Continuous
 62
     7
100
AcDbCircle
 10
16.960861
 20
1.462252
 30
0.0
 40
0.103469
  0
CIRCLE
  5
517
100
AcDbEntity
  8
_2D_DELETED_OBJS
370
     0
390
0
  6
Continuous
 62
     7
100
AcDbCircle
 10
16.960861
 20
1.462252
 30
0.0
 40
0.0456
  0
HATCH
  5
518
100
AcDbEntity
  8
_2D_DELETED_OBJS
370
     0
390
0
  6
Continuous
 62
     7
100
AcDbHatch
 10
0.0
 20
0.0
 30
0.0
210
0.0
220
0.0
230
1.0
  2
SOLID
 70
     1
 71
     0
 91
        1
 92
        1
 93
        1
 72
     2
 10
16.960860614408706
 20
1.4622524346688286
 40
0.0456004757390787
 50
0.0
 51
360.0
 73
     1
 97
        0
 75
     0
 76
     1
 98
        1
 10
0.0
 20
0.0
  0
LINE
  5
519
100
AcDbEntity
  8
_2D_DELETED_OBJS
370
     0
390
0
  6
Continuous
 62
     7
100
AcDbLine
 10
17.107847
 20
1.594887
 30
0.0
 11
17.894716
 21
1.594887
 31
0.0
  0
LINE
  5
51A
100
AcDbEntity
  8
_2D_DELETED_OBJS
370
     0
390
0
  6
Continuous
 62
     7
100
AcDbLine
 10
17.107847
 20
1.329618
 30
0.0
 11
17.894716
 21
1.329618
 31
0.0
  0
LINE
  5
51B
100
AcDbEntity
  8
_2D_DELETED_OBJS
370
     0
390
0
  6
Continuous
 62
     7
100
AcDbLine
 10
17.894716
 20
1.594887
 30
0.0
 11
17.894716
 21
1.329618
 31
0.0
  0
LINE
  5
51C
100
AcDbEntity
  8
_2D_DELETED_OBJS
370
     0
390
0
  6
Continuous
 62
     7
100
AcDbLine
 10
17.894716
 20
1.329618
 30
0.0
 11
18.188689
 21
1.329618
 31
0.0
  0
LINE
  5
51D
100
AcDbEntity
  8
_2D_DELETED_OBJS
370
     0
390
0
  6
Continuous
 62
     7
100
AcDbLine
 10
18.188689
 20
1.329618
 30
0.0
 11
18.188689
 21
1.594887
 31
0.0
  0
TEXT
  5
51E
100
AcDbEntity
  8
_2D_DELETED_OBJS
370
     0
390
0
  6
Continuous
 62
     7
100
AcDbText
 10
17.94836
 20
1.360181
 30
0.0
 40
0.192
  1
A
  7
Vcadd_SIMP
 72
     1
 11
18.042404
 21
1.360181
 31
0.0
100
AcDbText
  0
TEXT
  5
51F
100
AcDbEntity
  8
_2D_DELETED_OBJS
370
     0
390
0
  6
Continuous
 62
     7
100
AcDbText
 10
17.21256
 20
1.367104
 30
0.0
 40
0.192
  1
.002
  7
Vcadd_SIMP
 72
     1
 11
17.479964
 21
1.367104
 31
0.0
100
AcDbText
  0
TEXT
  5
520
100
AcDbEntity
  8
_2D_DELETED_OBJS
370
     0
390
0
  6
Continuous
 62
     7
100
AcDbText
 10
18.289716
 20
1.483278
 30
0.0
 40
0.12
  1
THREAD AND
  7
Vcadd_SIMP
100
AcDbText
  0
TEXT
  5
521
100
AcDbEntity
  8
_2D_DELETED_OBJS
370
     0
390
0
  6
Continuous
 62
     7
100
AcDbText
 10
18.289716
 20
1.327278
 30
0.0
 40
0.12
  1
ALL DIAMETERS
  7
Vcadd_SIMP
100
AcDbText
  0
LINE
  5
522
100
AcDbEntity
  8
_2D_DELETED_OBJS
370
     0
390
0
  6
Continuous
 62
     7
100
AcDbLine
 10
18.188689
 20
1.594887
 30
0.0
 11
17.894716
 21
1.594887
 31
0.0
  0
TEXT
  5
523
100
AcDbEntity
  8
_2D_DELETED_OBJS
370
     0
390
0
  6
Continuous
 62
     7
100
AcDbText
 10
17.325026
 20
0.968571
 30
0.0
 40
0.1064
  1
(994-054-*** MAJOR DIAMETER)
  7
Vcadd_SIMP
100
AcDbText
  0
TEXT
  5
524
100
AcDbEntity
  8
_2D_DELETED_OBJS
370
     0
390
0
  6
Continuous
 62
     7
100
AcDbText
 10
16.793425
 20
0.284405
 30
0.0
 40
0.1064
  1
NBOM CALLOUT: SUN STD T-54AD CAVITY
  7
Vcadd_SIMP
100
AcDbText
  0
TEXT
  5
525
100
AcDbEntity
  8
_2D_DELETED_OBJS
370
     0
390
0
  6
Continuous
 62
     7
100
AcDbText
 10
16.793425
 20
0.151506
 30
0.0
 40
0.1064
  1
NBOM CODE:    T54AD
  7
Vcadd_SIMP
100
AcDbText
  0
TEXT
  5
526
100
AcDbEntity
  8
_2D_DELETED_OBJS
370
     0
390
0
  6
Continuous
 62
     7
100
AcDbText
 10
20.85416
 20
1.162458
 30
0.0
 40
0.1056
  1
THE PORT 2 AND 3 AREAS ARE SHOWN ON
  7
Vcadd_SIMP
100
AcDbText
  0
TEXT
  5
527
100
AcDbEntity
  8
_2D_DELETED_OBJS
370
     0
390
0
  6
Continuous
 62
     7
100
AcDbText
 10
20.85416
 20
1.025178
 30
0.0
 40
0.1056
  1
THE SAME FACE ONLY FOR DIMENSIONAL 
  7
Vcadd_SIMP
100
AcDbText
  0
TEXT
  5
528
100
AcDbEntity
  8
_2D_DELETED_OBJS
370
     0
390
0
  6
Continuous
 62
     7
100
AcDbText
 10
20.85416
 20
0.887898
 30
0.0
 40
0.1056
  1
PURPOSES. THESE PORTS SHOULD BE 
  7
Vcadd_SIMP
100
AcDbText
  0
TEXT
  5
529
100
AcDbEntity
  8
_2D_DELETED_OBJS
370
     0
390
0
  6
Continuous
 62
     7
100
AcDbText
 10
20.85416
 20
0.750618
 30
0.0
 40
0.1056
  1
MACHINED ON EITHER ADJACENT OR 
  7
Vcadd_SIMP
100
AcDbText
  0
TEXT
  5
52A
100
AcDbEntity
  8
_2D_DELETED_OBJS
370
     0
390
0
  6
Continuous
 62
     7
100
AcDbText
 10
20.85416
 20
0.613338
 30
0.0
 40
0.1056
  1
OPPOSITE FACES, DUE TO THE LIMITED 
  7
Vcadd_SIMP
100
AcDbText
  0
TEXT
  5
52B
100
AcDbEntity
  8
_2D_DELETED_OBJS
370
     0
390
0
  6
Continuous
 62
     7
100
AcDbText
 10
20.85416
 20
0.476058
 30
0.0
 40
0.1056
  1
DISTANCE BETWEEN THE PORTS AND 
  7
Vcadd_SIMP
100
AcDbText
  0
TEXT
  5
52C
100
AcDbEntity
  8
_2D_DELETED_OBJS
370
     0
390
0
  6
Continuous
 62
     7
100
AcDbText
 10
20.85416
 20
0.338778
 30
0.0
 40
0.1056
  1
THE SIZE OF THE PORT AREAS. IF
  7
Vcadd_SIMP
100
AcDbText
  0
TEXT
  5
52D
100
AcDbEntity
  8
_2D_DELETED_OBJS
370
     0
390
0
  6
Continuous
 62
     7
100
AcDbText
 10
20.85416
 20
0.201498
 30
0.0
 40
0.1056
  1
MACHINING ON OPPOSITE FACES, 
  7
Vcadd_SIMP
100
AcDbText
  0
TEXT
  5
52E
100
AcDbEntity
  8
_2D_DELETED_OBJS
370
     0
390
0
  6
Continuous
 62
     7
100
AcDbText
 10
20.85416
 20
0.064218
 30
0.0
 40
0.1056
  1
THE PREDRILLINGS SHOULD NOT EXTEND 
  7
Vcadd_SIMP
100
AcDbText
  0
TEXT
  5
52F
100
AcDbEntity
  8
_2D_DELETED_OBJS
370
     0
390
0
  6
Continuous
 62
     7
100
AcDbText
 10
20.85416
 20
-0.073062
 30
0.0
 40
0.1056
  1
PAST THE CAVITY. SAE 4-BOLT FLANGE 
  7
Vcadd_SIMP
100
AcDbText
  0
TEXT
  5
530
100
AcDbEntity
  8
_2D_DELETED_OBJS
370
     0
390
0
  6
Continuous
 62
     7
100
AcDbText
 10
20.85416
 20
-0.210342
 30
0.0
 40
0.1056
  1
PORTS ARE HIGHLY RECOMMENDED 
  7
Vcadd_SIMP
100
AcDbText
  0
TEXT
  5
531
100
AcDbEntity
  8
_2D_DELETED_OBJS
370
     0
390
0
  6
Continuous
 62
     7
100
AcDbText
 10
20.85416
 20
-0.347622
 30
0.0
 40
0.1056
  1
OVER SAE THREADED PORTS.
  7
Vcadd_SIMP
100
AcDbText
  0
INSERT
  5
53F
100
AcDbEntity
  8
_2D_DELETED_OBJS
370
     0
390
0
  6
Continuous
 62
     7
100
AcDbBlockReference
  2
STAR
 10
23.049404
 20
9.220748
 30
0.0
  0
INSERT
  5
540
100
AcDbEntity
  8
_2D_DELETED_OBJS
370
     0
390
0
  6
Continuous
 62
     7
100
AcDbBlockReference
  2
STAR
 10
23.001205
 20
6.17574
 30
0.0
  0
INSERT
  5
541
100
AcDbEntity
  8
_2D_DELETED_OBJS
370
     0
390
0
  6
Continuous
 62
     7
100
AcDbBlockReference
  2
STAR
 10
20.846025
 20
1.445889
 30
0.0
  0
ENDSEC
  0
SECTION
  2
OBJECTS
  0
DICTIONARY
  5
19
100
AcDbDictionary
280
     0
281
     1
  3
ACAD_GROUP
350
1A
  3
ACAD_MLINESTYLE
350
1B
  3
ACAD_LAYOUT
350
1E
  3
ACAD_PLOTSETTINGS
350
22
  3
ACAD_PLOTSTYLENAME
350
1F
  3
ACAD_WIPEOUT_VARS
350
23
  0
DICTIONARY
  5
1A
102
{ACAD_REACTORS
330
19
102
}
100
AcDbDictionary
280
     0
281
     1
  0
DICTIONARY
  5
1B
102
{ACAD_REACTORS
330
19
102
}
100
AcDbDictionary
280
     0
281
     1
  3
Standard
350
1C
  0
MLINESTYLE
  5
1C
102
{ACAD_REACTORS
330
1B
102
}
100
AcDbMlineStyle
  2
Standard
 70
     0
  3

 62
     0
 51
90.0
 52
90.0
 71
     2
 49
0.5
 62
   256
  6
ByLayer
 49
-0.5
 62
   256
  6
ByLayer
  0
ACDBDICTIONARYWDFLT
  5
1F
102
{ACAD_REACTORS
330
19
102
}
100
AcDbDictionary
281
     1
  3
Normal
350
1D
100
AcDbDictionaryWithDefault
340
1D
  0
ACDBPLACEHOLDER
  5
1D
102
{ACAD_REACTORS
330
1F
102
}
  0
LAYOUT
  5
20
102
{ACAD_REACTORS
330
1E
102
}
100
AcDbPlotSettings
  1

  2

  4

  6

 40
0.0
 41
0.0
 42
0.0
 43
0.0
 44
0.0
 45
0.0
 46
0.0
 47
0.0
 48
0.0
 49
0.0
140
0.0
141
0.0
142
1.0
143
1.0
 70
  1024
 72
     0
 73
     0
 74
     0
  7

 75
     0
147
1.0
148
0.0
149
0.0
100
AcDbLayout
  1
Model
 70
     0
 71
     0
 10
0.0
 20
0.0
 11
0.0
 21
0.0
 12
0.0
 22
0.0
 32
0.0
 14
0.0
 24
0.0
 34
0.0
 15
0.0
 25
0.0
 35
0.0
146
0.0
 13
0.0
 23
0.0
 33
0.0
 16
0.0
 26
0.0
 36
0.0
 17
0.0
 27
0.0
 37
0.0
 76
     0
330
A
331
0
345
0
346
0
  0
LAYOUT
  5
21
102
{ACAD_REACTORS
330
1E
102
}
100
AcDbPlotSettings
  1

  2

  4

  6

 40
0.0
 41
0.0
 42
0.0
 43
0.0
 44
0.0
 45
0.0
 46
0.0
 47
0.0
 48
0.0
 49
0.0
140
0.0
141
0.0
142
1.0
143
1.0
 70
     0
 72
     0
 73
     0
 74
     0
  7

 75
     0
147
1.0
148
0.0
149
0.0
100
AcDbLayout
  1
Layout1
 70
     0
 71
     0
 10
0.0
 20
0.0
 11
0.0
 21
0.0
 12
0.0
 22
0.0
 32
0.0
 14
0.0
 24
0.0
 34
0.0
 15
0.0
 25
0.0
 35
0.0
146
0.0
 13
0.0
 23
0.0
 33
0.0
 16
0.0
 26
0.0
 36
0.0
 17
0.0
 27
0.0
 37
0.0
 76
     0
330
B
331
0
345
0
346
0
  0
DICTIONARY
  5
1E
102
{ACAD_REACTORS
330
19
102
}
100
AcDbDictionary
280
     0
281
     1
  3
Layout1
350
21
  3
Model
350
20
  0
DICTIONARY
  5
22
102
{ACAD_REACTORS
330
19
102
}
100
AcDbDictionary
280
     0
281
     1
  0
WIPEOUTVARIABLES
  5
23
100
AcDbWipeoutVariables
 70
     1
  0
ENDSEC
  0
EOF
