  0
SECTION
  2
HEADER
  9
$ACADVER
  1
AC1015
  9
$ACADMAINTVER
 70
     6
  9
$DWGCODEPAGE
  3
ANSI_1252
  9
$INSBASE
 10
0.0
 20
0.0
 30
0.0
  9
$EXTMIN
 10
3.156446
 20
1.895243
 30
0.0
  9
$EXTMAX
 10
8.159028
 20
9.897095
 30
0.0
  9
$LIMMIN
 10
0.0
 20
0.0
  9
$LIMMAX
 10
0.0
 20
0.0
  9
$ORTHOMODE
 70
     0
  9
$REGENMODE
 70
     1
  9
$FILLMODE
 70
     1
  9
$QTEXTMODE
 70
     0
  9
$MIRRTEXT
 70
     1
  9
$LTSCALE
 40
1.0
  9
$ATTMODE
 70
     1
  9
$TEXTSIZE
 40
0.2
  9
$TRACEWID
 40
0.05
  9
$TEXTSTYLE
  7
Standard
  9
$CLAYER
  8
0
  9
$CELTYPE
  6
Continuous
  9
$CECOLOR
 62
   256
  9
$CELTSCALE
 40
1.0
  9
$DISPSILH
 70
     0
  9
$DIMSCALE
 40
1.0
  9
$DIMASZ
 40
0.18
  9
$DIMEXO
 40
0.0625
  9
$DIMDLI
 40
0.38
  9
$DIMRND
 40
0.0
  9
$DIMDLE
 40
0.0
  9
$DIMEXE
 40
0.18
  9
$DIMTP
 40
0.0
  9
$DIMTM
 40
0.0
  9
$DIMTXT
 40
0.18
  9
$DIMCEN
 40
0.09
  9
$DIMTSZ
 40
0.0
  9
$DIMTOL
 70
     0
  9
$DIMLIM
 70
     0
  9
$DIMTIH
 70
     1
  9
$DIMTOH
 70
     1
  9
$DIMSE1
 70
     0
  9
$DIMSE2
 70
     0
  9
$DIMTAD
 70
     0
  9
$DIMZIN
 70
     0
  9
$DIMBLK
  1

  9
$DIMASO
 70
     1
  9
$DIMSHO
 70
     1
  9
$DIMPOST
  1

  9
$DIMAPOST
  1

  9
$DIMALT
 70
     0
  9
$DIMALTD
 70
     2
  9
$DIMALTF
 40
25.4
  9
$DIMLFAC
 40
1.0
  9
$DIMTOFL
 70
     0
  9
$DIMTVP
 40
0.0
  9
$DIMTIX
 70
     0
  9
$DIMSOXD
 70
     0
  9
$DIMSAH
 70
     0
  9
$DIMBLK1
  1

  9
$DIMBLK2
  1

  9
$DIMSTYLE
  2
Standard
  9
$DIMCLRD
 70
     0
  9
$DIMCLRE
 70
     0
  9
$DIMCLRT
 70
     0
  9
$DIMTFAC
 40
1.0
  9
$DIMGAP
 40
0.09
  9
$DIMJUST
 70
     0
  9
$DIMSD1
 70
     0
  9
$DIMSD2
 70
     0
  9
$DIMTOLJ
 70
     1
  9
$DIMTZIN
 70
     0
  9
$DIMALTZ
 70
     0
  9
$DIMALTTZ
 70
     0
  9
$DIMUPT
 70
     0
  9
$DIMDEC
 70
     4
  9
$DIMTDEC
 70
     4
  9
$DIMALTU
 70
     2
  9
$DIMALTTD
 70
     2
  9
$DIMTXSTY
  7
Standard
  9
$DIMAUNIT
 70
     0
  9
$DIMADEC
 70
     0
  9
$DIMALTRND
 40
0.0
  9
$DIMAZIN
 70
     0
  9
$DIMDSEP
 70
     0
  9
$DIMATFIT
 70
     3
  9
$DIMFRAC
 70
     0
  9
$DIMLDRBLK
  1

  9
$DIMLUNIT
 70
     2
  9
$DIMLWD
 70
     0
  9
$DIMLWE
 70
     0
  9
$DIMTMOVE
 70
     0
  9
$LUNITS
 70
     2
  9
$LUPREC
 70
     4
  9
$SKETCHINC
 40
0.1
  9
$FILLETRAD
 40
0.0
  9
$AUNITS
 70
     0
  9
$AUPREC
 70
     0
  9
$MENU
  1
acad
  9
$ELEVATION
 40
0.0
  9
$PELEVATION
 40
0.0
  9
$THICKNESS
 40
0.0
  9
$LIMCHECK
 70
     0
  9
$CHAMFERA
 40
0.0
  9
$CHAMFERB
 40
0.0
  9
$CHAMFERC
 40
0.0
  9
$CHAMFERD
 40
0.0
  9
$SKPOLY
 70
     0
  9
$TDCREATE
 40
0.000000000
  9
$TDUCREATE
 40
0.000000000
  9
$TDUPDATE
 40
0.000000000
  9
$TDUUPDATE
 40
0.000000000
  9
$TDINDWG
 40
0.0000000000
  9
$TDUSRTIMER
 40
0.0000000000
  9
$USRTIMER
 70
     1
  9
$ANGBASE
 50
0.0
  9
$ANGDIR
 70
     0
  9
$PDMODE
 70
     2
  9
$PDSIZE
 40
-1.0
  9
$PLINEWID
 40
0.0
  9
$SPLFRAME
 70
     0
  9
$SPLINETYPE
 70
     6
  9
$SPLINESEGS
 70
     8
  9
$HANDSEED
  5
505
  9
$SURFTAB1
 70
     6
  9
$SURFTAB2
 70
     6
  9
$SURFTYPE
 70
     6
  9
$SURFU
 70
     6
  9
$SURFV
 70
     6
  9
$UCSBASE
  2

  9
$UCSNAME
  2

  9
$UCSORG
 10
0.0
 20
0.0
 30
0.0
  9
$UCSXDIR
 10
1.0
 20
0.0
 30
0.0
  9
$UCSYDIR
 10
0.0
 20
1.0
 30
0.0
  9
$UCSORTHOREF
  2

  9
$UCSORTHOVIEW
 70
     0
  9
$UCSORGTOP
 10
0.0
 20
0.0
 30
0.0
  9
$UCSORGBOTTOM
 10
0.0
 20
0.0
 30
0.0
  9
$UCSORGLEFT
 10
0.0
 20
0.0
 30
0.0
  9
$UCSORGRIGHT
 10
0.0
 20
0.0
 30
0.0
  9
$UCSORGFRONT
 10
0.0
 20
0.0
 30
0.0
  9
$UCSORGBACK
 10
0.0
 20
0.0
 30
0.0
  9
$PUCSBASE
  2

  9
$PUCSNAME
  2

  9
$PUCSORG
 10
0.0
 20
0.0
 30
0.0
  9
$PUCSXDIR
 10
1.0
 20
0.0
 30
0.0
  9
$PUCSYDIR
 10
0.0
 20
1.0
 30
0.0
  9
$PUCSORTHOREF
  2

  9
$PUCSORTHOVIEW
 70
     0
  9
$PUCSORGTOP
 10
0.0
 20
0.0
 30
0.0
  9
$PUCSORGBOTTOM
 10
0.0
 20
0.0
 30
0.0
  9
$PUCSORGLEFT
 10
0.0
 20
0.0
 30
0.0
  9
$PUCSORGRIGHT
 10
0.0
 20
0.0
 30
0.0
  9
$PUCSORGFRONT
 10
0.0
 20
0.0
 30
0.0
  9
$PUCSORGBACK
 10
0.0
 20
0.0
 30
0.0
  9
$USERI1
 70
     0
  9
$USERI2
 70
     0
  9
$USERI3
 70
     0
  9
$USERI4
 70
     0
  9
$USERI5
 70
     0
  9
$USERR1
 40
0.0
  9
$USERR2
 40
0.0
  9
$USERR3
 40
0.0
  9
$USERR4
 40
0.0
  9
$USERR5
 40
0.0
  9
$WORLDVIEW
 70
     1
  9
$SHADEDGE
 70
     3
  9
$SHADEDIF
 70
    70
  9
$TILEMODE
 70
     1
  9
$MAXACTVP
 70
    16
  9
$PINSBASE
 10
0.0
 20
0.0
 30
0.0
  9
$PLIMCHECK
 70
     0
  9
$PEXTMIN
 10
1.000000E+20
 20
1.000000E+20
 30
1.000000E+20
  9
$PEXTMAX
 10
-1.000000E+20
 20
-1.000000E+20
 30
-1.000000E+20
  9
$PLIMMIN
 10
0.0
 20
0.0
  9
$PLIMMAX
 10
12.0
 20
9.0
  9
$UNITMODE
 70
     0
  9
$VISRETAIN
 70
     0
  9
$PLINEGEN
 70
     1
  9
$PSLTSCALE
 70
     0
  9
$TREEDEPTH
 70
  3020
  9
$CMLSTYLE
  2
Standard
  9
$CMLJUST
 70
     0
  9
$CMLSCALE
 40
1.0
  9
$PROXYGRAPHICS
 70
     0
  9
$MEASUREMENT
 70
     0
  9
$CELWEIGHT
370
     0
  9
$ENDCAPS
280
     0
  9
$JOINSTYLE
280
     0
  9
$LWDISPLAY
290
     1
  9
$INSUNITS
 70
     0
  9
$HYPERLINKBASE
  1

  9
$STYLESHEET
  1

  9
$XEDIT
290
     1
  9
$CEPSNTYPE
380
     0
  9
$PSTYLEMODE
290
     1
  9
$FINGERPRINTGUID
  2

  9
$VERSIONGUID
  2

  9
$EXTNAMES
290
     1
  9
$PSVPSCALE
 40
0.0
  0
ENDSEC
  0
SECTION
  2
CLASSES
  0
CLASS
  1
LWPOLYLINE
  2
AcDbPolyline
  3
AutoCAD 2000
 90
        0
280
     0
281
     1
  0
CLASS
  1
IMAGE
  2
AcDbRasterImage
  3
ISM
 90
      127
280
     0
281
     1
  0
CLASS
  1
OLE2FRAME
  2
AcDbOle2Frame
  3
AutoCAD 2000
 90
        0
280
     0
281
     1
  0
CLASS
  1
HATCH
  2
AcDbHatch
  3
AutoCAD 2000
 90
        0
280
     0
281
     1
  0
CLASS
  1
DICTIONARYVAR
  2
AcDbDictionaryVar
  3
AutoCAD 2000
 90
        0
280
     0
281
     0
  0
CLASS
  1
RASTERVARIABLES
  2
AcDbRasterVariables
  3
ISM
 90
        0
280
     0
281
     0
  0
CLASS
  1
IMAGEDEF
  2
AcDbRasterImageDef
  3
ISM
 90
        0
280
     0
281
     0
  0
CLASS
  1
IMAGEDEF_REACTOR
  2
AcDbRasterImageDefReactor
  3
ISM
 90
        1
280
     0
281
     0
  0
CLASS
  1
IDBUFFER
  2
AcDbIdBuffer
  3
AutoCAD 2000
 90
        0
280
     0
281
     0
  0
CLASS
  1
SPATIAL_FILTER
  2
AcDbSpatialFilter
  3
AutoCAD 2000
 90
        0
280
     0
281
     0
  0
CLASS
  1
XRECORD
  2
AcDbXrecord
  3
AutoCAD 2000
 90
        0
280
     0
281
     0
  0
CLASS
  1
SORTENTSTABLE
  2
AcDbSortentsTable
  3
AutoCAD 2000
 90
        0
280
     0
281
     0
  0
CLASS
  1
LAYER_INDEX
  2
AcDbLayerIndex
  3
AutoCAD 2000
 90
        0
280
     0
281
     0
  0
CLASS
  1
SPATIAL_INDEX
  2
AcDbSpatialIndex
  3
AutoCAD 2000
 90
        0
280
     0
281
     0
  0
CLASS
  1
OBJECT_PTR
  2
CAseDLPNTableRecord
  3
"ASE-LPNTableRecord"
 90
        1
280
     0
281
     0
  0
CLASS
  1
LAYOUT
  2
AcDbLayout
  3
AutoCAD 2000
 90
        0
280
     0
281
     0
  0
CLASS
  1
PLOTSETTINGS
  2
AcDbPlotSettings
  3
AutoCAD 2000
 90
        0
280
     0
281
     0
  0
CLASS
  1
ACDBDICTIONARYWDFLT
  2
AcDbDictionaryWithDefault
  3
AutoCAD 2000
 90
        0
280
     0
281
     0
  0
CLASS
  1
ACDBPLACEHOLDER
  2
AcDbPlaceHolder
  3
AutoCAD 2000
 90
        0
280
     0
281
     0
  0
CLASS
  1
VBA_PROJECT
  2
AcDbVbaProject
  3
acadvba
 90
        0
280
     0
281
     0
  0
CLASS
  1
WIPEOUT
  2
AcDbWipeout
  3
WipeOut|AutoCAD Express Tool|expresstools@autodesk.com
 90
      127
280
     0
281
     1
  0
CLASS
  1
WIPEOUTVARIABLES
  2
AcDbWipeoutVariables
  3
WipeOut|AutoCAD Express Tool|expresstools@autodesk.com
 90
        0
280
     0
281
     0
  0
CLASS
  1
RTEXT
  2
RText
  3
RText|AutoCAD Express Tool|expresstools@autodesk.com
 90
        0
280
     0
281
     1
  0
CLASS
  1
ARCALIGNEDTEXT
  2
AcDbArcAlignedText
  3
ATEXT|AutoCAD Express Tool|expresstools@autodesk.com
 90
        0
280
     0
281
     1
  0
ENDSEC
  0
SECTION
  2
TABLES
  0
TABLE
  2
VPORT
  5
7
100
AcDbSymbolTable
 70
     2
  0
VPORT
  5
15
100
AcDbSymbolTableRecord
100
AcDbViewportTableRecord
  2
*ACTIVE
 70
     0
 10
0.0
 20
0.0
 11
1.0
 21
1.0
 12
6.591288
 22
4.579184
 13
0.0
 23
0.0
 14
1.0
 24
1.0
 15
0.0
 25
0.0
 16
0.0
 26
0.0
 36
1.0
 17
0.0
 27
0.0
 37
0.0
 40
9.158369
 41
0.688564
 42
50.0
 43
0.0
 44
0.0
 50
0.0
 51
0.0
 71
     0
 72
   100
 73
     1
 74
     1
 75
     0
 76
     0
 77
     0
 78
     0
281
     0
 65
     0
110
0.0
120
0.0
130
0.0
111
1.0
121
0.0
131
0.0
112
0.0
122
1.0
132
0.0
345
0
346
0
 79
     0
146
0.0
  0
VPORT
  5
504
100
AcDbSymbolTableRecord
100
AcDbViewportTableRecord
  2
MYVPORT
 70
     0
 10
0.0
 20
0.0
 11
1.0
 21
1.0
 12
6.21
 22
9.02
 13
0.0
 23
0.0
 14
1.0
 24
1.0
 15
0.0
 25
0.0
 16
0.0
 26
0.0
 36
1.0
 17
0.0
 27
0.0
 37
0.0
 40
18.04
 41
0.688564
 42
50.0
 43
0.0
 44
0.0
 50
0.0
 51
0.0
 71
     0
 72
   100
 73
     1
 74
     1
 75
     0
 76
     0
 77
     0
 78
     0
281
     0
 65
     0
110
0.0
120
0.0
130
0.0
111
1.0
121
0.0
131
0.0
112
0.0
122
1.0
132
0.0
345
0
346
0
 79
     0
146
0.0
  0
ENDTAB
  0
TABLE
  2
LTYPE
  5
4
100
AcDbSymbolTable
 70
     5
  0
LTYPE
  5
11
100
AcDbSymbolTableRecord
100
AcDbLinetypeTableRecord
  2
ByBlock
 70
    64
  3

 72
    65
 73
     0
 40
0.0
  0
LTYPE
  5
12
100
AcDbSymbolTableRecord
100
AcDbLinetypeTableRecord
  2
ByLayer
 70
    64
  3

 72
    65
 73
     0
 40
0.0
  0
LTYPE
  5
13
100
AcDbSymbolTableRecord
100
AcDbLinetypeTableRecord
  2
Continuous
 70
    64
  3
Solid line
 72
    65
 73
     0
 40
0.0
  0
LTYPE
  5
CB
100
AcDbSymbolTableRecord
100
AcDbLinetypeTableRecord
  2
DIVIDE
 70
    64
  3
Visual CADD Translation
 72
    65
 73
     6
 40
1.0
 49
0.6
 74
     0
 49
-0.133
 74
     0
 49
0.0
 74
     0
 49
-0.134
 74
     0
 49
0.0
 74
     0
 49
-0.133
 74
     0
  0
LTYPE
  5
EA
100
AcDbSymbolTableRecord
100
AcDbLinetypeTableRecord
  2
CL____X1
 70
    64
  3
Visual CADD Translation
 72
    65
 73
     4
 40
1.33
 49
0.05
 74
     0
 49
-0.05
 74
     0
 49
1.18
 74
     0
 49
-0.05
 74
     0
  0
ENDTAB
  0
TABLE
  2
LAYER
  5
2
100
AcDbSymbolTable
 70
    74
  0
LAYER
  5
14
100
AcDbSymbolTableRecord
100
AcDbLayerTableRecord
  2
0
 70
     0
 62
     7
  6
Continuous
290
     1
370
    -3
390
1D
  0
LAYER
  5
24
100
AcDbSymbolTableRecord
100
AcDbLayerTableRecord
  2
HEX_BODY
 70
     0
 62
     7
  6
Continuous
290
     1
370
    -3
390
1D
  0
LAYER
  5
25
100
AcDbSymbolTableRecord
100
AcDbLayerTableRecord
  2
CENTRE_LINES
 70
     0
 62
     7
  6
Continuous
290
     1
370
    -3
390
1D
  0
LAYER
  5
26
100
AcDbSymbolTableRecord
100
AcDbLayerTableRecord
  2
TEXT
 70
     0
 62
     7
  6
Continuous
290
     1
370
    -3
390
1D
  0
LAYER
  5
27
100
AcDbSymbolTableRecord
100
AcDbLayerTableRecord
  2
SEAL_RETAINER
 70
     0
 62
     7
  6
Continuous
290
     1
370
    -3
390
1D
  0
LAYER
  5
28
100
AcDbSymbolTableRecord
100
AcDbLayerTableRecord
  2
PISTON_ROD
 70
     0
 62
     7
  6
Continuous
290
     1
370
    -3
390
1D
  0
LAYER
  5
29
100
AcDbSymbolTableRecord
100
AcDbLayerTableRecord
  2
END_CAP
 70
     0
 62
     7
  6
Continuous
290
     1
370
    -3
390
1D
  0
LAYER
  5
2A
100
AcDbSymbolTableRecord
100
AcDbLayerTableRecord
  2
128-001_FEATURES
 70
     0
 62
     7
  6
Continuous
290
     1
370
    -3
390
1D
  0
LAYER
  5
2B
100
AcDbSymbolTableRecord
100
AcDbLayerTableRecord
  2
127-001_FEATURES
 70
     0
 62
     7
  6
Continuous
290
     1
370
    -3
390
1D
  0
LAYER
  5
2C
100
AcDbSymbolTableRecord
100
AcDbLayerTableRecord
  2
127-001_REF_GEOMETRY
 70
     0
 62
     7
  6
Continuous
290
     1
370
    -3
390
1D
  0
LAYER
  5
2D
100
AcDbSymbolTableRecord
100
AcDbLayerTableRecord
  2
127-004_FEATURES
 70
     0
 62
     7
  6
Continuous
290
     1
370
    -3
390
1D
  0
LAYER
  5
2E
100
AcDbSymbolTableRecord
100
AcDbLayerTableRecord
  2
HATCH
 70
     0
 62
     7
  6
Continuous
290
     1
370
    -3
390
1D
  0
LAYER
  5
2F
100
AcDbSymbolTableRecord
100
AcDbLayerTableRecord
  2
127-008_FEATURES
 70
     0
 62
     7
  6
Continuous
290
     1
370
    -3
390
1D
  0
LAYER
  5
30
100
AcDbSymbolTableRecord
100
AcDbLayerTableRecord
  2
127-008_REF_GEOMETRY
 70
     0
 62
     7
  6
Continuous
290
     1
370
    -3
390
1D
  0
LAYER
  5
31
100
AcDbSymbolTableRecord
100
AcDbLayerTableRecord
  2
127-410_FEATURES
 70
     0
 62
     7
  6
Continuous
290
     1
370
    -3
390
1D
  0
LAYER
  5
32
100
AcDbSymbolTableRecord
100
AcDbLayerTableRecord
  2
127-410_REF_GEOMETRY
 70
     0
 62
     7
  6
Continuous
290
     1
370
    -3
390
1D
  0
LAYER
  5
33
100
AcDbSymbolTableRecord
100
AcDbLayerTableRecord
  2
127-411_FEATURES
 70
     0
 62
     7
  6
Continuous
290
     1
370
    -3
390
1D
  0
LAYER
  5
34
100
AcDbSymbolTableRecord
100
AcDbLayerTableRecord
  2
127-411_REF_GEOMETRY
 70
     0
 62
     7
  6
Continuous
290
     1
370
    -3
390
1D
  0
LAYER
  5
35
100
AcDbSymbolTableRecord
100
AcDbLayerTableRecord
  2
127-412_FEATURES
 70
     0
 62
     7
  6
Continuous
290
     1
370
    -3
390
1D
  0
LAYER
  5
36
100
AcDbSymbolTableRecord
100
AcDbLayerTableRecord
  2
127-412_REF_GEOMETRY
 70
     0
 62
     7
  6
Continuous
290
     1
370
    -3
390
1D
  0
LAYER
  5
37
100
AcDbSymbolTableRecord
100
AcDbLayerTableRecord
  2
127-413_FEATURES
 70
     0
 62
     7
  6
Continuous
290
     1
370
    -3
390
1D
  0
LAYER
  5
38
100
AcDbSymbolTableRecord
100
AcDbLayerTableRecord
  2
127-413_REF_GEOMETRY
 70
     0
 62
     7
  6
Continuous
290
     1
370
    -3
390
1D
  0
LAYER
  5
39
100
AcDbSymbolTableRecord
100
AcDbLayerTableRecord
  2
127-414_FEATURES
 70
     0
 62
     7
  6
Continuous
290
     1
370
    -3
390
1D
  0
LAYER
  5
3A
100
AcDbSymbolTableRecord
100
AcDbLayerTableRecord
  2
127-414_REF_GEOMETRY
 70
     0
 62
     7
  6
Continuous
290
     1
370
    -3
390
1D
  0
LAYER
  5
3B
100
AcDbSymbolTableRecord
100
AcDbLayerTableRecord
  2
127-415_FEATURES
 70
     0
 62
     7
  6
Continuous
290
     1
370
    -3
390
1D
  0
LAYER
  5
3C
100
AcDbSymbolTableRecord
100
AcDbLayerTableRecord
  2
127-415_REF_GEOMETRY
 70
     0
 62
     7
  6
Continuous
290
     1
370
    -3
390
1D
  0
LAYER
  5
3D
100
AcDbSymbolTableRecord
100
AcDbLayerTableRecord
  2
127-416_FEATURES
 70
     0
 62
     7
  6
Continuous
290
     1
370
    -3
390
1D
  0
LAYER
  5
3E
100
AcDbSymbolTableRecord
100
AcDbLayerTableRecord
  2
127-416_REF_GEOMETRY
 70
     0
 62
     7
  6
Continuous
290
     1
370
    -3
390
1D
  0
LAYER
  5
3F
100
AcDbSymbolTableRecord
100
AcDbLayerTableRecord
  2
128-407_REF_GEOMETRY
 70
     0
 62
     7
  6
Continuous
290
     1
370
    -3
390
1D
  0
LAYER
  5
40
100
AcDbSymbolTableRecord
100
AcDbLayerTableRecord
  2
128-408_FEATURES
 70
     0
 62
     7
  6
Continuous
290
     1
370
    -3
390
1D
  0
LAYER
  5
41
100
AcDbSymbolTableRecord
100
AcDbLayerTableRecord
  2
128-408_REF_GEOMETRY
 70
     0
 62
     7
  6
Continuous
290
     1
370
    -3
390
1D
  0
LAYER
  5
42
100
AcDbSymbolTableRecord
100
AcDbLayerTableRecord
  2
250-19_BSPP_PORT_PER_S-186
 70
     0
 62
     7
  6
Continuous
290
     1
370
    -3
390
1D
  0
LAYER
  5
43
100
AcDbSymbolTableRecord
100
AcDbLayerTableRecord
  2
DIMENSIONS
 70
     0
 62
     7
  6
Continuous
290
     1
370
    -3
390
1D
  0
LAYER
  5
44
100
AcDbSymbolTableRecord
100
AcDbLayerTableRecord
  2
DRAFTITEMS
 70
     0
 62
     7
  6
Continuous
290
     1
370
    -3
390
1D
  0
LAYER
  5
45
100
AcDbSymbolTableRecord
100
AcDbLayerTableRecord
  2
DRAWINGNOTES
 70
     0
 62
     7
  6
Continuous
290
     1
370
    -3
390
1D
  0
LAYER
  5
46
100
AcDbSymbolTableRecord
100
AcDbLayerTableRecord
  2
DRIVENDIMENSIONS
 70
     0
 62
     7
  6
Continuous
290
     1
370
    -3
390
1D
  0
LAYER
  5
47
100
AcDbSymbolTableRecord
100
AcDbLayerTableRecord
  2
DTM230
 70
     0
 62
     7
  6
Continuous
290
     1
370
    -3
390
1D
  0
LAYER
  5
48
100
AcDbSymbolTableRecord
100
AcDbLayerTableRecord
  2
GEOMETRICTOLERANCES
 70
     0
 62
     7
  6
Continuous
290
     1
370
    -3
390
1D
  0
LAYER
  5
49
100
AcDbSymbolTableRecord
100
AcDbLayerTableRecord
  2
PARAMETERDIMENSIONS
 70
     0
 62
     7
  6
Continuous
290
     1
370
    -3
390
1D
  0
LAYER
  5
4A
100
AcDbSymbolTableRecord
100
AcDbLayerTableRecord
  2
PLANE
 70
     0
 62
     7
  6
Continuous
290
     1
370
    -3
390
1D
  0
LAYER
  5
4B
100
AcDbSymbolTableRecord
100
AcDbLayerTableRecord
  2
SYMBOLS
 70
     0
 62
     7
  6
Continuous
290
     1
370
    -3
390
1D
  0
LAYER
  5
4C
100
AcDbSymbolTableRecord
100
AcDbLayerTableRecord
  2
AXIS
 70
     0
 62
     7
  6
Continuous
290
     1
370
    -3
390
1D
  0
LAYER
  5
4D
100
AcDbSymbolTableRecord
100
AcDbLayerTableRecord
  2
CHAMFERS
 70
     0
 62
     7
  6
Continuous
290
     1
370
    -3
390
1D
  0
LAYER
  5
4E
100
AcDbSymbolTableRecord
100
AcDbLayerTableRecord
  2
COORD_SYS
 70
     0
 62
     7
  6
Continuous
290
     1
370
    -3
390
1D
  0
LAYER
  5
4F
100
AcDbSymbolTableRecord
100
AcDbLayerTableRecord
  2
CORN_CHAMFERS
 70
     0
 62
     7
  6
Continuous
290
     1
370
    -3
390
1D
  0
LAYER
  5
50
100
AcDbSymbolTableRecord
100
AcDbLayerTableRecord
  2
COSMESTIC
 70
     0
 62
     7
  6
Continuous
290
     1
370
    -3
390
1D
  0
LAYER
  5
51
100
AcDbSymbolTableRecord
100
AcDbLayerTableRecord
  2
CURVE
 70
     0
 62
     7
  6
Continuous
290
     1
370
    -3
390
1D
  0
LAYER
  5
52
100
AcDbSymbolTableRecord
100
AcDbLayerTableRecord
  2
COSMETIC
 70
     0
 62
     7
  6
Continuous
290
     1
370
    -3
390
1D
  0
LAYER
  5
53
100
AcDbSymbolTableRecord
100
AcDbLayerTableRecord
  2
CURVES
 70
     0
 62
     7
  6
Continuous
290
     1
370
    -3
390
1D
  0
LAYER
  5
54
100
AcDbSymbolTableRecord
100
AcDbLayerTableRecord
  2
DATUMCURVES
 70
     0
 62
     7
  6
Continuous
290
     1
370
    -3
390
1D
  0
LAYER
  5
55
100
AcDbSymbolTableRecord
100
AcDbLayerTableRecord
  2
DATUM_PLANES
 70
     0
 62
     7
  6
Continuous
290
     1
370
    -3
390
1D
  0
LAYER
  5
56
100
AcDbSymbolTableRecord
100
AcDbLayerTableRecord
  2
DTM
 70
     0
 62
     7
  6
Continuous
290
     1
370
    -3
390
1D
  0
LAYER
  5
57
100
AcDbSymbolTableRecord
100
AcDbLayerTableRecord
  2
DTM_500001
 70
     0
 62
     7
  6
Continuous
290
     1
370
    -3
390
1D
  0
LAYER
  5
58
100
AcDbSymbolTableRecord
100
AcDbLayerTableRecord
  2
DTM_515002
 70
     0
 62
     7
  6
Continuous
290
     1
370
    -3
390
1D
  0
LAYER
  5
59
100
AcDbSymbolTableRecord
100
AcDbLayerTableRecord
  2
DTM_SPRING_RH
 70
     0
 62
     7
  6
Continuous
290
     1
370
    -3
390
1D
  0
LAYER
  5
5A
100
AcDbSymbolTableRecord
100
AcDbLayerTableRecord
  2
DTM_SP_RH_CONSTR
 70
     0
 62
     7
  6
Continuous
290
     1
370
    -3
390
1D
  0
LAYER
  5
5B
100
AcDbSymbolTableRecord
100
AcDbLayerTableRecord
  2
SUN_SAE-4_PORT
 70
     0
 62
     7
  6
Continuous
290
     1
370
    -3
390
1D
  0
LAYER
  5
5C
100
AcDbSymbolTableRecord
100
AcDbLayerTableRecord
  2
THREAD
 70
     0
 62
     7
  6
Continuous
290
     1
370
    -3
390
1D
  0
LAYER
  5
5D
100
AcDbSymbolTableRecord
100
AcDbLayerTableRecord
  2
S-164_NPTF_PORT
 70
     0
 62
     7
  6
Continuous
290
     1
370
    -3
390
1D
  0
LAYER
  5
5E
100
AcDbSymbolTableRecord
100
AcDbLayerTableRecord
  2
SUN_STD_SAE-4_PORT
 70
     0
 62
     7
  6
Continuous
290
     1
370
    -3
390
1D
  0
LAYER
  5
5F
100
AcDbSymbolTableRecord
100
AcDbLayerTableRecord
  2
XSEC_DATUMS
 70
     0
 62
     7
  6
Continuous
290
     1
370
    -3
390
1D
  0
LAYER
  5
60
100
AcDbSymbolTableRecord
100
AcDbLayerTableRecord
  2
HOLES
 70
     0
 62
     7
  6
Continuous
290
     1
370
    -3
390
1D
  0
LAYER
  5
61
100
AcDbSymbolTableRecord
100
AcDbLayerTableRecord
  2
LAY0001
 70
     0
 62
     7
  6
Continuous
290
     1
370
    -3
390
1D
  0
LAYER
  5
62
100
AcDbSymbolTableRecord
100
AcDbLayerTableRecord
  2
LAY0002
 70
     0
 62
     7
  6
Continuous
290
     1
370
    -3
390
1D
  0
LAYER
  5
63
100
AcDbSymbolTableRecord
100
AcDbLayerTableRecord
  2
NOTE
 70
     0
 62
     7
  6
Continuous
290
     1
370
    -3
390
1D
  0
LAYER
  5
64
100
AcDbSymbolTableRecord
100
AcDbLayerTableRecord
  2
REFDIM
 70
     0
 62
     7
  6
Continuous
290
     1
370
    -3
390
1D
  0
LAYER
  5
65
100
AcDbSymbolTableRecord
100
AcDbLayerTableRecord
  2
ROUNDS
 70
     0
 62
     7
  6
Continuous
290
     1
370
    -3
390
1D
  0
LAYER
  5
66
100
AcDbSymbolTableRecord
100
AcDbLayerTableRecord
  2
SHELLS
 70
     0
 62
     7
  6
Continuous
290
     1
370
    -3
390
1D
  0
LAYER
  5
67
100
AcDbSymbolTableRecord
100
AcDbLayerTableRecord
  2
SKELETON_GEOM
 70
     0
 62
     7
  6
Continuous
290
     1
370
    -3
390
1D
  0
LAYER
  5
68
100
AcDbSymbolTableRecord
100
AcDbLayerTableRecord
  2
STD_SAE-4_PORT
 70
     0
 62
     7
  6
Continuous
290
     1
370
    -3
390
1D
  0
LAYER
  5
69
100
AcDbSymbolTableRecord
100
AcDbLayerTableRecord
  2
STD_SAE-6_PORT
 70
     0
 62
     7
  6
Continuous
290
     1
370
    -3
390
1D
  0
LAYER
  5
6A
100
AcDbSymbolTableRecord
100
AcDbLayerTableRecord
  2
SURFACE_FEAT
 70
     0
 62
     7
  6
Continuous
290
     1
370
    -3
390
1D
  0
LAYER
  5
6B
100
AcDbSymbolTableRecord
100
AcDbLayerTableRecord
  2
T-8A_CAVITY
 70
     0
 62
     7
  6
Continuous
290
     1
370
    -3
390
1D
  0
LAYER
  5
6C
100
AcDbSymbolTableRecord
100
AcDbLayerTableRecord
  2
T-8A_CAVITY_REF_GEOMETRY
 70
     0
 62
     7
  6
Continuous
290
     1
370
    -3
390
1D
  0
ENDTAB
  0
TABLE
  2
STYLE
  5
3
100
AcDbSymbolTable
 70
     2
  0
STYLE
  5
17
100
AcDbSymbolTableRecord
100
AcDbTextStyleTableRecord
  2
Standard
 70
     0
 40
0.0
 41
1.0
 50
0.0
 71
     0
 42
0.0
  3
txt
  4

  0
STYLE
  5
74
100
AcDbSymbolTableRecord
100
AcDbTextStyleTableRecord
  2
Vcadd_SIMP
 70
     0
 40
0.0
 41
1.0
 50
0.0
 71
     0
 42
0.0
  3
SIMP
  4

  0
ENDTAB
  0
TABLE
  2
VIEW
  5
5
100
AcDbSymbolTable
 70
     0
  0
ENDTAB
  0
TABLE
  2
UCS
  5
6
100
AcDbSymbolTable
 70
     1
  0
UCS
  5
503
100
AcDbSymbolTableRecord
100
AcDbUCSTableRecord
  2
MYUCS
 70
     0
 10
0.0
 20
0.0
 30
0.0
 11
0.0
 21
1.0
 31
0.0
 12
0.0
 22
0.0
 32
1.0
 79
     0
146
0.0
  0
ENDTAB
  0
TABLE
  2
APPID
  5
8
100
AcDbSymbolTable
 70
     1
  0
APPID
  5
16
100
AcDbSymbolTableRecord
100
AcDbRegAppTableRecord
  2
ACAD
 70
     0
  0
ENDTAB
  0
TABLE
  2
DIMSTYLE
  5
9
100
AcDbSymbolTable
 70
     2
100
AcDbDimStyleTable
 71
     0
  0
DIMSTYLE
105
18
100
AcDbSymbolTableRecord
100
AcDbDimStyleTableRecord
  2
Standard
 70
     0
  3

  4

 40
1.0
 41
0.18
 42
0.0625
 43
0.38
 44
0.18
 45
0.0
 46
0.0
 47
0.0
 48
0.0
 71
     0
 72
     0
 73
     1
 74
     1
 75
     0
 76
     0
 77
     0
 78
     0
 79
     0
140
0.18
141
0.09
142
0.0
143
25.4
144
1.0
145
0.0
146
1.0
147
0.09
148
0.0
170
     0
171
     2
172
     0
173
     0
174
     0
175
     0
176
     0
177
     0
178
     0
179
     0
271
     4
272
     4
273
     2
274
     2
275
     0
276
     0
277
     2
278
    46
279
     0
280
     0
281
     0
282
     0
283
     1
284
     0
285
     0
286
     0
288
     0
289
     3
340
17
341
0
342
0
343
0
344
0
371
    -2
372
    -2
  0
DIMSTYLE
105
75
100
AcDbSymbolTableRecord
100
AcDbDimStyleTableRecord
  2
VCADD_DIMSTYLE
 70
     0
  3

  4

 40
1.0
 41
0.188
 42
0.0
 43
0.0
 44
0.0
 45
0.0
 46
0.0
 47
0.0
 48
0.0
 71
     0
 72
     0
 73
     1
 74
     1
 75
     0
 76
     0
 77
     0
 78
     3
 79
     1
140
0.142
141
0.0
142
0.0
143
1.0
144
1.0
145
0.0
146
1.0
147
0.5
148
0.0
170
     0
171
     3
172
     0
173
     0
174
     1
175
     0
176
     1
177
     1
178
     7
179
     3
271
     3
272
     4
273
     2
274
     2
275
     0
276
     0
277
     2
278
    46
279
     0
280
     0
281
     0
282
     0
283
     1
284
     0
285
     0
286
     0
288
     0
289
     3
340
74
341
0
342
0
343
0
344
0
371
    -2
372
    -2
  0
ENDTAB
  0
TABLE
  2
BLOCK_RECORD
  5
1
100
AcDbSymbolTable
 70
     7
  0
BLOCK_RECORD
  5
A
100
AcDbSymbolTableRecord
100
AcDbBlockTableRecord
  2
*MODEL_SPACE
340
20
  0
BLOCK_RECORD
  5
B
100
AcDbSymbolTableRecord
100
AcDbBlockTableRecord
  2
*PAPER_SPACE
340
21
  0
BLOCK_RECORD
  5
6D
100
AcDbSymbolTableRecord
100
AcDbBlockTableRecord
  2
_CLOSED
340
0
  0
BLOCK_RECORD
  5
A1
100
AcDbSymbolTableRecord
100
AcDbBlockTableRecord
  2
MAU
340
0
102
{BLKREFS
331
AE
331
BF
102
}
  0
BLOCK_RECORD
  5
B0
100
AcDbSymbolTableRecord
100
AcDbBlockTableRecord
  2
MAL
340
0
102
{BLKREFS
331
BD
102
}
  0
BLOCK_RECORD
  5
1E6
100
AcDbSymbolTableRecord
100
AcDbBlockTableRecord
  2
DELTA
340
0
102
{BLKREFS
331
1ED
331
386
102
}
  0
BLOCK_RECORD
  5
23E
100
AcDbSymbolTableRecord
100
AcDbBlockTableRecord
  2
ARROW
340
0
102
{BLKREFS
331
25D
331
25E
331
25F
331
260
331
261
331
262
331
263
331
264
331
265
331
266
331
267
331
268
331
269
331
26A
331
26B
331
26C
331
26D
331
26E
331
26F
331
270
331
271
331
272
331
273
331
274
331
275
331
276
331
277
331
278
331
279
331
27A
331
27B
331
27C
331
471
331
48D
331
4A0
331
4DA
331
4E3
331
4E4
102
}
  0
BLOCK_RECORD
  5
2D2
100
AcDbSymbolTableRecord
100
AcDbBlockTableRecord
  2
LOGOFIX
340
0
102
{BLKREFS
331
356
102
}
  0
BLOCK_RECORD
  5
4F3
100
AcDbSymbolTableRecord
100
AcDbBlockTableRecord
  2
STAR
340
0
102
{BLKREFS
331
500
331
501
331
502
102
}
  0
ENDTAB
  0
ENDSEC
  0
SECTION
  2
BLOCKS
  0
BLOCK
  5
D
100
AcDbEntity
  8
0
390
0
100
AcDbBlockBegin
  2
*MODEL_SPACE
 70
     0
 10
0.0
 20
0.0
 30
0.0
  3
*MODEL_SPACE
  1

  0
ENDBLK
  5
E
100
AcDbEntity
  8
0
390
0
100
AcDbBlockEnd
  0
BLOCK
  5
F
100
AcDbEntity
 67
     1
  8
0
390
0
100
AcDbBlockBegin
  2
*PAPER_SPACE
 70
     0
 10
0.0
 20
0.0
 30
0.0
  3
*PAPER_SPACE
  1

  0
ENDBLK
  5
10
100
AcDbEntity
 67
     1
  8
0
390
0
100
AcDbBlockEnd
  0
BLOCK
  5
6E
100
AcDbEntity
  8
0
390
0
100
AcDbBlockBegin
  2
_CLOSED
 70
     0
 10
0.0
 20
0.0
 30
0.0
  3
_CLOSED
  1

  0
LINE
  5
6F
100
AcDbEntity
  8
0
370
    -2
390
0
  6
ByBlock
 62
     0
100
AcDbLine
 10
-1.0
 20
0.166667
 30
0.0
 11
0.0
 21
0.0
 31
0.0
  0
LINE
  5
70
100
AcDbEntity
  8
0
370
    -2
390
0
  6
ByBlock
 62
     0
100
AcDbLine
 10
0.0
 20
0.0
 30
0.0
 11
-1.0
 21
-0.166667
 31
0.0
  0
LINE
  5
71
100
AcDbEntity
  8
0
370
    -2
390
0
  6
ByBlock
 62
     0
100
AcDbLine
 10
-1.0
 20
0.166667
 30
0.0
 11
-1.0
 21
-0.166667
 31
0.0
  0
LINE
  5
72
100
AcDbEntity
  8
0
370
    -2
390
0
  6
ByBlock
 62
     0
100
AcDbLine
 10
0.0
 20
0.0
 30
0.0
 11
-1.0
 21
0.0
 31
0.0
  0
ENDBLK
  5
73
100
AcDbEntity
  8
0
390
0
100
AcDbBlockEnd
  0
BLOCK
  5
A2
100
AcDbEntity
  8
0
390
0
100
AcDbBlockBegin
  2
MAU
 70
     0
 10
0.0
 20
0.0
 30
0.0
  3
MAU
  1

  0
LINE
  5
A3
100
AcDbEntity
  8
0
370
     0
390
0
  6
Continuous
 62
     2
100
AcDbLine
 10
0.0
 20
0.0
 30
0.0
 11
-0.024965
 21
-0.169856
 31
0.0
  0
LINE
  5
A4
100
AcDbEntity
  8
0
370
     0
390
0
  6
Continuous
 62
     2
100
AcDbLine
 10
0.0
 20
0.0
 30
0.0
 11
0.022192
 21
-0.169856
 31
0.0
  0
LINE
  5
A5
100
AcDbEntity
  8
0
370
     0
390
0
  6
Continuous
 62
     2
100
AcDbLine
 10
0.022192
 20
-0.169856
 30
0.0
 11
-0.024965
 21
-0.169856
 31
0.0
  0
LINE
  5
A6
100
AcDbEntity
  8
0
370
     0
390
0
  6
Continuous
 62
     7
100
AcDbLine
 10
-0.015773
 20
-0.160825
 30
0.0
 11
0.013481
 21
-0.160825
 31
0.0
  0
LINE
  5
A7
100
AcDbEntity
  8
0
370
     0
390
0
  6
Continuous
 62
     7
100
AcDbLine
 10
0.013481
 20
-0.160825
 30
0.0
 11
-0.000196
 21
-0.036413
 31
0.0
  0
LINE
  5
A8
100
AcDbEntity
  8
0
370
     0
390
0
  6
Continuous
 62
     7
100
AcDbLine
 10
-0.015773
 20
-0.160825
 30
0.0
 11
-0.000196
 21
-0.036413
 31
0.0
  0
LINE
  5
A9
100
AcDbEntity
  8
0
370
     0
390
0
  6
Continuous
 62
     7
100
AcDbLine
 10
-0.006656
 20
-0.149436
 30
0.0
 11
-0.000576
 21
-0.078031
 31
0.0
  0
LINE
  5
AA
100
AcDbEntity
  8
0
370
     0
390
0
  6
Continuous
 62
     7
100
AcDbLine
 10
-0.006656
 20
-0.149436
 30
0.0
 11
0.005122
 21
-0.149436
 31
0.0
  0
LINE
  5
AB
100
AcDbEntity
  8
0
370
     0
390
0
  6
Continuous
 62
     7
100
AcDbLine
 10
0.005122
 20
-0.149436
 30
0.0
 11
-0.000576
 21
-0.078031
 31
0.0
  0
LINE
  5
AC
100
AcDbEntity
  8
0
370
     0
390
0
  6
Continuous
 62
     7
100
AcDbLine
 10
-0.000957
 20
-0.142427
 30
0.0
 11
-0.000957
 21
-0.119647
 31
0.0
  0
ENDBLK
  5
AD
100
AcDbEntity
  8
0
390
0
100
AcDbBlockEnd
  0
BLOCK
  5
B1
100
AcDbEntity
  8
0
390
0
100
AcDbBlockBegin
  2
MAL
 70
     0
 10
0.0
 20
0.0
 30
0.0
  3
MAL
  1

  0
LINE
  5
B2
100
AcDbEntity
  8
0
370
     0
390
0
  6
Continuous
 62
     2
100
AcDbLine
 10
0.0
 20
0.0
 30
0.0
 11
0.169856
 21
0.024965
 31
0.0
  0
LINE
  5
B3
100
AcDbEntity
  8
0
370
     0
390
0
  6
Continuous
 62
     2
100
AcDbLine
 10
0.0
 20
0.0
 30
0.0
 11
0.169856
 21
-0.022192
 31
0.0
  0
LINE
  5
B4
100
AcDbEntity
  8
0
370
     0
390
0
  6
Continuous
 62
     2
100
AcDbLine
 10
0.169856
 20
-0.022192
 30
0.0
 11
0.169856
 21
0.024965
 31
0.0
  0
LINE
  5
B5
100
AcDbEntity
  8
0
370
     0
390
0
  6
Continuous
 62
     7
100
AcDbLine
 10
0.160825
 20
0.015773
 30
0.0
 11
0.160825
 21
-0.013481
 31
0.0
  0
LINE
  5
B6
100
AcDbEntity
  8
0
370
     0
390
0
  6
Continuous
 62
     7
100
AcDbLine
 10
0.160825
 20
-0.013481
 30
0.0
 11
0.036413
 21
0.000196
 31
0.0
  0
LINE
  5
B7
100
AcDbEntity
  8
0
370
     0
390
0
  6
Continuous
 62
     7
100
AcDbLine
 10
0.160825
 20
0.015773
 30
0.0
 11
0.036413
 21
0.000196
 31
0.0
  0
LINE
  5
B8
100
AcDbEntity
  8
0
370
     0
390
0
  6
Continuous
 62
     7
100
AcDbLine
 10
0.149436
 20
0.006656
 30
0.0
 11
0.078031
 21
0.000576
 31
0.0
  0
LINE
  5
B9
100
AcDbEntity
  8
0
370
     0
390
0
  6
Continuous
 62
     7
100
AcDbLine
 10
0.149436
 20
0.006656
 30
0.0
 11
0.149436
 21
-0.005122
 31
0.0
  0
LINE
  5
BA
100
AcDbEntity
  8
0
370
     0
390
0
  6
Continuous
 62
     7
100
AcDbLine
 10
0.149436
 20
-0.005122
 30
0.0
 11
0.078031
 21
0.000576
 31
0.0
  0
LINE
  5
BB
100
AcDbEntity
  8
0
370
     0
390
0
  6
Continuous
 62
     7
100
AcDbLine
 10
0.142427
 20
0.000957
 30
0.0
 11
0.119647
 21
0.000957
 31
0.0
  0
ENDBLK
  5
BC
100
AcDbEntity
  8
0
390
0
100
AcDbBlockEnd
  0
BLOCK
  5
1E7
100
AcDbEntity
  8
0
390
0
100
AcDbBlockBegin
  2
DELTA
 70
     0
 10
0.0
 20
0.0
 30
0.0
  3
DELTA
  1

  0
TEXT
  5
1E8
100
AcDbEntity
  8
SEAL_RETAINER
370
     0
390
0
  6
Continuous
 62
     7
100
AcDbText
 10
0.010246
 20
0.0
 30
0.0
 40
0.142
  1
 
  7
Vcadd_SIMP
100
AcDbText
  0
LINE
  5
1E9
100
AcDbEntity
  8
SEAL_RETAINER
370
     0
390
0
  6
Continuous
 62
     7
100
AcDbLine
 10
0.0
 20
0.0
 30
0.0
 11
0.07257
 21
0.125694
 31
0.0
  0
LINE
  5
1EA
100
AcDbEntity
  8
SEAL_RETAINER
370
     0
390
0
  6
Continuous
 62
     7
100
AcDbLine
 10
0.145139
 20
0.0
 30
0.0
 11
0.07257
 21
0.125694
 31
0.0
  0
LINE
  5
1EB
100
AcDbEntity
  8
SEAL_RETAINER
370
     0
390
0
  6
Continuous
 62
     7
100
AcDbLine
 10
0.0
 20
0.0
 30
0.0
 11
0.145139
 21
0.0
 31
0.0
  0
ENDBLK
  5
1EC
100
AcDbEntity
  8
0
390
0
100
AcDbBlockEnd
  0
BLOCK
  5
23F
100
AcDbEntity
  8
0
390
0
100
AcDbBlockBegin
  2
ARROW
 70
     0
 10
0.0
 20
0.0
 30
0.0
  3
ARROW
  1

  0
LINE
  5
240
100
AcDbEntity
  8
127-001_FEATURES
370
     0
390
0
  6
Continuous
 62
     7
100
AcDbLine
 10
0.0
 20
0.0
 30
0.0
 11
-0.160849
 21
-0.035462
 31
0.0
  0
LINE
  5
241
100
AcDbEntity
  8
127-001_FEATURES
370
     0
390
0
  6
Continuous
 62
     7
100
AcDbLine
 10
0.0
 20
0.0
 30
0.0
 11
-0.160849
 21
0.031523
 31
0.0
  0
LINE
  5
242
100
AcDbEntity
  8
127-001_FEATURES
370
     0
390
0
  6
Continuous
 62
     7
100
AcDbLine
 10
-0.160849
 20
0.031523
 30
0.0
 11
-0.160849
 21
-0.035462
 31
0.0
  0
LINE
  5
243
100
AcDbEntity
  8
127-001_FEATURES
370
     0
390
0
  6
Continuous
 62
     7
100
AcDbLine
 10
-0.152297
 20
-0.022405
 30
0.0
 11
-0.152297
 21
0.019149
 31
0.0
  0
LINE
  5
244
100
AcDbEntity
  8
127-001_FEATURES
370
     0
390
0
  6
Continuous
 62
     7
100
AcDbLine
 10
-0.152297
 20
0.019149
 30
0.0
 11
-0.034483
 21
-0.000279
 31
0.0
  0
LINE
  5
245
100
AcDbEntity
  8
127-001_FEATURES
370
     0
390
0
  6
Continuous
 62
     7
100
AcDbLine
 10
-0.152297
 20
-0.022405
 30
0.0
 11
-0.034483
 21
-0.000279
 31
0.0
  0
LINE
  5
246
100
AcDbEntity
  8
127-001_FEATURES
370
     0
390
0
  6
Continuous
 62
     7
100
AcDbLine
 10
-0.141511
 20
-0.009454
 30
0.0
 11
-0.073892
 21
-0.000819
 31
0.0
  0
LINE
  5
247
100
AcDbEntity
  8
127-001_FEATURES
370
     0
390
0
  6
Continuous
 62
     7
100
AcDbLine
 10
-0.141511
 20
-0.009454
 30
0.0
 11
-0.141511
 21
0.007276
 31
0.0
  0
LINE
  5
248
100
AcDbEntity
  8
127-001_FEATURES
370
     0
390
0
  6
Continuous
 62
     7
100
AcDbLine
 10
-0.141511
 20
0.007276
 30
0.0
 11
-0.073892
 21
-0.000819
 31
0.0
  0
LINE
  5
249
100
AcDbEntity
  8
127-001_FEATURES
370
     0
390
0
  6
Continuous
 62
     7
100
AcDbLine
 10
-0.134873
 20
-0.001359
 30
0.0
 11
-0.113301
 21
-0.001359
 31
0.0
  0
LINE
  5
24A
100
AcDbEntity
  8
127-001_FEATURES
370
     0
390
0
  6
Continuous
 62
     7
100
AcDbLine
 10
-0.020023
 20
-0.00005
 30
0.0
 11
-0.155781
 21
-0.02998
 31
0.0
  0
LINE
  5
24B
100
AcDbEntity
  8
127-001_FEATURES
370
     0
390
0
  6
Continuous
 62
     7
100
AcDbLine
 10
-0.020023
 20
-0.00005
 30
0.0
 11
-0.155781
 21
0.026556
 31
0.0
  0
LINE
  5
24C
100
AcDbEntity
  8
127-001_FEATURES
370
     0
390
0
  6
Continuous
 62
     7
100
AcDbLine
 10
-0.155781
 20
0.026556
 30
0.0
 11
-0.155781
 21
-0.02998
 31
0.0
  0
LINE
  5
24D
100
AcDbEntity
  8
127-001_FEATURES
370
     0
390
0
  6
Continuous
 62
     7
100
AcDbLine
 10
-0.148562
 20
-0.018961
 30
0.0
 11
-0.148562
 21
0.016112
 31
0.0
  0
LINE
  5
24E
100
AcDbEntity
  8
127-001_FEATURES
370
     0
390
0
  6
Continuous
 62
     7
100
AcDbLine
 10
-0.148562
 20
0.016112
 30
0.0
 11
-0.049126
 21
-0.000286
 31
0.0
  0
LINE
  5
24F
100
AcDbEntity
  8
127-001_FEATURES
370
     0
390
0
  6
Continuous
 62
     7
100
AcDbLine
 10
-0.148562
 20
-0.018961
 30
0.0
 11
-0.049126
 21
-0.000286
 31
0.0
  0
LINE
  5
250
100
AcDbEntity
  8
127-001_FEATURES
370
     0
390
0
  6
Continuous
 62
     7
100
AcDbLine
 10
-0.139458
 20
-0.008029
 30
0.0
 11
-0.082388
 21
-0.000741
 31
0.0
  0
LINE
  5
251
100
AcDbEntity
  8
127-001_FEATURES
370
     0
390
0
  6
Continuous
 62
     7
100
AcDbLine
 10
-0.139458
 20
-0.008029
 30
0.0
 11
-0.139458
 21
0.00609
 31
0.0
  0
LINE
  5
252
100
AcDbEntity
  8
127-001_FEATURES
370
     0
390
0
  6
Continuous
 62
     7
100
AcDbLine
 10
-0.139458
 20
0.00609
 30
0.0
 11
-0.082388
 21
-0.000741
 31
0.0
  0
LINE
  5
253
100
AcDbEntity
  8
127-001_FEATURES
370
     0
390
0
  6
Continuous
 62
     7
100
AcDbLine
 10
-0.133857
 20
-0.001197
 30
0.0
 11
-0.115651
 21
-0.001197
 31
0.0
  0
LINE
  5
254
100
AcDbEntity
  8
127-001_FEATURES
370
     0
390
0
  6
Continuous
 62
     7
100
AcDbLine
 10
-0.143911
 20
0.011529
 30
0.0
 11
-0.061856
 21
-0.000685
 31
0.0
  0
LINE
  5
255
100
AcDbEntity
  8
127-001_FEATURES
370
     0
390
0
  6
Continuous
 62
     7
100
AcDbLine
 10
-0.061856
 20
-0.000685
 30
0.0
 11
-0.1453
 21
-0.01407
 31
0.0
  0
LINE
  5
256
100
AcDbEntity
  8
127-001_FEATURES
370
     0
390
0
  6
Continuous
 62
     7
100
AcDbLine
 10
-0.1453
 20
-0.01407
 30
0.0
 11
-0.143911
 21
0.011529
 31
0.0
  0
LINE
  5
257
100
AcDbEntity
  8
127-001_FEATURES
370
     0
390
0
  6
Continuous
 62
     7
100
AcDbLine
 10
-0.153279
 20
0.023242
 30
0.0
 11
-0.059774
 21
0.006175
 31
0.0
  0
LINE
  5
258
100
AcDbEntity
  8
127-001_FEATURES
370
     0
390
0
  6
Continuous
 62
     7
100
AcDbLine
 10
-0.152411
 20
-0.025782
 30
0.0
 11
-0.059601
 21
-0.006876
 31
0.0
  0
LINE
  5
259
100
AcDbEntity
  8
127-001_FEATURES
370
     0
390
0
  6
Continuous
 62
     7
100
AcDbLine
 10
-0.136799
 20
0.002661
 30
0.0
 11
-0.099502
 21
-0.000685
 31
0.0
  0
LINE
  5
25A
100
AcDbEntity
  8
127-001_FEATURES
370
     0
390
0
  6
Continuous
 62
     7
100
AcDbLine
 10
-0.099502
 20
-0.000685
 30
0.0
 11
-0.13732
 21
-0.005202
 31
0.0
  0
LINE
  5
25B
100
AcDbEntity
  8
127-001_FEATURES
370
     0
390
0
  6
Continuous
 62
     7
100
AcDbLine
 10
-0.13732
 20
-0.005202
 30
0.0
 11
-0.136799
 21
0.002661
 31
0.0
  0
ENDBLK
  5
25C
100
AcDbEntity
  8
0
390
0
100
AcDbBlockEnd
  0
BLOCK
  5
2D3
100
AcDbEntity
  8
0
390
0
100
AcDbBlockBegin
  2
LOGOFIX
 70
     0
 10
0.0
 20
0.0
 30
0.0
  3
LOGOFIX
  1

  0
CIRCLE
  5
2D4
100
AcDbEntity
  8
0
370
    15
390
0
  6
Continuous
 62
     7
100
AcDbCircle
 10
-0.339016
 20
0.725093
 30
0.0
 40
0.054385
  0
CIRCLE
  5
2D5
100
AcDbEntity
  8
0
370
    15
390
0
  6
Continuous
 62
     2
100
AcDbCircle
 10
-2.134735
 20
0.546851
 30
0.0
 40
0.312
  0
LINE
  5
2D6
100
AcDbEntity
  8
0
370
    15
390
0
  6
Continuous
 62
     7
100
AcDbLine
 10
-2.252522
 20
0.611857
 30
0.0
 11
-2.252522
 21
0.666324
 31
0.0
  0
LINE
  5
2D7
100
AcDbEntity
  8
0
370
    15
390
0
  6
Continuous
 62
     7
100
AcDbLine
 10
-2.345673
 20
0.611857
 30
0.0
 11
-2.252522
 21
0.611857
 31
0.0
  0
LINE
  5
2D8
100
AcDbEntity
  8
0
370
    15
390
0
  6
Continuous
 62
     7
100
AcDbLine
 10
-2.345673
 20
0.574351
 30
0.0
 11
-2.345673
 21
0.611857
 31
0.0
  0
LINE
  5
2D9
100
AcDbEntity
  8
0
370
    15
390
0
  6
Continuous
 62
     7
100
AcDbLine
 10
-2.252522
 20
0.574351
 30
0.0
 11
-2.345673
 21
0.574351
 31
0.0
  0
LINE
  5
2DA
100
AcDbEntity
  8
0
370
    15
390
0
  6
Continuous
 62
     7
100
AcDbLine
 10
-2.252522
 20
0.427375
 30
0.0
 11
-2.252522
 21
0.574351
 31
0.0
  0
LINE
  5
2DB
100
AcDbEntity
  8
0
370
    15
390
0
  6
Continuous
 62
     7
100
AcDbLine
 10
-2.400673
 20
0.427375
 30
0.0
 11
-2.252522
 21
0.427375
 31
0.0
  0
LINE
  5
2DC
100
AcDbEntity
  8
0
370
    15
390
0
  6
Continuous
 62
     7
100
AcDbLine
 10
-2.400673
 20
0.482417
 30
0.0
 11
-2.400673
 21
0.427375
 31
0.0
  0
LINE
  5
2DD
100
AcDbEntity
  8
0
370
    15
390
0
  6
Continuous
 62
     7
100
AcDbLine
 10
-2.307522
 20
0.482417
 30
0.0
 11
-2.400673
 21
0.482417
 31
0.0
  0
LINE
  5
2DE
100
AcDbEntity
  8
0
370
    15
390
0
  6
Continuous
 62
     7
100
AcDbLine
 10
-2.307522
 20
0.518968
 30
0.0
 11
-2.307522
 21
0.482417
 31
0.0
  0
LINE
  5
2DF
100
AcDbEntity
  8
0
370
    15
390
0
  6
Continuous
 62
     7
100
AcDbLine
 10
-2.400673
 20
0.518968
 30
0.0
 11
-2.307522
 21
0.518968
 31
0.0
  0
LINE
  5
2E0
100
AcDbEntity
  8
0
370
    15
390
0
  6
Continuous
 62
     7
100
AcDbLine
 10
-2.400673
 20
0.666324
 30
0.0
 11
-2.400673
 21
0.518968
 31
0.0
  0
LINE
  5
2E1
100
AcDbEntity
  8
0
370
    15
390
0
  6
Continuous
 62
     7
100
AcDbLine
 10
-2.400673
 20
0.666324
 30
0.0
 11
-2.252522
 21
0.666324
 31
0.0
  0
LINE
  5
2E2
100
AcDbEntity
  8
0
370
    15
390
0
  6
Continuous
 62
     7
100
AcDbLine
 10
-2.060661
 20
0.666324
 30
0.0
 11
-2.116367
 21
0.666324
 31
0.0
  0
LINE
  5
2E3
100
AcDbEntity
  8
0
370
    15
390
0
  6
Continuous
 62
     7
100
AcDbLine
 10
-2.060661
 20
0.427375
 30
0.0
 11
-2.060661
 21
0.666324
 31
0.0
  0
LINE
  5
2E4
100
AcDbEntity
  8
0
370
    15
390
0
  6
Continuous
 62
     7
100
AcDbLine
 10
-2.208813
 20
0.427375
 30
0.0
 11
-2.060661
 21
0.427375
 31
0.0
  0
LINE
  5
2E5
100
AcDbEntity
  8
0
370
    15
390
0
  6
Continuous
 62
     7
100
AcDbLine
 10
-2.208813
 20
0.666324
 30
0.0
 11
-2.208813
 21
0.427375
 31
0.0
  0
LINE
  5
2E6
100
AcDbEntity
  8
0
370
    15
390
0
  6
Continuous
 62
     7
100
AcDbLine
 10
-2.153893
 20
0.666324
 30
0.0
 11
-2.208813
 21
0.666324
 31
0.0
  0
LINE
  5
2E7
100
AcDbEntity
  8
0
370
    15
390
0
  6
Continuous
 62
     7
100
AcDbLine
 10
-2.153893
 20
0.482375
 30
0.0
 11
-2.153893
 21
0.666324
 31
0.0
  0
LINE
  5
2E8
100
AcDbEntity
  8
0
370
    15
390
0
  6
Continuous
 62
     7
100
AcDbLine
 10
-2.116367
 20
0.482375
 30
0.0
 11
-2.153893
 21
0.482375
 31
0.0
  0
LINE
  5
2E9
100
AcDbEntity
  8
0
370
    15
390
0
  6
Continuous
 62
     7
100
AcDbLine
 10
-2.116367
 20
0.482375
 30
0.0
 11
-2.116367
 21
0.666324
 31
0.0
  0
LINE
  5
2EA
100
AcDbEntity
  8
0
370
    15
390
0
  6
Continuous
 62
     7
100
AcDbLine
 10
-1.959084
 20
0.427375
 30
0.0
 11
-2.01479
 21
0.427375
 31
0.0
  0
LINE
  5
2EB
100
AcDbEntity
  8
0
370
    15
390
0
  6
Continuous
 62
     7
100
AcDbLine
 10
-1.959084
 20
0.611323
 30
0.0
 11
-1.959084
 21
0.427375
 31
0.0
  0
LINE
  5
2EC
100
AcDbEntity
  8
0
370
    15
390
0
  6
Continuous
 62
     7
100
AcDbLine
 10
-1.921558
 20
0.611323
 30
0.0
 11
-1.959084
 21
0.611323
 31
0.0
  0
LINE
  5
2ED
100
AcDbEntity
  8
0
370
    15
390
0
  6
Continuous
 62
     7
100
AcDbLine
 10
-1.921558
 20
0.427375
 30
0.0
 11
-1.921558
 21
0.611323
 31
0.0
  0
LINE
  5
2EE
100
AcDbEntity
  8
0
370
    15
390
0
  6
Continuous
 62
     7
100
AcDbLine
 10
-1.866638
 20
0.427375
 30
0.0
 11
-1.921558
 21
0.427375
 31
0.0
  0
LINE
  5
2EF
100
AcDbEntity
  8
0
370
    15
390
0
  6
Continuous
 62
     7
100
AcDbLine
 10
-1.866638
 20
0.666324
 30
0.0
 11
-1.866638
 21
0.427375
 31
0.0
  0
LINE
  5
2F0
100
AcDbEntity
  8
0
370
    15
390
0
  6
Continuous
 62
     7
100
AcDbLine
 10
-2.01479
 20
0.666324
 30
0.0
 11
-1.866638
 21
0.666324
 31
0.0
  0
LINE
  5
2F1
100
AcDbEntity
  8
0
370
    15
390
0
  6
Continuous
 62
     7
100
AcDbLine
 10
-2.01479
 20
0.666324
 30
0.0
 11
-2.01479
 21
0.427375
 31
0.0
  0
LINE
  5
2F2
100
AcDbEntity
  8
0
370
    15
390
0
  6
Continuous
 62
     7
100
AcDbLine
 10
-1.650478
 20
0.64285
 30
0.0
 11
-1.650478
 21
0.709533
 31
0.0
  0
LINE
  5
2F3
100
AcDbEntity
  8
0
370
    15
390
0
  6
Continuous
 62
     7
100
AcDbLine
 10
-1.570118
 20
0.64285
 30
0.0
 11
-1.650478
 21
0.64285
 31
0.0
  0
LINE
  5
2F4
100
AcDbEntity
  8
0
370
    15
390
0
  6
Continuous
 62
     7
100
AcDbLine
 10
-1.570118
 20
0.446849
 30
0.0
 11
-1.570118
 21
0.64285
 31
0.0
  0
LINE
  5
2F5
100
AcDbEntity
  8
0
370
    15
390
0
  6
Continuous
 62
     7
100
AcDbLine
 10
-1.610298
 20
0.446849
 30
0.0
 11
-1.570118
 21
0.446849
 31
0.0
  0
LINE
  5
2F6
100
AcDbEntity
  8
0
370
    15
390
0
  6
Continuous
 62
     7
100
AcDbLine
 10
-1.610298
 20
0.60267
 30
0.0
 11
-1.610298
 21
0.446849
 31
0.0
  0
LINE
  5
2F7
100
AcDbEntity
  8
0
370
    15
390
0
  6
Continuous
 62
     7
100
AcDbLine
 10
-1.650478
 20
0.60267
 30
0.0
 11
-1.610298
 21
0.60267
 31
0.0
  0
LINE
  5
2F8
100
AcDbEntity
  8
0
370
    15
390
0
  6
Continuous
 62
     7
100
AcDbLine
 10
-1.650478
 20
0.446849
 30
0.0
 11
-1.650478
 21
0.60267
 31
0.0
  0
LINE
  5
2F9
100
AcDbEntity
  8
0
370
    15
390
0
  6
Continuous
 62
     7
100
AcDbLine
 10
-1.690659
 20
0.446849
 30
0.0
 11
-1.650478
 21
0.446849
 31
0.0
  0
LINE
  5
2FA
100
AcDbEntity
  8
0
370
    15
390
0
  6
Continuous
 62
     7
100
AcDbLine
 10
-1.690659
 20
0.709533
 30
0.0
 11
-1.690659
 21
0.446849
 31
0.0
  0
LINE
  5
2FB
100
AcDbEntity
  8
0
370
    15
390
0
  6
Continuous
 62
     7
100
AcDbLine
 10
-1.690659
 20
0.709533
 30
0.0
 11
-1.650478
 21
0.709533
 31
0.0
  0
LINE
  5
2FC
100
AcDbEntity
  8
0
370
    15
390
0
  6
Continuous
 62
     7
100
AcDbLine
 10
-1.489758
 20
0.487029
 30
0.0
 11
-1.489758
 21
0.64285
 31
0.0
  0
LINE
  5
2FD
100
AcDbEntity
  8
0
370
    15
390
0
  6
Continuous
 62
     7
100
AcDbLine
 10
-1.449577
 20
0.487029
 30
0.0
 11
-1.489758
 21
0.487029
 31
0.0
  0
LINE
  5
2FE
100
AcDbEntity
  8
0
370
    15
390
0
  6
Continuous
 62
     7
100
AcDbLine
 10
-1.449577
 20
0.64285
 30
0.0
 11
-1.449577
 21
0.487029
 31
0.0
  0
LINE
  5
2FF
100
AcDbEntity
  8
0
370
    15
390
0
  6
Continuous
 62
     7
100
AcDbLine
 10
-1.409397
 20
0.64285
 30
0.0
 11
-1.449577
 21
0.64285
 31
0.0
  0
LINE
  5
300
100
AcDbEntity
  8
0
370
    15
390
0
  6
Continuous
 62
     7
100
AcDbLine
 10
-1.409397
 20
0.36719
 30
0.0
 11
-1.409397
 21
0.64285
 31
0.0
  0
LINE
  5
301
100
AcDbEntity
  8
0
370
    15
390
0
  6
Continuous
 62
     7
100
AcDbLine
 10
-1.487316
 20
0.366488
 30
0.0
 11
-1.409397
 21
0.36719
 31
0.0
  0
LINE
  5
302
100
AcDbEntity
  8
0
370
    15
390
0
  6
Continuous
 62
     7
100
AcDbLine
 10
-1.487316
 20
0.406669
 30
0.0
 11
-1.487316
 21
0.366488
 31
0.0
  0
LINE
  5
303
100
AcDbEntity
  8
0
370
    15
390
0
  6
Continuous
 62
     7
100
AcDbLine
 10
-1.449577
 20
0.406669
 30
0.0
 11
-1.487316
 21
0.406669
 31
0.0
  0
LINE
  5
304
100
AcDbEntity
  8
0
370
    15
390
0
  6
Continuous
 62
     7
100
AcDbLine
 10
-1.449577
 20
0.446849
 30
0.0
 11
-1.449577
 21
0.406669
 31
0.0
  0
LINE
  5
305
100
AcDbEntity
  8
0
370
    15
390
0
  6
Continuous
 62
     7
100
AcDbLine
 10
-1.529938
 20
0.446849
 30
0.0
 11
-1.449577
 21
0.446849
 31
0.0
  0
LINE
  5
306
100
AcDbEntity
  8
0
370
    15
390
0
  6
Continuous
 62
     7
100
AcDbLine
 10
-1.529938
 20
0.64285
 30
0.0
 11
-1.529938
 21
0.446849
 31
0.0
  0
LINE
  5
307
100
AcDbEntity
  8
0
370
    15
390
0
  6
Continuous
 62
     7
100
AcDbLine
 10
-1.529938
 20
0.64285
 30
0.0
 11
-1.489758
 21
0.64285
 31
0.0
  0
LINE
  5
308
100
AcDbEntity
  8
0
370
    15
390
0
  6
Continuous
 62
     7
100
AcDbLine
 10
-1.287342
 20
0.709533
 30
0.0
 11
-1.287342
 21
0.64285
 31
0.0
  0
LINE
  5
309
100
AcDbEntity
  8
0
370
    15
390
0
  6
Continuous
 62
     7
100
AcDbLine
 10
-1.247158
 20
0.709533
 30
0.0
 11
-1.287342
 21
0.709533
 31
0.0
  0
LINE
  5
30A
100
AcDbEntity
  8
0
370
    15
390
0
  6
Continuous
 62
     7
100
AcDbLine
 10
-1.247158
 20
0.446849
 30
0.0
 11
-1.247158
 21
0.709533
 31
0.0
  0
LINE
  5
30B
100
AcDbEntity
  8
0
370
    15
390
0
  6
Continuous
 62
     7
100
AcDbLine
 10
-1.367702
 20
0.446849
 30
0.0
 11
-1.247158
 21
0.446849
 31
0.0
  0
LINE
  5
30C
100
AcDbEntity
  8
0
370
    15
390
0
  6
Continuous
 62
     7
100
AcDbLine
 10
-1.367702
 20
0.64285
 30
0.0
 11
-1.367702
 21
0.446849
 31
0.0
  0
LINE
  5
30D
100
AcDbEntity
  8
0
370
    15
390
0
  6
Continuous
 62
     7
100
AcDbLine
 10
-1.367702
 20
0.64285
 30
0.0
 11
-1.287342
 21
0.64285
 31
0.0
  0
LINE
  5
30E
100
AcDbEntity
  8
0
370
    15
390
0
  6
Continuous
 62
     7
100
AcDbLine
 10
-1.287342
 20
0.60267
 30
0.0
 11
-1.287342
 21
0.487029
 31
0.0
  0
LINE
  5
30F
100
AcDbEntity
  8
0
370
    15
390
0
  6
Continuous
 62
     7
100
AcDbLine
 10
-1.327518
 20
0.487029
 30
0.0
 11
-1.287342
 21
0.487029
 31
0.0
  0
LINE
  5
310
100
AcDbEntity
  8
0
370
    15
390
0
  6
Continuous
 62
     7
100
AcDbLine
 10
-1.327518
 20
0.60267
 30
0.0
 11
-1.327518
 21
0.487029
 31
0.0
  0
LINE
  5
311
100
AcDbEntity
  8
0
370
    15
390
0
  6
Continuous
 62
     7
100
AcDbLine
 10
-1.327518
 20
0.60267
 30
0.0
 11
-1.287342
 21
0.60267
 31
0.0
  0
LINE
  5
312
100
AcDbEntity
  8
0
370
    15
390
0
  6
Continuous
 62
     7
100
AcDbLine
 10
-1.126621
 20
0.60267
 30
0.0
 11
-1.126621
 21
0.64285
 31
0.0
  0
LINE
  5
313
100
AcDbEntity
  8
0
370
    15
390
0
  6
Continuous
 62
     7
100
AcDbLine
 10
-1.166801
 20
0.60267
 30
0.0
 11
-1.126621
 21
0.60267
 31
0.0
  0
LINE
  5
314
100
AcDbEntity
  8
0
370
    15
390
0
  6
Continuous
 62
     7
100
AcDbLine
 10
-1.166801
 20
0.446849
 30
0.0
 11
-1.166801
 21
0.60267
 31
0.0
  0
LINE
  5
315
100
AcDbEntity
  8
0
370
    15
390
0
  6
Continuous
 62
     7
100
AcDbLine
 10
-1.206982
 20
0.446849
 30
0.0
 11
-1.166801
 21
0.446849
 31
0.0
  0
LINE
  5
316
100
AcDbEntity
  8
0
370
    15
390
0
  6
Continuous
 62
     7
100
AcDbLine
 10
-1.206982
 20
0.64285
 30
0.0
 11
-1.206982
 21
0.446849
 31
0.0
  0
LINE
  5
317
100
AcDbEntity
  8
0
370
    15
390
0
  6
Continuous
 62
     7
100
AcDbLine
 10
-1.206982
 20
0.64285
 30
0.0
 11
-1.126621
 21
0.64285
 31
0.0
  0
LINE
  5
318
100
AcDbEntity
  8
0
370
    15
390
0
  6
Continuous
 62
     7
100
AcDbLine
 10
-0.88554
 20
0.487029
 30
0.0
 11
-0.88554
 21
0.64285
 31
0.0
  0
LINE
  5
319
100
AcDbEntity
  8
0
370
    15
390
0
  6
Continuous
 62
     7
100
AcDbLine
 10
-0.84536
 20
0.487029
 30
0.0
 11
-0.88554
 21
0.487029
 31
0.0
  0
LINE
  5
31A
100
AcDbEntity
  8
0
370
    15
390
0
  6
Continuous
 62
     7
100
AcDbLine
 10
-0.84536
 20
0.64285
 30
0.0
 11
-0.84536
 21
0.487029
 31
0.0
  0
LINE
  5
31B
100
AcDbEntity
  8
0
370
    15
390
0
  6
Continuous
 62
     7
100
AcDbLine
 10
-0.80518
 20
0.64285
 30
0.0
 11
-0.84536
 21
0.64285
 31
0.0
  0
LINE
  5
31C
100
AcDbEntity
  8
0
370
    15
390
0
  6
Continuous
 62
     7
100
AcDbLine
 10
-0.80518
 20
0.446849
 30
0.0
 11
-0.80518
 21
0.64285
 31
0.0
  0
LINE
  5
31D
100
AcDbEntity
  8
0
370
    15
390
0
  6
Continuous
 62
     7
100
AcDbLine
 10
-0.92572
 20
0.446849
 30
0.0
 11
-0.80518
 21
0.446849
 31
0.0
  0
LINE
  5
31E
100
AcDbEntity
  8
0
370
    15
390
0
  6
Continuous
 62
     7
100
AcDbLine
 10
-0.92572
 20
0.64285
 30
0.0
 11
-0.92572
 21
0.446849
 31
0.0
  0
LINE
  5
31F
100
AcDbEntity
  8
0
370
    15
390
0
  6
Continuous
 62
     7
100
AcDbLine
 10
-0.92572
 20
0.64285
 30
0.0
 11
-0.88554
 21
0.64285
 31
0.0
  0
LINE
  5
320
100
AcDbEntity
  8
0
370
    15
390
0
  6
Continuous
 62
     7
100
AcDbLine
 10
-0.724819
 20
0.446849
 30
0.0
 11
-0.724819
 21
0.709533
 31
0.0
  0
LINE
  5
321
100
AcDbEntity
  8
0
370
    15
390
0
  6
Continuous
 62
     7
100
AcDbLine
 10
-0.764999
 20
0.446849
 30
0.0
 11
-0.724819
 21
0.446849
 31
0.0
  0
LINE
  5
322
100
AcDbEntity
  8
0
370
    15
390
0
  6
Continuous
 62
     7
100
AcDbLine
 10
-0.764999
 20
0.709533
 30
0.0
 11
-0.764999
 21
0.446849
 31
0.0
  0
LINE
  5
323
100
AcDbEntity
  8
0
370
    15
390
0
  6
Continuous
 62
     7
100
AcDbLine
 10
-0.764999
 20
0.709533
 30
0.0
 11
-0.724819
 21
0.709533
 31
0.0
  0
LINE
  5
324
100
AcDbEntity
  8
0
370
    15
390
0
  6
Continuous
 62
     7
100
AcDbLine
 10
-0.644459
 20
0.669353
 30
0.0
 11
-0.644459
 21
0.709533
 31
0.0
  0
LINE
  5
325
100
AcDbEntity
  8
0
370
    15
390
0
  6
Continuous
 62
     7
100
AcDbLine
 10
-0.684639
 20
0.669353
 30
0.0
 11
-0.644459
 21
0.669353
 31
0.0
  0
LINE
  5
326
100
AcDbEntity
  8
0
370
    15
390
0
  6
Continuous
 62
     7
100
AcDbLine
 10
-0.684639
 20
0.709533
 30
0.0
 11
-0.684639
 21
0.669353
 31
0.0
  0
LINE
  5
327
100
AcDbEntity
  8
0
370
    15
390
0
  6
Continuous
 62
     7
100
AcDbLine
 10
-0.684639
 20
0.709533
 30
0.0
 11
-0.644459
 21
0.709533
 31
0.0
  0
LINE
  5
328
100
AcDbEntity
  8
0
370
    15
390
0
  6
Continuous
 62
     7
100
AcDbLine
 10
-0.644459
 20
0.446849
 30
0.0
 11
-0.644459
 21
0.64285
 31
0.0
  0
LINE
  5
329
100
AcDbEntity
  8
0
370
    15
390
0
  6
Continuous
 62
     7
100
AcDbLine
 10
-0.684639
 20
0.446849
 30
0.0
 11
-0.644459
 21
0.446849
 31
0.0
  0
LINE
  5
32A
100
AcDbEntity
  8
0
370
    15
390
0
  6
Continuous
 62
     7
100
AcDbLine
 10
-0.684639
 20
0.64285
 30
0.0
 11
-0.684639
 21
0.446849
 31
0.0
  0
LINE
  5
32B
100
AcDbEntity
  8
0
370
    15
390
0
  6
Continuous
 62
     7
100
AcDbLine
 10
-0.684639
 20
0.64285
 30
0.0
 11
-0.644459
 21
0.64285
 31
0.0
  0
LINE
  5
32C
100
AcDbEntity
  8
0
370
    15
390
0
  6
Continuous
 62
     7
100
AcDbLine
 10
-0.488537
 20
0.60267
 30
0.0
 11
-0.488537
 21
0.64285
 31
0.0
  0
LINE
  5
32D
100
AcDbEntity
  8
0
370
    15
390
0
  6
Continuous
 62
     7
100
AcDbLine
 10
-0.564098
 20
0.60267
 30
0.0
 11
-0.488537
 21
0.60267
 31
0.0
  0
LINE
  5
32E
100
AcDbEntity
  8
0
370
    15
390
0
  6
Continuous
 62
     7
100
AcDbLine
 10
-0.564098
 20
0.487029
 30
0.0
 11
-0.564098
 21
0.60267
 31
0.0
  0
LINE
  5
32F
100
AcDbEntity
  8
0
370
    15
390
0
  6
Continuous
 62
     7
100
AcDbLine
 10
-0.488537
 20
0.487029
 30
0.0
 11
-0.564098
 21
0.487029
 31
0.0
  0
LINE
  5
330
100
AcDbEntity
  8
0
370
    15
390
0
  6
Continuous
 62
     7
100
AcDbLine
 10
-0.488537
 20
0.446849
 30
0.0
 11
-0.488537
 21
0.487029
 31
0.0
  0
LINE
  5
331
100
AcDbEntity
  8
0
370
    15
390
0
  6
Continuous
 62
     7
100
AcDbLine
 10
-0.604279
 20
0.446849
 30
0.0
 11
-0.488537
 21
0.446849
 31
0.0
  0
LINE
  5
332
100
AcDbEntity
  8
0
370
    15
390
0
  6
Continuous
 62
     7
100
AcDbLine
 10
-0.604279
 20
0.64285
 30
0.0
 11
-0.604279
 21
0.446849
 31
0.0
  0
LINE
  5
333
100
AcDbEntity
  8
0
370
    15
390
0
  6
Continuous
 62
     7
100
AcDbLine
 10
-0.604279
 20
0.64285
 30
0.0
 11
-0.488537
 21
0.64285
 31
0.0
  0
LINE
  5
334
100
AcDbEntity
  8
0
370
    15
390
0
  6
Continuous
 62
     7
100
AcDbLine
 10
-0.321075
 20
0.60267
 30
0.0
 11
-0.321075
 21
0.64285
 31
0.0
  0
LINE
  5
335
100
AcDbEntity
  8
0
370
    15
390
0
  6
Continuous
 62
     7
100
AcDbLine
 10
-0.408176
 20
0.60267
 30
0.0
 11
-0.321075
 21
0.60267
 31
0.0
  0
LINE
  5
336
100
AcDbEntity
  8
0
370
    15
390
0
  6
Continuous
 62
     7
100
AcDbLine
 10
-0.408176
 20
0.56494
 30
0.0
 11
-0.408176
 21
0.60267
 31
0.0
  0
LINE
  5
337
100
AcDbEntity
  8
0
370
    15
390
0
  6
Continuous
 62
     7
100
AcDbLine
 10
-0.321075
 20
0.56494
 30
0.0
 11
-0.408176
 21
0.56494
 31
0.0
  0
LINE
  5
338
100
AcDbEntity
  8
0
370
    15
390
0
  6
Continuous
 62
     7
100
AcDbLine
 10
-0.321075
 20
0.446849
 30
0.0
 11
-0.321075
 21
0.56494
 31
0.0
  0
LINE
  5
339
100
AcDbEntity
  8
0
370
    15
390
0
  6
Continuous
 62
     7
100
AcDbLine
 10
-0.448357
 20
0.446849
 30
0.0
 11
-0.321075
 21
0.446849
 31
0.0
  0
LINE
  5
33A
100
AcDbEntity
  8
0
370
    15
390
0
  6
Continuous
 62
     7
100
AcDbLine
 10
-0.448357
 20
0.487029
 30
0.0
 11
-0.448357
 21
0.446849
 31
0.0
  0
LINE
  5
33B
100
AcDbEntity
  8
0
370
    15
390
0
  6
Continuous
 62
     7
100
AcDbLine
 10
-0.361256
 20
0.487029
 30
0.0
 11
-0.448357
 21
0.487029
 31
0.0
  0
LINE
  5
33C
100
AcDbEntity
  8
0
370
    15
390
0
  6
Continuous
 62
     7
100
AcDbLine
 10
-0.361256
 20
0.52476
 30
0.0
 11
-0.361256
 21
0.487029
 31
0.0
  0
LINE
  5
33D
100
AcDbEntity
  8
0
370
    15
390
0
  6
Continuous
 62
     7
100
AcDbLine
 10
-0.448357
 20
0.52476
 30
0.0
 11
-0.361256
 21
0.52476
 31
0.0
  0
LINE
  5
33E
100
AcDbEntity
  8
0
370
    15
390
0
  6
Continuous
 62
     7
100
AcDbLine
 10
-0.448357
 20
0.64285
 30
0.0
 11
-0.448357
 21
0.52476
 31
0.0
  0
LINE
  5
33F
100
AcDbEntity
  8
0
370
    15
390
0
  6
Continuous
 62
     7
100
AcDbLine
 10
-0.448357
 20
0.64285
 30
0.0
 11
-0.321075
 21
0.64285
 31
0.0
  0
LINE
  5
340
100
AcDbEntity
  8
0
370
    15
390
0
  6
Continuous
 62
     7
100
AcDbLine
 10
-0.9659
 20
0.446849
 30
0.0
 11
-0.9659
 21
0.64285
 31
0.0
  0
LINE
  5
341
100
AcDbEntity
  8
0
370
    15
390
0
  6
Continuous
 62
     7
100
AcDbLine
 10
-1.086441
 20
0.446849
 30
0.0
 11
-0.9659
 21
0.446849
 31
0.0
  0
LINE
  5
342
100
AcDbEntity
  8
0
370
    15
390
0
  6
Continuous
 62
     7
100
AcDbLine
 10
-1.086441
 20
0.567389
 30
0.0
 11
-1.086441
 21
0.446849
 31
0.0
  0
LINE
  5
343
100
AcDbEntity
  8
0
370
    15
390
0
  6
Continuous
 62
     7
100
AcDbLine
 10
-1.006081
 20
0.567389
 30
0.0
 11
-1.086441
 21
0.567389
 31
0.0
  0
LINE
  5
344
100
AcDbEntity
  8
0
370
    15
390
0
  6
Continuous
 62
     7
100
AcDbLine
 10
-1.006081
 20
0.60267
 30
0.0
 11
-1.006081
 21
0.567389
 31
0.0
  0
LINE
  5
345
100
AcDbEntity
  8
0
370
    15
390
0
  6
Continuous
 62
     7
100
AcDbLine
 10
-1.068665
 20
0.60267
 30
0.0
 11
-1.006081
 21
0.60267
 31
0.0
  0
LINE
  5
346
100
AcDbEntity
  8
0
370
    15
390
0
  6
Continuous
 62
     7
100
AcDbLine
 10
-1.068665
 20
0.64285
 30
0.0
 11
-1.068665
 21
0.60267
 31
0.0
  0
LINE
  5
347
100
AcDbEntity
  8
0
370
    15
390
0
  6
Continuous
 62
     7
100
AcDbLine
 10
-1.068665
 20
0.64285
 30
0.0
 11
-0.9659
 21
0.64285
 31
0.0
  0
LINE
  5
348
100
AcDbEntity
  8
0
370
    15
390
0
  6
Continuous
 62
     7
100
AcDbLine
 10
-1.006081
 20
0.487029
 30
0.0
 11
-1.006081
 21
0.527209
 31
0.0
  0
LINE
  5
349
100
AcDbEntity
  8
0
370
    15
390
0
  6
Continuous
 62
     7
100
AcDbLine
 10
-1.046261
 20
0.487029
 30
0.0
 11
-1.006081
 21
0.487029
 31
0.0
  0
LINE
  5
34A
100
AcDbEntity
  8
0
370
    15
390
0
  6
Continuous
 62
     7
100
AcDbLine
 10
-1.046261
 20
0.527209
 30
0.0
 11
-1.046261
 21
0.487029
 31
0.0
  0
LINE
  5
34B
100
AcDbEntity
  8
0
370
    15
390
0
  6
Continuous
 62
     7
100
AcDbLine
 10
-1.046261
 20
0.527209
 30
0.0
 11
-1.006081
 21
0.527209
 31
0.0
  0
HATCH
  5
34C
100
AcDbEntity
  8
0
370
    15
390
0
  6
Continuous
 62
   174
100
AcDbHatch
 10
0.0
 20
0.0
 30
0.0
210
0.0
220
0.0
230
1.0
  2
SOLID
 70
     1
 71
     0
 91
        4
 92
        1
 93
        1
 72
     2
 10
-2.134735107421875
 20
0.5468511581420898
 40
0.3120002746582031
 50
0.0
 51
360.0
 73
     1
 97
        0
 92
        1
 93
       12
 72
     1
 10
-2.2525215148925781
 20
0.6118574142456055
 11
-2.2525215148925781
 21
0.6663236618041992
 72
     1
 10
-2.2525215148925781
 20
0.6663236618041992
 11
-2.4006729125976562
 21
0.6663236618041992
 72
     1
 10
-2.4006729125976562
 20
0.6663236618041992
 11
-2.4006729125976562
 21
0.5189676284790039
 72
     1
 10
-2.4006729125976562
 20
0.5189676284790039
 11
-2.3075218200683594
 21
0.5189676284790039
 72
     1
 10
-2.3075218200683594
 20
0.5189676284790039
 11
-2.3075218200683594
 21
0.482417106628418
 72
     1
 10
-2.3075218200683594
 20
0.482417106628418
 11
-2.4006729125976562
 21
0.482417106628418
 72
     1
 10
-2.4006729125976562
 20
0.482417106628418
 11
-2.4006729125976562
 21
0.4273748397827148
 72
     1
 10
-2.4006729125976562
 20
0.4273748397827148
 11
-2.2525215148925781
 21
0.4273748397827148
 72
     1
 10
-2.2525215148925781
 20
0.4273748397827148
 11
-2.2525215148925781
 21
0.5743513107299805
 72
     1
 10
-2.2525215148925781
 20
0.5743513107299805
 11
-2.345672607421875
 21
0.5743513107299805
 72
     1
 10
-2.345672607421875
 20
0.5743513107299805
 11
-2.345672607421875
 21
0.6118574142456055
 72
     1
 10
-2.345672607421875
 20
0.6118574142456055
 11
-2.2525215148925781
 21
0.6118574142456055
 97
        0
 92
        1
 93
        8
 72
     1
 10
-2.0606613159179687
 20
0.6663236618041992
 11
-2.1163673400878906
 21
0.6663236618041992
 72
     1
 10
-2.1163673400878906
 20
0.6663236618041992
 11
-2.1163673400878906
 21
0.4823751449584961
 72
     1
 10
-2.1163673400878906
 20
0.4823751449584961
 11
-2.1538925170898438
 21
0.4823751449584961
 72
     1
 10
-2.1538925170898438
 20
0.4823751449584961
 11
-2.1538925170898438
 21
0.6663236618041992
 72
     1
 10
-2.1538925170898438
 20
0.6663236618041992
 11
-2.2088127136230469
 21
0.6663236618041992
 72
     1
 10
-2.2088127136230469
 20
0.6663236618041992
 11
-2.2088127136230469
 21
0.4273748397827148
 72
     1
 10
-2.2088127136230469
 20
0.4273748397827148
 11
-2.0606613159179687
 21
0.4273748397827148
 72
     1
 10
-2.0606613159179687
 20
0.4273748397827148
 11
-2.0606613159179687
 21
0.6663236618041992
 97
        0
 92
        1
 93
        8
 72
     1
 10
-1.9590835571289062
 20
0.4273748397827148
 11
-2.0147895812988281
 21
0.4273748397827148
 72
     1
 10
-2.0147895812988281
 20
0.4273748397827148
 11
-2.0147895812988281
 21
0.6663236618041992
 72
     1
 10
-2.0147895812988281
 20
0.6663236618041992
 11
-1.86663818359375
 21
0.6663236618041992
 72
     1
 10
-1.86663818359375
 20
0.6663236618041992
 11
-1.86663818359375
 21
0.4273748397827148
 72
     1
 10
-1.86663818359375
 20
0.4273748397827148
 11
-1.9215583801269531
 21
0.4273748397827148
 72
     1
 10
-1.9215583801269531
 20
0.4273748397827148
 11
-1.9215583801269531
 21
0.611323356628418
 72
     1
 10
-1.9215583801269531
 20
0.611323356628418
 11
-1.9590835571289062
 21
0.611323356628418
 72
     1
 10
-1.9590835571289062
 20
0.611323356628418
 11
-1.9590835571289062
 21
0.4273748397827148
 97
        0
 75
     0
 76
     1
 98
        1
 10
0.0
 20
0.0
  0
HATCH
  5
34D
100
AcDbEntity
  8
0
370
    15
390
0
  6
Continuous
 62
   174
100
AcDbHatch
 10
0.0
 20
0.0
 30
0.0
210
0.0
220
0.0
230
1.0
  2
SOLID
 70
     1
 71
     0
 91
        4
 92
        1
 93
       10
 72
     1
 10
-1.6504783630371094
 20
0.6428499221801758
 11
-1.6504783630371094
 21
0.7095327377319336
 72
     1
 10
-1.6504783630371094
 20
0.7095327377319336
 11
-1.6906585693359375
 21
0.7095327377319336
 72
     1
 10
-1.6906585693359375
 20
0.7095327377319336
 11
-1.6906585693359375
 21
0.4468488693237305
 72
     1
 10
-1.6906585693359375
 20
0.4468488693237305
 11
-1.6504783630371094
 21
0.4468488693237305
 72
     1
 10
-1.6504783630371094
 20
0.4468488693237305
 11
-1.6504783630371094
 21
0.6026697158813477
 72
     1
 10
-1.6504783630371094
 20
0.6026697158813477
 11
-1.6102981567382813
 21
0.6026697158813477
 72
     1
 10
-1.6102981567382813
 20
0.6026697158813477
 11
-1.6102981567382813
 21
0.4468488693237305
 72
     1
 10
-1.6102981567382813
 20
0.4468488693237305
 11
-1.5701179504394531
 21
0.4468488693237305
 72
     1
 10
-1.5701179504394531
 20
0.4468488693237305
 11
-1.5701179504394531
 21
0.6428499221801758
 72
     1
 10
-1.5701179504394531
 20
0.6428499221801758
 11
-1.6504783630371094
 21
0.6428499221801758
 97
        0
 92
        1
 93
       12
 72
     1
 10
-1.4897575378417969
 20
0.4870290756225586
 11
-1.4897575378417969
 21
0.6428499221801758
 72
     1
 10
-1.4897575378417969
 20
0.6428499221801758
 11
-1.529937744140625
 21
0.6428499221801758
 72
     1
 10
-1.529937744140625
 20
0.6428499221801758
 11
-1.529937744140625
 21
0.4468488693237305
 72
     1
 10
-1.529937744140625
 20
0.4468488693237305
 11
-1.4495773315429687
 21
0.4468488693237305
 72
     1
 10
-1.4495773315429687
 20
0.4468488693237305
 11
-1.4495773315429687
 21
0.4066686630249023
 72
     1
 10
-1.4495773315429687
 20
0.4066686630249023
 11
-1.4873161315917969
 21
0.4066686630249023
 72
     1
 10
-1.4873161315917969
 20
0.4066686630249023
 11
-1.4873161315917969
 21
0.3664884567260742
 72
     1
 10
-1.4873161315917969
 20
0.3664884567260742
 11
-1.4093971252441406
 21
0.3671903610229492
 72
     1
 10
-1.4093971252441406
 20
0.3671903610229492
 11
-1.4093971252441406
 21
0.6428499221801758
 72
     1
 10
-1.4093971252441406
 20
0.6428499221801758
 11
-1.4495773315429687
 21
0.6428499221801758
 72
     1
 10
-1.4495773315429687
 20
0.6428499221801758
 11
-1.4495773315429687
 21
0.4870290756225586
 72
     1
 10
-1.4495773315429687
 20
0.4870290756225586
 11
-1.4897575378417969
 21
0.4870290756225586
 97
        0
 92
        1
 93
        6
 72
     1
 10
-1.2873420715332031
 20
0.7095327377319336
 11
-1.2873420715332031
 21
0.6428499221801758
 72
     1
 10
-1.2873420715332031
 20
0.6428499221801758
 11
-1.3677024841308594
 21
0.6428499221801758
 72
     1
 10
-1.3677024841308594
 20
0.6428499221801758
 11
-1.3677024841308594
 21
0.4468488693237305
 72
     1
 10
-1.3677024841308594
 20
0.4468488693237305
 11
-1.2471580505371094
 21
0.4468488693237305
 72
     1
 10
-1.2471580505371094
 20
0.4468488693237305
 11
-1.2471580505371094
 21
0.7095327377319336
 72
     1
 10
-1.2471580505371094
 20
0.7095327377319336
 11
-1.2873420715332031
 21
0.7095327377319336
 97
        0
 92
        1
 93
        4
 72
     1
 10
-1.2873420715332031
 20
0.6026697158813477
 11
-1.2873420715332031
 21
0.4870290756225586
 72
     1
 10
-1.2873420715332031
 20
0.4870290756225586
 11
-1.3275184631347656
 21
0.4870290756225586
 72
     1
 10
-1.3275184631347656
 20
0.4870290756225586
 11
-1.3275184631347656
 21
0.6026697158813477
 72
     1
 10
-1.3275184631347656
 20
0.6026697158813477
 11
-1.2873420715332031
 21
0.6026697158813477
 97
        0
 75
     0
 76
     1
 98
        1
 10
0.0
 20
0.0
  0
HATCH
  5
34E
100
AcDbEntity
  8
0
370
    15
390
0
  6
Continuous
 62
   174
100
AcDbHatch
 10
0.0
 20
0.0
 30
0.0
210
0.0
220
0.0
230
1.0
  2
SOLID
 70
     1
 71
     0
 91
        8
 92
        1
 93
        6
 72
     1
 10
-1.1266212463378906
 20
0.6026697158813477
 11
-1.1266212463378906
 21
0.6428499221801758
 72
     1
 10
-1.1266212463378906
 20
0.6428499221801758
 11
-1.2069816589355469
 21
0.6428499221801758
 72
     1
 10
-1.2069816589355469
 20
0.6428499221801758
 11
-1.2069816589355469
 21
0.4468488693237305
 72
     1
 10
-1.2069816589355469
 20
0.4468488693237305
 11
-1.1668014526367187
 21
0.4468488693237305
 72
     1
 10
-1.1668014526367187
 20
0.4468488693237305
 11
-1.1668014526367187
 21
0.6026697158813477
 72
     1
 10
-1.1668014526367187
 20
0.6026697158813477
 11
-1.1266212463378906
 21
0.6026697158813477
 97
        0
 92
        1
 93
        8
 72
     1
 10
-0.8855400085449219
 20
0.4870290756225586
 11
-0.8855400085449219
 21
0.6428499221801758
 72
     1
 10
-0.8855400085449219
 20
0.6428499221801758
 11
-0.92572021484375
 21
0.6428499221801758
 72
     1
 10
-0.92572021484375
 20
0.6428499221801758
 11
-0.92572021484375
 21
0.4468488693237305
 72
     1
 10
-0.92572021484375
 20
0.4468488693237305
 11
-0.8051795959472656
 21
0.4468488693237305
 72
     1
 10
-0.8051795959472656
 20
0.4468488693237305
 11
-0.8051795959472656
 21
0.6428499221801758
 72
     1
 10
-0.8051795959472656
 20
0.6428499221801758
 11
-0.8453598022460938
 21
0.6428499221801758
 72
     1
 10
-0.8453598022460938
 20
0.6428499221801758
 11
-0.8453598022460938
 21
0.4870290756225586
 72
     1
 10
-0.8453598022460938
 20
0.4870290756225586
 11
-0.8855400085449219
 21
0.4870290756225586
 97
        0
 92
        1
 93
        4
 72
     1
 10
-0.7248191833496094
 20
0.4468488693237305
 11
-0.7248191833496094
 21
0.7095327377319336
 72
     1
 10
-0.7248191833496094
 20
0.7095327377319336
 11
-0.7649993896484375
 21
0.7095327377319336
 72
     1
 10
-0.7649993896484375
 20
0.7095327377319336
 11
-0.7649993896484375
 21
0.4468488693237305
 72
     1
 10
-0.7649993896484375
 20
0.4468488693237305
 11
-0.7248191833496094
 21
0.4468488693237305
 97
        0
 92
        1
 93
        4
 72
     1
 10
-0.6444587707519531
 20
0.6693525314331055
 11
-0.6444587707519531
 21
0.7095327377319336
 72
     1
 10
-0.6444587707519531
 20
0.7095327377319336
 11
-0.6846389770507813
 21
0.7095327377319336
 72
     1
 10
-0.6846389770507813
 20
0.7095327377319336
 11
-0.6846389770507813
 21
0.6693525314331055
 72
     1
 10
-0.6846389770507813
 20
0.6693525314331055
 11
-0.6444587707519531
 21
0.6693525314331055
 97
        0
 92
        1
 93
        4
 72
     1
 10
-0.6444587707519531
 20
0.4468488693237305
 11
-0.6444587707519531
 21
0.6428499221801758
 72
     1
 10
-0.6444587707519531
 20
0.6428499221801758
 11
-0.6846389770507813
 21
0.6428499221801758
 72
     1
 10
-0.6846389770507813
 20
0.6428499221801758
 11
-0.6846389770507813
 21
0.4468488693237305
 72
     1
 10
-0.6846389770507813
 20
0.4468488693237305
 11
-0.6444587707519531
 21
0.4468488693237305
 97
        0
 92
        1
 93
        8
 72
     1
 10
-0.4885368347167969
 20
0.6026697158813477
 11
-0.4885368347167969
 21
0.6428499221801758
 72
     1
 10
-0.4885368347167969
 20
0.6428499221801758
 11
-0.604278564453125
 21
0.6428499221801758
 72
     1
 10
-0.604278564453125
 20
0.6428499221801758
 11
-0.604278564453125
 21
0.4468488693237305
 72
     1
 10
-0.604278564453125
 20
0.4468488693237305
 11
-0.4885368347167969
 21
0.4468488693237305
 72
     1
 10
-0.4885368347167969
 20
0.4468488693237305
 11
-0.4885368347167969
 21
0.4870290756225586
 72
     1
 10
-0.4885368347167969
 20
0.4870290756225586
 11
-0.5640983581542969
 21
0.4870290756225586
 72
     1
 10
-0.5640983581542969
 20
0.4870290756225586
 11
-0.5640983581542969
 21
0.6026697158813477
 72
     1
 10
-0.5640983581542969
 20
0.6026697158813477
 11
-0.4885368347167969
 21
0.6026697158813477
 97
        0
 92
        1
 93
        8
 72
     1
 10
-0.9659004211425781
 20
0.4468488693237305
 11
-0.9659004211425781
 21
0.6428499221801758
 72
     1
 10
-0.9659004211425781
 20
0.6428499221801758
 11
-1.06866455078125
 21
0.6428499221801758
 72
     1
 10
-1.06866455078125
 20
0.6428499221801758
 11
-1.06866455078125
 21
0.6026697158813477
 72
     1
 10
-1.06866455078125
 20
0.6026697158813477
 11
-1.0060806274414062
 21
0.6026697158813477
 72
     1
 10
-1.0060806274414062
 20
0.6026697158813477
 11
-1.0060806274414062
 21
0.5673894882202148
 72
     1
 10
-1.0060806274414062
 20
0.5673894882202148
 11
-1.0864410400390625
 21
0.5673894882202148
 72
     1
 10
-1.0864410400390625
 20
0.5673894882202148
 11
-1.0864410400390625
 21
0.4468488693237305
 72
     1
 10
-1.0864410400390625
 20
0.4468488693237305
 11
-0.9659004211425781
 21
0.4468488693237305
 97
        0
 92
        1
 93
        4
 72
     1
 10
-1.0060806274414062
 20
0.4870290756225586
 11
-1.0060806274414062
 21
0.5272092819213867
 72
     1
 10
-1.0060806274414062
 20
0.5272092819213867
 11
-1.0462608337402344
 21
0.5272092819213867
 72
     1
 10
-1.0462608337402344
 20
0.5272092819213867
 11
-1.0462608337402344
 21
0.4870290756225586
 72
     1
 10
-1.0462608337402344
 20
0.4870290756225586
 11
-1.0060806274414062
 21
0.4870290756225586
 97
        0
 75
     0
 76
     1
 98
        1
 10
0.0
 20
0.0
  0
HATCH
  5
34F
100
AcDbEntity
  8
0
370
    15
390
0
  6
Continuous
 62
   174
100
AcDbHatch
 10
0.0
 20
0.0
 30
0.0
210
0.0
220
0.0
230
1.0
  2
SOLID
 70
     1
 71
     0
 91
        1
 92
        1
 93
       12
 72
     1
 10
-0.321075439453125
 20
0.6026697158813477
 11
-0.321075439453125
 21
0.6428499221801758
 72
     1
 10
-0.321075439453125
 20
0.6428499221801758
 11
-0.4483566284179688
 21
0.6428499221801758
 72
     1
 10
-0.4483566284179688
 20
0.6428499221801758
 11
-0.4483566284179688
 21
0.5247602462768555
 72
     1
 10
-0.4483566284179688
 20
0.5247602462768555
 11
-0.3612556457519531
 21
0.5247602462768555
 72
     1
 10
-0.3612556457519531
 20
0.5247602462768555
 11
-0.3612556457519531
 21
0.4870290756225586
 72
     1
 10
-0.3612556457519531
 20
0.4870290756225586
 11
-0.4483566284179688
 21
0.4870290756225586
 72
     1
 10
-0.4483566284179688
 20
0.4870290756225586
 11
-0.4483566284179688
 21
0.4468488693237305
 72
     1
 10
-0.4483566284179688
 20
0.4468488693237305
 11
-0.321075439453125
 21
0.4468488693237305
 72
     1
 10
-0.321075439453125
 20
0.4468488693237305
 11
-0.321075439453125
 21
0.5649404525756836
 72
     1
 10
-0.321075439453125
 20
0.5649404525756836
 11
-0.4081764221191406
 21
0.5649404525756836
 72
     1
 10
-0.4081764221191406
 20
0.5649404525756836
 11
-0.4081764221191406
 21
0.6026697158813477
 72
     1
 10
-0.4081764221191406
 20
0.6026697158813477
 11
-0.321075439453125
 21
0.6026697158813477
 97
        0
 75
     0
 76
     1
 98
        1
 10
0.0
 20
0.0
  0
TEXT
  5
350
100
AcDbEntity
  8
0
370
     0
390
0
  6
Continuous
 62
     7
100
AcDbText
 10
-0.35696
 20
0.701753
 30
0.0
 40
0.04606
  1
R
 41
1.125
  7
Vcadd_SIMP
100
AcDbText
  0
TEXT
  5
351
100
AcDbEntity
  8
0
370
     0
390
0
  6
Continuous
 62
     7
100
AcDbText
 10
-0.997707
 20
0.348435
 30
0.0
 40
0.062
  1
CORPORATION
  7
Vcadd_SIMP
100
AcDbText
  0
TEXT
  5
352
100
AcDbEntity
  8
0
370
     0
390
0
  6
Continuous
 62
     7
100
AcDbText
 10
-1.766025
 20
0.256787
 30
0.0
 40
0.062
  1
1500 WEST UNIVERSITY PKWY
  7
Vcadd_SIMP
100
AcDbText
  0
TEXT
  5
353
100
AcDbEntity
  8
0
370
     0
390
0
  6
Continuous
 62
     7
100
AcDbText
 10
-1.766025
 20
0.163787
 30
0.0
 40
0.062
  1
SARASOTA, FLORIDA 34243, USA
  7
Vcadd_SIMP
100
AcDbText
  0
TEXT
  5
354
100
AcDbEntity
  8
0
370
     0
390
0
  6
Continuous
 62
     7
100
AcDbText
 10
-1.766025
 20
0.070787
 30
0.0
 40
0.062
  1
TELEPHONE (941) 355-2983
  7
Vcadd_SIMP
100
AcDbText
  0
ENDBLK
  5
355
100
AcDbEntity
  8
0
390
0
100
AcDbBlockEnd
  0
BLOCK
  5
4F4
100
AcDbEntity
  8
0
390
0
100
AcDbBlockBegin
  2
STAR
 70
     0
 10
0.0
 20
0.0
 30
0.0
  3
STAR
  1

  0
LINE
  5
4F5
100
AcDbEntity
  8
TEXT
370
     0
390
0
  6
Continuous
 62
     7
100
AcDbLine
 10
-0.051824
 20
0.067483
 30
0.0
 11
-0.003074
 21
0.172028
 31
0.0
  0
LINE
  5
4F6
100
AcDbEntity
  8
TEXT
370
     0
390
0
  6
Continuous
 62
     7
100
AcDbLine
 10
0.045675
 20
0.067483
 30
0.0
 11
-0.003074
 21
0.172028
 31
0.0
  0
LINE
  5
4F7
100
AcDbEntity
  8
TEXT
370
     0
390
0
  6
Continuous
 62
     7
100
AcDbLine
 10
0.045675
 20
0.067483
 30
0.0
 11
0.160171
 21
0.053424
 31
0.0
  0
LINE
  5
4F8
100
AcDbEntity
  8
TEXT
370
     0
390
0
  6
Continuous
 62
     7
100
AcDbLine
 10
0.075806
 20
-0.025247
 30
0.0
 11
0.097816
 21
-0.138481
 31
0.0
  0
LINE
  5
4F9
100
AcDbEntity
  8
TEXT
370
     0
390
0
  6
Continuous
 62
     7
100
AcDbLine
 10
0.075806
 20
-0.025247
 30
0.0
 11
0.160171
 21
0.053424
 31
0.0
  0
LINE
  5
4FA
100
AcDbEntity
  8
TEXT
370
     0
390
0
  6
Continuous
 62
     7
100
AcDbLine
 10
-0.003074
 20
-0.082557
 30
0.0
 11
0.097816
 21
-0.138481
 31
0.0
  0
LINE
  5
4FB
100
AcDbEntity
  8
TEXT
370
     0
390
0
  6
Continuous
 62
     7
100
AcDbLine
 10
-0.003074
 20
-0.082556
 30
0.0
 11
-0.103965
 21
-0.138481
 31
0.0
  0
LINE
  5
4FC
100
AcDbEntity
  8
TEXT
370
     0
390
0
  6
Continuous
 62
     7
100
AcDbLine
 10
-0.081954
 20
-0.025246
 30
0.0
 11
-0.166319
 21
0.053424
 31
0.0
  0
LINE
  5
4FD
100
AcDbEntity
  8
TEXT
370
     0
390
0
  6
Continuous
 62
     7
100
AcDbLine
 10
-0.051824
 20
0.067482
 30
0.0
 11
-0.166319
 21
0.053424
 31
0.0
  0
LINE
  5
4FE
100
AcDbEntity
  8
TEXT
370
     0
390
0
  6
Continuous
 62
     7
100
AcDbLine
 10
-0.081954
 20
-0.025247
 30
0.0
 11
-0.103965
 21
-0.138481
 31
0.0
  0
ENDBLK
  5
4FF
100
AcDbEntity
  8
0
390
0
100
AcDbBlockEnd
  0
ENDSEC
  0
SECTION
  2
ENTITIES
  0
VIEWPORT
  5
76
100
AcDbEntity
 67
     1
  8
0
390
0
  6
Continuous
 62
     0
100
AcDbViewport
 10
4.5
 20
3.259162
 30
0.0
 40
12.857143
 41
9.311892
 68
     1
 69
     1
 12
762.9316
 22
546.5183
 13
1169.457242
 23
377.488
 14
0.5
 24
0.5
 15
12.0
 25
12.0
 16
0.0
 26
0.0
 36
1.0
 17
0.0
 27
0.0
 37
0.0
 42
50.0
 43
-55.0
 44
-55.0
 45
1084.5
 50
0.0
 51
0.0
 72
   500
 90
        0
340
0
  1

281
     0
 71
     1
 74
     0
110
0.0
120
0.0
130
0.0
111
1.0
121
0.0
131
0.0
112
0.0
122
1.0
132
0.0
345
0
346
0
 79
     0
146
0.0
  0
TEXT
  5
77
100
AcDbEntity
  8
0
370
     0
390
0
  6
Continuous
 62
     7
100
AcDbText
 10
6.092803
 20
7.031964
 30
0.0
 40
0.062
  1
             
  7
Vcadd_SIMP
100
AcDbText
  0
TEXT
  5
78
100
AcDbEntity
  8
0
370
     0
390
0
  6
Continuous
 62
     7
100
AcDbText
 10
7.440976
 20
7.049628
 30
0.0
 40
0.062
  1
                 
  7
Vcadd_SIMP
100
AcDbText
  0
LINE
  5
79
100
AcDbEntity
  8
SEAL_RETAINER
370
     0
390
0
  6
Continuous
 62
     1
100
AcDbLine
 10
5.4716
 20
7.837798
 30
0.0
 11
5.4716
 21
7.716811
 31
0.0
  0
TEXT
  5
7A
100
AcDbEntity
  8
SEAL_RETAINER
370
     0
390
0
  6
Continuous
 62
     7
100
AcDbText
 10
3.867948
 20
7.807548
 30
0.0
 40
0.071
  1
0.000
  7
Vcadd_SIMP
100
AcDbText
  0
TEXT
  5
7B
100
AcDbEntity
  8
SEAL_RETAINER
370
     0
390
0
  6
Continuous
 62
     7
100
AcDbText
 10
4.250604
 20
7.87607
 30
0.0
 40
0.071
  1
L.S.
  7
Vcadd_SIMP
100
AcDbText
  0
LINE
  5
7C
100
AcDbEntity
  8
0
370
     0
390
0
  6
Continuous
 62
     1
100
AcDbLine
 10
4.947437
 20
7.803123
 30
0.0
 11
4.884428
 21
7.693489
 31
0.0
  0
LINE
  5
7D
100
AcDbEntity
  8
0
370
     0
390
0
  6
Continuous
 62
     1
100
AcDbLine
 10
4.90408
 20
7.803123
 30
0.0
 11
4.947437
 21
7.803123
 31
0.0
  0
LINE
  5
7E
100
AcDbEntity
  8
0
370
     0
390
0
  6
Continuous
 62
     1
100
AcDbLine
 10
4.884434
 20
7.693498
 30
0.0
 11
4.858233
 21
7.73888
 31
0.0
  0
TEXT
  5
7F
100
AcDbEntity
  8
SEAL_RETAINER
370
     0
390
0
  6
Continuous
 62
     7
100
AcDbText
 10
4.804968
 20
7.749365
 30
0.0
 40
0.051546
  1
63
  7
Vcadd_SIMP
100
AcDbText
  0
TEXT
  5
80
100
AcDbEntity
  8
SEAL_RETAINER
370
     0
390
0
  6
Continuous
 62
     7
100
AcDbText
 10
4.236364
 20
7.709668
 30
0.0
 40
0.071
  1
1.031
  7
Vcadd_SIMP
100
AcDbText
  0
TEXT
  5
81
100
AcDbEntity
  8
SEAL_RETAINER
370
     0
390
0
  6
Continuous
 62
     7
100
AcDbText
 10
4.236364
 20
7.614686
 30
0.0
 40
0.071
  1
1.033
  7
Vcadd_SIMP
100
AcDbText
  0
LINE
  5
82
100
AcDbEntity
  8
SEAL_RETAINER
370
     0
390
0
  6
Continuous
 62
     7
100
AcDbLine
 10
4.603365
 20
7.656428
 30
0.0
 11
4.643379
 21
7.740595
 31
0.0
  0
TEXT
  5
83
100
AcDbEntity
  8
SEAL_RETAINER
370
     0
390
0
  6
Continuous
 62
     7
100
AcDbText
 10
4.593256
 20
7.65991
 30
0.0
 40
0.081375
  1
O
  7
Vcadd_SIMP
100
AcDbText
  0
LINE
  5
84
100
AcDbEntity
  8
SEAL_RETAINER
370
     0
390
0
  6
Continuous
 62
     1
100
AcDbLine
 10
4.980142
 20
7.693498
 30
0.0
 11
5.038476
 21
7.75603
 31
0.0
  0
LINE
  5
85
100
AcDbEntity
  8
SEAL_RETAINER
370
     0
390
0
  6
Continuous
 62
     1
100
AcDbLine
 10
5.038476
 20
7.75603
 30
0.0
 11
5.348031
 21
7.75603
 31
0.0
  0
LINE
  5
86
100
AcDbEntity
  8
SEAL_RETAINER
370
     0
390
0
  6
Continuous
 62
     1
100
AcDbLine
 10
4.679743
 20
7.693498
 30
0.0
 11
4.980142
 21
7.693498
 31
0.0
  0
LINE
  5
87
100
AcDbEntity
  8
SEAL_RETAINER
370
     0
390
0
  6
Continuous
 62
     1
100
AcDbLine
 10
5.191792
 20
7.681798
 30
0.0
 11
5.010135
 21
7.54438
 31
0.0
  0
LINE
  5
88
100
AcDbEntity
  8
SEAL_RETAINER
370
     0
390
0
  6
Continuous
 62
     1
100
AcDbLine
 10
5.311453
 20
7.681798
 30
0.0
 11
5.191792
 21
7.681798
 31
0.0
  0
LINE
  5
89
100
AcDbEntity
  8
0
370
     0
390
0
  6
Continuous
 62
     1
100
AcDbLine
 10
4.949521
 20
8.208217
 30
0.0
 11
4.886513
 21
8.098583
 31
0.0
  0
LINE
  5
8A
100
AcDbEntity
  8
0
370
     0
390
0
  6
Continuous
 62
     1
100
AcDbLine
 10
4.906164
 20
8.208217
 30
0.0
 11
4.949521
 21
8.208217
 31
0.0
  0
LINE
  5
8B
100
AcDbEntity
  8
0
370
     0
390
0
  6
Continuous
 62
     1
100
AcDbLine
 10
4.886519
 20
8.098592
 30
0.0
 11
4.860317
 21
8.143974
 31
0.0
  0
TEXT
  5
8C
100
AcDbEntity
  8
SEAL_RETAINER
370
     0
390
0
  6
Continuous
 62
     7
100
AcDbText
 10
4.238449
 20
8.114754
 30
0.0
 40
0.071
  1
1.078
  7
Vcadd_SIMP
100
AcDbText
  0
TEXT
  5
8D
100
AcDbEntity
  8
SEAL_RETAINER
370
     0
390
0
  6
Continuous
 62
     7
100
AcDbText
 10
4.238449
 20
8.026004
 30
0.0
 40
0.071
  1
1.080
  7
Vcadd_SIMP
100
AcDbText
  0
TEXT
  5
8E
100
AcDbEntity
  8
SEAL_RETAINER
370
     0
390
0
  6
Continuous
 62
     7
100
AcDbText
 10
4.807053
 20
8.15446
 30
0.0
 40
0.051546
  1
63
  7
Vcadd_SIMP
100
AcDbText
  0
LINE
  5
8F
100
AcDbEntity
  8
SEAL_RETAINER
370
     0
390
0
  6
Continuous
 62
     1
100
AcDbLine
 10
5.397459
 20
7.868798
 30
0.0
 11
5.582276
 21
7.868798
 31
0.0
  0
LINE
  5
90
100
AcDbEntity
  8
SEAL_RETAINER
370
     0
390
0
  6
Continuous
 62
     1
100
AcDbLine
 10
5.369788
 20
7.837798
 30
0.0
 11
5.70969
 21
7.837798
 31
0.0
  0
LINE
  5
91
100
AcDbEntity
  8
TEXT
370
     0
390
0
  6
Continuous
 62
     1
100
AcDbLine
 10
4.72987
 20
8.280738
 30
0.0
 11
4.72987
 21
8.280738
 31
0.0
  0
LINE
  5
92
100
AcDbEntity
  8
SEAL_RETAINER
370
     0
390
0
  6
Continuous
 62
     1
100
AcDbLine
 10
4.679743
 20
8.098583
 30
0.0
 11
5.324037
 21
8.098583
 31
0.0
  0
LINE
  5
93
100
AcDbEntity
  8
SEAL_RETAINER
370
     0
390
0
  6
Continuous
 62
     7
100
AcDbLine
 10
4.604428
 20
8.061513
 30
0.0
 11
4.644442
 21
8.145681
 31
0.0
  0
TEXT
  5
94
100
AcDbEntity
  8
SEAL_RETAINER
370
     0
390
0
  6
Continuous
 62
     7
100
AcDbText
 10
4.594319
 20
8.064996
 30
0.0
 40
0.081375
  1
O
  7
Vcadd_SIMP
100
AcDbText
  0
LINE
  5
95
100
AcDbEntity
  8
TEXT
370
     0
390
0
  6
Continuous
 62
     1
100
AcDbLine
 10
4.570864
 20
8.098583
 30
0.0
 11
4.228512
 21
8.098583
 31
0.0
  0
TEXT
  5
96
100
AcDbEntity
  8
SEAL_RETAINER
370
     0
390
0
  6
Continuous
 62
     7
100
AcDbText
 10
4.796261
 20
8.397907
 30
0.0
 40
0.053
  1
.031 R
  7
Vcadd_SIMP
100
AcDbText
  0
TEXT
  5
97
100
AcDbEntity
  8
SEAL_RETAINER
370
     0
390
0
  6
Continuous
 62
     7
100
AcDbText
 10
4.796261
 20
8.318407
 30
0.0
 40
0.053
  1
 **
  7
Vcadd_SIMP
100
AcDbText
  0
LINE
  5
98
100
AcDbEntity
  8
SEAL_RETAINER
370
     0
390
0
  6
Continuous
 62
     1
100
AcDbLine
 10
5.113461
 20
8.422531
 30
0.0
 11
5.196285
 21
8.422531
 31
0.0
  0
LINE
  5
99
100
AcDbEntity
  8
SEAL_RETAINER
370
     0
390
0
  6
Continuous
 62
     1
100
AcDbLine
 10
5.196285
 20
8.422531
 30
0.0
 11
5.324037
 21
8.525798
 31
0.0
  0
LINE
  5
9A
100
AcDbEntity
  8
HEX_BODY
370
     0
390
0
  6
Continuous
 62
     7
100
AcDbLine
 10
3.37337
 20
8.225826
 30
0.0
 11
3.440972
 21
8.225826
 31
0.0
  0
LINE
  5
9B
100
AcDbEntity
  8
HEX_BODY
370
     0
390
0
  6
Continuous
 62
     7
100
AcDbLine
 10
3.49817
 20
8.126753
 30
0.0
 11
3.440972
 21
8.225826
 31
0.0
  0
CIRCLE
  5
9C
100
AcDbEntity
  8
HEX_BODY
370
     0
390
0
  6
Continuous
 62
     1
100
AcDbCircle
 10
3.437991
 20
8.195444
 30
0.0
 40
0.138354
  0
LINE
  5
9D
100
AcDbEntity
  8
HEX_BODY
370
     0
390
0
  6
Continuous
 62
     7
100
AcDbLine
 10
3.37337
 20
8.225826
 30
0.0
 11
3.37337
 21
8.318817
 31
0.0
  0
LINE
  5
9E
100
AcDbEntity
  8
HEX_BODY
370
     0
390
0
  6
Continuous
 62
     7
100
AcDbLine
 10
3.49817
 20
8.070862
 30
0.0
 11
3.49817
 21
8.126753
 31
0.0
  0
LINE
  5
9F
100
AcDbEntity
  8
HEX_BODY
370
     0
390
0
  6
Continuous
 62
     1
100
AcDbLine
 10
3.440972
 20
8.243321
 30
0.0
 11
3.440972
 21
8.504986
 31
0.0
  0
LINE
  5
A0
100
AcDbEntity
  8
HEX_BODY
370
     0
390
0
  6
Continuous
 62
     1
100
AcDbLine
 10
3.300435
 20
8.469244
 30
0.0
 11
3.432397
 21
8.240679
 31
0.0
  0
INSERT
  5
AE
100
AcDbEntity
  8
TEXT
370
    40
390
0
  6
Continuous
 62
     1
100
AcDbBlockReference
  2
MAU
 10
3.440972
 20
8.462324
 30
0.0
 41
0.5
 42
-0.5
 50
270.0
  0
LINE
  5
AF
100
AcDbEntity
  8
TEXT
370
     0
390
0
  6
Continuous
 62
     1
100
AcDbLine
 10
3.567313
 20
8.462324
 30
0.0
 11
3.440972
 21
8.462324
 31
0.0
  0
INSERT
  5
BD
100
AcDbEntity
  8
TEXT
370
    53
390
0
  6
Continuous
 62
     1
100
AcDbBlockReference
  2
MAL
 10
3.322972
 20
8.430208
 30
0.0
 41
0.5
 42
-0.5
 50
205.0
  0
LINE
  5
BE
100
AcDbEntity
  8
TEXT
370
     0
390
0
  6
Continuous
 62
     1
100
AcDbLine
 10
3.216187
 20
8.374964
 30
0.0
 11
3.322972
 21
8.430208
 31
0.0
  0
INSERT
  5
BF
100
AcDbEntity
  8
TEXT
370
    40
390
0
  6
Continuous
 62
     1
100
AcDbBlockReference
  2
MAU
 10
3.440972
 20
8.283138
 30
0.0
 41
0.5
 42
-0.5
 50
270.0
  0
LINE
  5
C0
100
AcDbEntity
  8
TEXT
370
     0
390
0
  6
Continuous
 62
     1
100
AcDbLine
 10
3.648135
 20
8.283138
 30
0.0
 11
3.440972
 21
8.283138
 31
0.0
  0
LINE
  5
C1
100
AcDbEntity
  8
SEAL_RETAINER
370
     0
390
0
  6
Continuous
 62
     7
100
AcDbLine
 10
4.004155
 20
8.243869
 30
0.0
 11
4.044169
 21
8.328037
 31
0.0
  0
TEXT
  5
C2
100
AcDbEntity
  8
SEAL_RETAINER
370
     0
390
0
  6
Continuous
 62
     7
100
AcDbText
 10
3.994045
 20
8.247352
 30
0.0
 40
0.081375
  1
O
  7
Vcadd_SIMP
100
AcDbText
  0
LINE
  5
C3
100
AcDbEntity
  8
TEXT
370
     0
390
0
  6
Continuous
 62
     1
100
AcDbLine
 10
3.648135
 20
8.283138
 30
0.0
 11
3.976673
 21
8.283138
 31
0.0
  0
ARC
  5
C4
100
AcDbEntity
  8
SEAL_RETAINER
370
     0
390
0
  6
Continuous
 62
     1
100
AcDbCircle
 10
5.324037
 20
8.525798
 30
0.0
 40
0.365962
100
AcDbArc
 50
315.0
 51
334.186528
  0
ARC
  5
C5
100
AcDbEntity
  8
SEAL_RETAINER
370
     0
390
0
  6
Continuous
 62
     1
100
AcDbCircle
 10
5.324037
 20
8.525798
 30
0.0
 40
0.365962
100
AcDbArc
 50
248.456372
 51
270.0
  0
LINE
  5
C6
100
AcDbEntity
  8
SEAL_RETAINER
370
     0
390
0
  6
Continuous
 62
     1
100
AcDbLine
 10
5.371388
 20
8.478448
 30
0.0
 11
5.640291
 21
8.209544
 31
0.0
  0
LINE
  5
C7
100
AcDbEntity
  8
SEAL_RETAINER
370
     0
390
0
  6
Continuous
 62
     1
100
AcDbLine
 10
5.582276
 20
7.868798
 30
0.0
 11
5.582276
 21
8.237931
 31
0.0
  0
ARC
  5
C8
100
AcDbEntity
  8
SEAL_RETAINER
370
     0
390
0
  6
Continuous
 62
     1
100
AcDbCircle
 10
5.396531
 20
7.6333
 30
0.0
 40
0.365962
100
AcDbArc
 50
315.0
 51
334.186528
  0
ARC
  5
C9
100
AcDbEntity
  8
SEAL_RETAINER
370
     0
390
0
  6
Continuous
 62
     1
100
AcDbCircle
 10
5.396531
 20
7.6333
 30
0.0
 40
0.365962
100
AcDbArc
 50
248.456372
 51
270.0
  0
TEXT
  5
CA
100
AcDbEntity
  8
SEAL_RETAINER
370
     0
390
0
  6
Continuous
 62
     7
100
AcDbText
 10
5.442856
 20
7.31609
 30
0.0
 40
0.071
  1
45^  
  7
Vcadd_SIMP
100
AcDbText
  0
CIRCLE
  5
CC
100
AcDbEntity
  8
HEX_BODY
370
     0
390
0
  6
DIVIDE
 62
     1
100
AcDbCircle
 10
5.337499
 20
7.829574
 30
0.0
 40
0.050917
  0
LINE
  5
CD
100
AcDbEntity
  8
HEX_BODY
370
     0
390
0
  6
DIVIDE
 62
     1
100
AcDbLine
 10
3.567929
 20
8.302002
 30
0.0
 11
3.474165
 21
8.324432
 31
0.0
  0
LINE
  5
CE
100
AcDbEntity
  8
HEX_BODY
370
     0
390
0
  6
DIVIDE
 62
     1
100
AcDbLine
 10
5.365202
 20
7.872044
 30
0.0
 11
4.663515
 21
8.039907
 31
0.0
  0
LINE
  5
CF
100
AcDbEntity
  8
HEX_BODY
370
     0
390
0
  6
DIVIDE
 62
     1
100
AcDbLine
 10
4.217636
 20
8.146574
 30
0.0
 11
4.023135
 21
8.193104
 31
0.0
  0
LINE
  5
D0
100
AcDbEntity
  8
HEX_BODY
370
     0
390
0
  6
DIVIDE
 62
     1
100
AcDbLine
 10
5.322873
 20
7.780773
 30
0.0
 11
4.580036
 21
7.889596
 31
0.0
  0
LINE
  5
D1
100
AcDbEntity
  8
HEX_BODY
370
     0
390
0
  6
DIVIDE
 62
     1
100
AcDbLine
 10
4.196992
 20
7.945711
 30
0.0
 11
3.412259
 21
8.060671
 31
0.0
  0
TEXT
  5
D2
100
AcDbEntity
  8
SEAL_RETAINER
370
     0
390
0
  6
Continuous
 62
     7
100
AcDbText
 10
3.589886
 20
8.427958
 30
0.0
 40
0.071
  1
30^ **
  7
Vcadd_SIMP
100
AcDbText
  0
TEXT
  5
D3
100
AcDbEntity
  8
SEAL_RETAINER
370
     0
390
0
  6
Continuous
 62
     7
100
AcDbText
 10
5.370362
 20
8.208588
 30
0.0
 40
0.071
  1
45^  
  7
Vcadd_SIMP
100
AcDbText
  0
TEXT
  5
D4
100
AcDbEntity
  8
SEAL_RETAINER
370
     0
390
0
  6
Continuous
 62
     7
100
AcDbText
 10
5.370362
 20
8.119838
 30
0.0
 40
0.071
  1
**
  7
Vcadd_SIMP
100
AcDbText
  0
LINE
  5
D5
100
AcDbEntity
  8
SEAL_RETAINER
370
     0
390
0
  6
Continuous
 62
     1
100
AcDbLine
 10
5.4716
 20
7.868798
 30
0.0
 11
5.4716
 21
8.107047
 31
0.0
  0
LINE
  5
D6
100
AcDbEntity
  8
SEAL_RETAINER
370
     0
390
0
  6
Continuous
 62
     1
100
AcDbLine
 10
4.178376
 20
7.747092
 30
0.0
 11
4.077981
 21
7.747092
 31
0.0
  0
LINE
  5
D7
100
AcDbEntity
  8
SEAL_RETAINER
370
     0
390
0
  6
Continuous
 62
     1
100
AcDbLine
 10
4.178376
 20
7.747092
 30
0.0
 11
4.077981
 21
7.747092
 31
0.0
  0
LINE
  5
D8
100
AcDbEntity
  8
SEAL_RETAINER
370
     0
390
0
  6
Continuous
 62
     1
100
AcDbLine
 10
4.178376
 20
7.643329
 30
0.0
 11
4.077981
 21
7.643329
 31
0.0
  0
LINE
  5
D9
100
AcDbEntity
  8
SEAL_RETAINER
370
     0
390
0
  6
Continuous
 62
     1
100
AcDbLine
 10
4.077981
 20
7.643329
 30
0.0
 11
4.0664
 21
7.643329
 31
0.0
  0
LINE
  5
DA
100
AcDbEntity
  8
SEAL_RETAINER
370
     0
390
0
  6
Continuous
 62
     1
100
AcDbLine
 10
4.0664
 20
7.643329
 30
0.0
 11
4.0664
 21
7.747092
 31
0.0
  0
LINE
  5
DB
100
AcDbEntity
  8
SEAL_RETAINER
370
     0
390
0
  6
Continuous
 62
     1
100
AcDbLine
 10
4.0664
 20
7.747092
 30
0.0
 11
4.09543
 21
7.747092
 31
0.0
  0
LINE
  5
DC
100
AcDbEntity
  8
SEAL_RETAINER
370
     0
390
0
  6
Continuous
 62
     1
100
AcDbLine
 10
4.178376
 20
7.643329
 30
0.0
 11
4.186605
 21
7.643329
 31
0.0
  0
LINE
  5
DD
100
AcDbEntity
  8
SEAL_RETAINER
370
     0
390
0
  6
Continuous
 62
     1
100
AcDbLine
 10
4.186605
 20
7.643329
 30
0.0
 11
4.186605
 21
7.747092
 31
0.0
  0
LINE
  5
DE
100
AcDbEntity
  8
SEAL_RETAINER
370
     0
390
0
  6
Continuous
 62
     1
100
AcDbLine
 10
4.186605
 20
7.747092
 30
0.0
 11
4.149945
 21
7.747092
 31
0.0
  0
TEXT
  5
DF
100
AcDbEntity
  8
SEAL_RETAINER
370
     0
390
0
  6
Continuous
 62
     7
100
AcDbText
 10
4.092988
 20
7.662055
 30
0.0
 40
0.071
  1
A
  7
Vcadd_SIMP
100
AcDbText
  0
LINE
  5
E0
100
AcDbEntity
  8
TEXT
370
     0
390
0
  6
Continuous
 62
     1
100
AcDbLine
 10
4.570864
 20
7.693498
 30
0.0
 11
4.186605
 21
7.693498
 31
0.0
  0
TEXT
  5
E1
100
AcDbEntity
  8
SEAL_RETAINER
370
     0
390
0
  6
Continuous
 62
     7
100
AcDbText
 10
3.725057
 20
8.060056
 30
0.0
 40
0.071
  1
L.S.
  7
Vcadd_SIMP
100
AcDbText
  0
LINE
  5
E2
100
AcDbEntity
  8
SEAL_RETAINER
370
     0
390
0
  6
Continuous
 62
     1
100
AcDbLine
 10
3.542604
 20
8.225826
 30
0.0
 11
3.657475
 21
8.090236
 31
0.0
  0
LINE
  5
E3
100
AcDbEntity
  8
SEAL_RETAINER
370
     0
390
0
  6
Continuous
 62
     1
100
AcDbLine
 10
3.657475
 20
8.090236
 30
0.0
 11
3.700238
 21
8.090236
 31
0.0
  0
LINE
  5
E4
100
AcDbEntity
  8
SEAL_RETAINER
370
     0
390
0
  6
Continuous
 62
     1
100
AcDbLine
 10
3.493973
 20
8.225826
 30
0.0
 11
3.542604
 21
8.225826
 31
0.0
  0
LINE
  5
E5
100
AcDbEntity
  8
0
370
     0
390
0
  6
Continuous
 62
     1
100
AcDbLine
 10
6.403538
 20
7.837798
 30
0.0
 11
6.403538
 21
8.525798
 31
0.0
  0
LINE
  5
E6
100
AcDbEntity
  8
0
370
     0
390
0
  6
Continuous
 62
     1
100
AcDbLine
 10
6.380038
 20
7.820478
 30
0.0
 11
6.380038
 21
7.681798
 31
0.0
  0
LINE
  5
E7
100
AcDbEntity
  8
0
370
     0
390
0
  6
Continuous
 62
     1
100
AcDbLine
 10
6.390038
 20
7.837798
 30
0.0
 11
6.380038
 21
7.820478
 31
0.0
  0
LINE
  5
E8
100
AcDbEntity
  8
0
370
     0
390
0
  6
Continuous
 62
     1
100
AcDbLine
 10
6.403538
 20
7.837798
 30
0.0
 11
6.390038
 21
7.837798
 31
0.0
  0
LINE
  5
E9
100
AcDbEntity
  8
0
370
     0
390
0
  6
Continuous
 62
     1
100
AcDbLine
 10
6.331538
 20
6.743798
 30
0.0
 11
6.312038
 21
6.710023
 31
0.0
  0
LINE
  5
EB
100
AcDbEntity
  8
0
370
     0
390
0
  6
CL____X1
 62
     1
100
AcDbLine
 10
6.364038
 20
7.665798
 30
0.0
 11
6.364038
 21
7.212798
 31
0.0
  0
LINE
  5
EC
100
AcDbEntity
  8
0
370
     0
390
0
  6
CL____X1
 62
     1
100
AcDbLine
 10
6.380038
 20
7.681798
 30
0.0
 11
6.331538
 21
7.633298
 31
0.0
  0
LINE
  5
ED
100
AcDbEntity
  8
0
370
     0
390
0
  6
Continuous
 62
     1
100
AcDbLine
 10
6.331538
 20
7.633298
 30
0.0
 11
6.331538
 21
6.743798
 31
0.0
  0
LINE
  5
EE
100
AcDbEntity
  8
0
370
     0
390
0
  6
Continuous
 62
     1
100
AcDbLine
 10
6.312038
 20
5.790777
 30
0.0
 11
6.291538
 21
5.75527
 31
0.0
  0
LINE
  5
EF
100
AcDbEntity
  8
0
370
     0
390
0
  6
Continuous
 62
     1
100
AcDbLine
 10
6.312038
 20
6.710023
 30
0.0
 11
6.312038
 21
5.790777
 31
0.0
  0
LINE
  5
F0
100
AcDbEntity
  8
0
370
     0
390
0
  6
Continuous
 62
     1
100
AcDbLine
 10
6.270538
 20
3.868777
 30
0.0
 11
6.250038
 21
3.83327
 31
0.0
  0
LINE
  5
F1
100
AcDbEntity
  8
0
370
     0
390
0
  6
Continuous
 62
     1
100
AcDbLine
 10
6.250038
 20
3.83327
 30
0.0
 11
6.250038
 21
3.482777
 31
0.0
  0
LINE
  5
F2
100
AcDbEntity
  8
0
370
     0
390
0
  6
Continuous
 62
     1
100
AcDbLine
 10
6.250038
 20
3.482777
 30
0.0
 11
6.235038
 21
3.467777
 31
0.0
  0
LINE
  5
F3
100
AcDbEntity
  8
0
370
     0
390
0
  6
Continuous
 62
     1
100
AcDbLine
 10
6.291538
 20
4.837777
 30
0.0
 11
6.270538
 21
4.801404
 31
0.0
  0
LINE
  5
F4
100
AcDbEntity
  8
0
370
     0
390
0
  6
Continuous
 62
     1
100
AcDbLine
 10
6.291538
 20
5.75527
 30
0.0
 11
6.291538
 21
4.837777
 31
0.0
  0
LINE
  5
F5
100
AcDbEntity
  8
0
370
     0
390
0
  6
Continuous
 62
     1
100
AcDbLine
 10
6.270538
 20
4.801404
 30
0.0
 11
6.270538
 21
3.868777
 31
0.0
  0
LINE
  5
F6
100
AcDbEntity
  8
0
370
     0
390
0
  6
Continuous
 62
     7
100
AcDbLine
 10
6.156558
 20
9.292188
 30
0.0
 11
6.204902
 21
9.292188
 31
0.0
  0
LINE
  5
F7
100
AcDbEntity
  8
0
370
     0
390
0
  6
Continuous
 62
     7
100
AcDbLine
 10
6.497423
 20
9.292188
 30
0.0
 11
6.498038
 21
9.292188
 31
0.0
  0
LINE
  5
F8
100
AcDbEntity
  8
0
370
     0
390
0
  6
Continuous
 62
     7
100
AcDbLine
 10
6.497577
 20
9.292454
 30
0.0
 11
6.419038
 21
9.337798
 31
0.0
  0
LINE
  5
F9
100
AcDbEntity
  8
0
370
     0
390
0
  6
Continuous
 62
     7
100
AcDbLine
 10
6.156558
 20
8.705224
 30
0.0
 11
6.204902
 21
8.705224
 31
0.0
  0
LINE
  5
FA
100
AcDbEntity
  8
0
370
     0
390
0
  6
Continuous
 62
     7
100
AcDbLine
 10
6.497423
 20
8.705224
 30
0.0
 11
6.498038
 21
8.705224
 31
0.0
  0
LINE
  5
FB
100
AcDbEntity
  8
0
370
     0
390
0
  6
Continuous
 62
     7
100
AcDbLine
 10
6.401788
 20
7.902798
 30
0.0
 11
6.322038
 21
7.924167
 31
0.0
  0
LINE
  5
FC
100
AcDbEntity
  8
0
370
     0
390
0
  6
Continuous
 62
     7
100
AcDbLine
 10
6.402038
 20
8.649798
 30
0.0
 11
6.497577
 21
8.704958
 31
0.0
  0
LINE
  5
FD
100
AcDbEntity
  8
0
370
     0
390
0
  6
Continuous
 62
     7
100
AcDbLine
 10
6.322038
 20
8.255362
 30
0.0
 11
6.402038
 21
8.276798
 31
0.0
  0
LINE
  5
FE
100
AcDbEntity
  8
0
370
     0
390
0
  6
Continuous
 62
     7
100
AcDbLine
 10
6.360038
 20
7.627859
 30
0.0
 11
6.328538
 21
7.646045
 31
0.0
  0
LINE
  5
FF
100
AcDbEntity
  8
0
370
     0
390
0
  6
Continuous
 62
     7
100
AcDbLine
 10
6.378538
 20
7.82221
 30
0.0
 11
6.387538
 21
7.837798
 31
0.0
  0
LINE
  5
100
100
AcDbEntity
  8
0
370
     0
390
0
  6
Continuous
 62
     7
100
AcDbLine
 10
6.316038
 20
7.312798
 30
0.0
 11
6.360038
 21
7.356798
 31
0.0
  0
LINE
  5
101
100
AcDbEntity
  8
0
370
     0
390
0
  6
Continuous
 62
     7
100
AcDbLine
 10
6.156558
 20
8.705224
 30
0.0
 11
6.156558
 21
9.292188
 31
0.0
  0
LINE
  5
102
100
AcDbEntity
  8
0
370
     0
390
0
  6
Continuous
 62
     7
100
AcDbLine
 10
6.204902
 20
8.705224
 30
0.0
 11
6.204902
 21
9.292188
 31
0.0
  0
LINE
  5
103
100
AcDbEntity
  8
0
370
     0
390
0
  6
Continuous
 62
     7
100
AcDbLine
 10
6.316038
 20
7.228798
 30
0.0
 11
6.316038
 21
7.312798
 31
0.0
  0
LINE
  5
104
100
AcDbEntity
  8
0
370
     0
390
0
  6
Continuous
 62
     7
100
AcDbLine
 10
6.322038
 20
7.924167
 30
0.0
 11
6.322038
 21
8.255362
 31
0.0
  0
LINE
  5
105
100
AcDbEntity
  8
0
370
     0
390
0
  6
Continuous
 62
     7
100
AcDbLine
 10
6.360038
 20
7.356798
 30
0.0
 11
6.360038
 21
7.627859
 31
0.0
  0
LINE
  5
106
100
AcDbEntity
  8
0
370
     0
390
0
  6
Continuous
 62
     7
100
AcDbLine
 10
6.378538
 20
7.790798
 30
0.0
 11
6.378538
 21
7.82221
 31
0.0
  0
LINE
  5
107
100
AcDbEntity
  8
0
370
     0
390
0
  6
Continuous
 62
     7
100
AcDbLine
 10
6.401788
 20
7.837798
 30
0.0
 11
6.401788
 21
7.902798
 31
0.0
  0
LINE
  5
108
100
AcDbEntity
  8
0
370
     0
390
0
  6
Continuous
 62
     7
100
AcDbLine
 10
6.402038
 20
8.276798
 30
0.0
 11
6.402038
 21
8.321798
 31
0.0
  0
LINE
  5
109
100
AcDbEntity
  8
0
370
     0
390
0
  6
Continuous
 62
     7
100
AcDbLine
 10
6.402038
 20
8.462798
 30
0.0
 11
6.402038
 21
8.649798
 31
0.0
  0
LINE
  5
10A
100
AcDbEntity
  8
0
370
     0
390
0
  6
Continuous
 62
     7
100
AcDbLine
 10
6.497423
 20
8.705224
 30
0.0
 11
6.497423
 21
9.292188
 31
0.0
  0
LINE
  5
10B
100
AcDbEntity
  8
0
370
     0
390
0
  6
Continuous
 62
     7
100
AcDbLine
 10
6.498038
 20
8.705224
 30
0.0
 11
6.498038
 21
9.292188
 31
0.0
  0
ARC
  5
10C
100
AcDbEntity
  8
0
370
     0
390
0
  6
Continuous
 62
     7
100
AcDbCircle
 10
6.335038
 20
7.657304
 30
0.0
 40
0.013
100
AcDbArc
 50
180.0
 51
240.0
  0
SPLINE
  5
10D
100
AcDbEntity
  8
0
370
     0
390
0
  6
Continuous
 62
     7
100
AcDbSpline
210
0.0
220
0.0
230
1.0
 70
     0
 71
     2
 72
     0
 73
     0
 74
     2
 44
0.000001
 12
0.0142650412999998
 22
0.0066704115333351
 32
0.0
 13
0.0191718283033939
 23
0.0076163914954996
 33
0.0
 11
6.2049023386268987
 21
9.2921875470766437
 31
0.0
 11
6.2476974625268999
 21
9.3121987816766456
 31
0.0
  0
SPLINE
  5
10E
100
AcDbEntity
  8
0
370
     0
390
0
  6
Continuous
 62
     7
100
AcDbSpline
210
0.0
220
0.0
230
1.0
 70
     0
 71
     2
 72
     0
 73
     0
 74
     2
 44
0.000001
 12
0.0177457686636124
 22
0.0070498608370464
 32
0.0
 13
0.0185407159824571
 23
0.0045666940057352
 33
0.0
 11
6.2476974625268999
 21
9.3121987816766456
 31
0.0
 11
6.2892861799268998
 21
9.3257107124766456
 31
0.0
  0
SPLINE
  5
10F
100
AcDbEntity
  8
0
370
     0
390
0
  6
Continuous
 62
     7
100
AcDbSpline
210
0.0
220
0.0
230
1.0
 70
     0
 71
     2
 72
     0
 73
     0
 74
     2
 44
0.000001
 12
0.0177400661993374
 22
0.0043694889696013
 32
0.0
 13
0.0182068365845716
 23
0.0015210141994828
 33
0.0
 11
6.2892861799268998
 21
9.3257107124766456
 31
0.0
 11
6.3305542316268992
 21
9.3326069207766444
 31
0.0
  0
SPLINE
  5
110
100
AcDbEntity
  8
0
370
     0
390
0
  6
Continuous
 62
     7
100
AcDbSpline
210
0.0
220
0.0
230
1.0
 70
     0
 71
     2
 72
     0
 73
     0
 74
     2
 44
0.000001
 12
0.0179494044111976
 22
0.0014995081026221
 32
0.0
 13
0.0179492211281893
 23
-0.0015017004221569
 33
0.0
 11
6.3305542316268992
 21
9.3326069207766444
 31
0.0
 11
6.3718029275268995
 21
9.3326042298766438
 31
0.0
  0
SPLINE
  5
111
100
AcDbEntity
  8
0
370
     0
390
0
  6
Continuous
 62
     7
100
AcDbSpline
210
0.0
220
0.0
230
1.0
 70
     0
 71
     2
 72
     0
 73
     0
 74
     2
 44
0.000001
 12
0.0182058041482662
 22
-0.0015231671379965
 32
0.0
 13
0.0177388978662627
 23
-0.0043706801879786
 33
0.0
 11
6.3718029275268995
 21
9.3326042298766438
 31
0.0
 11
6.4130682481269004
 21
9.3257034828766443
 31
0.0
  0
SPLINE
  5
112
100
AcDbEntity
  8
0
370
     0
390
0
  6
Continuous
 62
     7
100
AcDbSpline
210
0.0
220
0.0
230
1.0
 70
     0
 71
     2
 72
     0
 73
     0
 74
     2
 44
0.000001
 12
0.0185328914701905
 22
-0.0045663119651174
 32
0.0
 13
0.0177383097090633
 23
-0.0070478109987384
 33
0.0
 11
6.4130682481269004
 21
9.3257034828766443
 31
0.0
 11
6.454639313426898
 21
9.3121942047766453
 31
0.0
  0
SPLINE
  5
113
100
AcDbEntity
  8
0
370
     0
390
0
  6
Continuous
 62
     7
100
AcDbSpline
210
0.0
220
0.0
230
1.0
 70
     0
 71
     2
 72
     0
 73
     0
 74
     2
 44
0.000001
 12
0.0191664828376883
 22
-0.0076152548222552
 32
0.0
 13
0.014261214733331
 23
-0.0066688859000017
 33
0.0
 11
6.454639313426898
 21
9.3121942047766453
 31
0.0
 11
6.4974229576268963
 21
9.2921875470766437
 31
0.0
  0
SPLINE
  5
114
100
AcDbEntity
  8
0
370
     0
390
0
  6
Continuous
 62
     7
100
AcDbSpline
210
0.0
220
0.0
230
1.0
 70
     0
 71
     2
 72
     0
 73
     0
 74
     2
 44
0.000001
 12
0.0142650412999998
 22
-0.0066704115666667
 32
0.0
 13
0.0191718283127855
 23
-0.0076163915219531
 33
0.0
 11
6.2049023386268978
 21
8.7052238441766434
 31
0.0
 11
6.2476974625268973
 21
8.6852126094766433
 31
0.0
  0
SPLINE
  5
115
100
AcDbEntity
  8
0
370
     0
390
0
  6
Continuous
 62
     7
100
AcDbSpline
210
0.0
220
0.0
230
1.0
 70
     0
 71
     2
 72
     0
 73
     0
 74
     2
 44
0.000001
 12
0.0177457686563969
 22
-0.0070498608552079
 32
0.0
 13
0.0185407159824571
 23
-0.0045666940057352
 33
0.0
 11
6.2476974625268973
 21
8.6852126094766433
 31
0.0
 11
6.2892861799268971
 21
8.6717006786766433
 31
0.0
  0
SPLINE
  5
116
100
AcDbEntity
  8
0
370
     0
390
0
  6
Continuous
 62
     7
100
AcDbSpline
210
0.0
220
0.0
230
1.0
 70
     0
 71
     2
 72
     0
 73
     0
 74
     2
 44
0.000001
 12
0.0177400661993374
 22
-0.0043694889696013
 32
0.0
 13
0.0182068365845716
 23
-0.0015210141994828
 33
0.0
 11
6.2892861799268971
 21
8.6717006786766433
 31
0.0
 11
6.3305542316268983
 21
8.6648044703766445
 31
0.0
  0
SPLINE
  5
117
100
AcDbEntity
  8
0
370
     0
390
0
  6
Continuous
 62
     7
100
AcDbSpline
210
0.0
220
0.0
230
1.0
 70
     0
 71
     2
 72
     0
 73
     0
 74
     2
 44
0.000001
 12
0.0179494044111976
 22
-0.0014995081026221
 32
0.0
 13
0.0179492211281875
 23
0.0015017004221569
 33
0.0
 11
6.3305542316268983
 21
8.6648044703766445
 31
0.0
 11
6.3718029275268968
 21
8.6648071612766451
 31
0.0
  0
SPLINE
  5
118
100
AcDbEntity
  8
0
370
     0
390
0
  6
Continuous
 62
     7
100
AcDbSpline
210
0.0
220
0.0
230
1.0
 70
     0
 71
     2
 72
     0
 73
     0
 74
     2
 44
0.000001
 12
0.0182058041482662
 22
0.0015231671379965
 32
0.0
 13
0.0177388978662627
 23
0.0043706801879786
 33
0.0
 11
6.3718029275268968
 21
8.6648071612766451
 31
0.0
 11
6.4130682481268977
 21
8.6717079082766446
 31
0.0
  0
SPLINE
  5
119
100
AcDbEntity
  8
0
370
     0
390
0
  6
Continuous
 62
     7
100
AcDbSpline
210
0.0
220
0.0
230
1.0
 70
     0
 71
     2
 72
     0
 73
     0
 74
     2
 44
0.000001
 12
0.0185328914701905
 22
0.0045663119651138
 32
0.0
 13
0.0177383097018478
 23
0.0070478110168999
 33
0.0
 11
6.4130682481268977
 21
8.6717079082766446
 31
0.0
 11
6.4546393134268953
 21
8.6852171863766436
 31
0.0
  0
SPLINE
  5
11A
100
AcDbEntity
  8
0
370
     0
390
0
  6
Continuous
 62
     7
100
AcDbSpline
210
0.0
220
0.0
230
1.0
 70
     0
 71
     2
 72
     0
 73
     0
 74
     2
 44
0.000001
 12
0.0191664828470834
 22
0.0076152548487087
 32
0.0
 13
0.014261214733331
 23
0.0066688859333333
 33
0.0
 11
6.4546393134268953
 21
8.6852171863766436
 31
0.0
 11
6.4974229576268954
 21
8.7052238441766434
 31
0.0
  0
LINE
  5
11B
100
AcDbEntity
  8
0
370
     0
390
0
  6
Continuous
 62
     7
100
AcDbLine
 10
6.346538
 20
8.321798
 30
0.0
 11
6.346538
 21
8.462798
 31
0.0
  0
SPLINE
  5
11C
100
AcDbEntity
  8
0
370
     0
390
0
  6
Continuous
 62
     7
100
AcDbSpline
210
0.0
220
0.0
230
1.0
 70
     0
 71
     2
 72
     0
 73
     0
 74
     2
 44
0.000001
 12
0.0116368784461596
 22
0.0000002916998909
 32
0.0
 13
0.0180126495469892
 23
-0.0007535035439297
 33
0.0
 11
5.8640376481268985
 21
9.333733969500198
 31
0.0
 11
5.905318206826899
 21
9.3326042298766438
 31
0.0
  0
SPLINE
  5
11D
100
AcDbEntity
  8
0
370
     0
390
0
  6
Continuous
 62
     7
100
AcDbSpline
210
0.0
220
0.0
230
1.0
 70
     0
 71
     2
 72
     0
 73
     0
 74
     2
 44
0.000001
 12
0.0361325387373483
 22
-0.001511493127019
 32
0.0
 13
0.0358927931666884
 23
-0.0044218057139993
 33
0.0
 11
5.905318206826899
 21
9.3326042298766438
 31
0.0
 11
5.987848848026899
 21
9.3257034828766443
 31
0.0
  0
SPLINE
  5
11E
100
AcDbEntity
  8
0
370
     0
390
0
  6
Continuous
 62
     7
100
AcDbSpline
210
0.0
220
0.0
230
1.0
 70
     0
 71
     2
 72
     0
 73
     0
 74
     2
 44
0.000001
 12
0.0365055476895293
 22
-0.0044972938889565
 32
0.0
 13
0.0360765154221472
 23
-0.0071669867749122
 33
0.0
 11
5.987848848026899
 21
9.3257034828766443
 31
0.0
 11
6.0709909787268996
 21
9.3121942047766453
 31
0.0
  0
SPLINE
  5
11F
100
AcDbEntity
  8
0
370
     0
390
0
  6
Continuous
 62
     7
100
AcDbSpline
210
0.0
220
0.0
230
1.0
 70
     0
 71
     2
 72
     0
 73
     0
 74
     2
 44
0.000001
 12
0.0376366137431869
 22
-0.0074769170412843
 32
0.0
 13
0.0285224294333304
 23
-0.0066688859000017
 33
0.0
 11
6.0709909787268996
 21
9.3121942047766453
 31
0.0
 11
6.1565582670268961
 21
9.2921875470766437
 31
0.0
  0
SPLINE
  5
120
100
AcDbEntity
  8
0
370
     0
390
0
  6
Continuous
 62
     7
100
AcDbSpline
210
0.0
220
0.0
230
1.0
 70
     0
 71
     2
 72
     0
 73
     0
 74
     2
 44
0.000001
 12
0.0116368784461631
 22
-0.0000002916998909
 32
0.0
 13
0.0180126495469803
 23
0.0007535035439261
 33
0.0
 11
5.8640376481268977
 21
8.6636774216530945
 31
0.0
 11
5.9053182068268981
 21
8.6648071612766451
 31
0.0
  0
SPLINE
  5
121
100
AcDbEntity
  8
0
370
     0
390
0
  6
Continuous
 62
     7
100
AcDbSpline
210
0.0
220
0.0
230
1.0
 70
     0
 71
     2
 72
     0
 73
     0
 74
     2
 44
0.000001
 12
0.0361325387373483
 22
0.001511493127019
 32
0.0
 13
0.0358927931666884
 23
0.0044218057139958
 33
0.0
 11
5.9053182068268981
 21
8.6648071612766451
 31
0.0
 11
5.9878488480268963
 21
8.6717079082766446
 31
0.0
  0
SPLINE
  5
122
100
AcDbEntity
  8
0
370
     0
390
0
  6
Continuous
 62
     7
100
AcDbSpline
210
0.0
220
0.0
230
1.0
 70
     0
 71
     2
 72
     0
 73
     0
 74
     2
 44
0.000001
 12
0.0365055476895293
 22
0.0044972938889565
 32
0.0
 13
0.0360765154180598
 23
0.007166986795486
 33
0.0
 11
5.9878488480268963
 21
8.6717079082766446
 31
0.0
 11
6.070990978726897
 21
8.6852171863766436
 31
0.0
  0
SPLINE
  5
123
100
AcDbEntity
  8
0
370
     0
390
0
  6
Continuous
 62
     7
100
AcDbSpline
210
0.0
220
0.0
230
1.0
 70
     0
 71
     2
 72
     0
 73
     0
 74
     2
 44
0.000001
 12
0.0376366137486777
 22
0.0074769170646825
 32
0.0
 13
0.0285224294333304
 23
0.0066688859333333
 33
0.0
 11
6.070990978726897
 21
8.6852171863766436
 31
0.0
 11
6.1565582670268952
 21
8.7052238441766434
 31
0.0
  0
LINE
  5
124
100
AcDbEntity
  8
0
370
     0
390
0
  6
Continuous
 62
     7
100
AcDbLine
 10
5.864038
 20
8.649798
 30
0.0
 11
6.402038
 21
8.649798
 31
0.0
  0
LINE
  5
125
100
AcDbEntity
  8
0
370
     0
390
0
  6
Continuous
 62
     7
100
AcDbLine
 10
5.864038
 20
9.337798
 30
0.0
 11
6.419038
 21
9.337798
 31
0.0
  0
LINE
  5
126
100
AcDbEntity
  8
0
370
     0
390
0
  6
Continuous
 62
     7
100
AcDbLine
 10
5.864038
 20
8.462798
 30
0.0
 11
6.402038
 21
8.462798
 31
0.0
  0
LINE
  5
127
100
AcDbEntity
  8
0
370
     0
390
0
  6
Continuous
 62
     7
100
AcDbLine
 10
5.864038
 20
8.321798
 30
0.0
 11
6.402038
 21
8.321798
 31
0.0
  0
LINE
  5
128
100
AcDbEntity
  8
0
370
     0
390
0
  6
Continuous
 62
     7
100
AcDbLine
 10
5.864038
 20
8.276798
 30
0.0
 11
6.402038
 21
8.276798
 31
0.0
  0
LINE
  5
129
100
AcDbEntity
  8
0
370
     0
390
0
  6
Continuous
 62
     7
100
AcDbLine
 10
5.864038
 20
8.255362
 30
0.0
 11
6.322038
 21
8.255362
 31
0.0
  0
LINE
  5
12A
100
AcDbEntity
  8
0
370
     0
390
0
  6
Continuous
 62
     7
100
AcDbLine
 10
5.864038
 20
7.924167
 30
0.0
 11
6.322038
 21
7.924167
 31
0.0
  0
LINE
  5
12B
100
AcDbEntity
  8
0
370
     0
390
0
  6
Continuous
 62
     7
100
AcDbLine
 10
5.864038
 20
7.902798
 30
0.0
 11
6.401788
 21
7.902798
 31
0.0
  0
LINE
  5
12C
100
AcDbEntity
  8
0
370
     0
390
0
  6
Continuous
 62
     7
100
AcDbLine
 10
5.864038
 20
7.837798
 30
0.0
 11
6.401788
 21
7.837798
 31
0.0
  0
LINE
  5
12D
100
AcDbEntity
  8
0
370
     0
390
0
  6
Continuous
 62
     7
100
AcDbLine
 10
5.864038
 20
7.82221
 30
0.0
 11
6.378538
 21
7.82221
 31
0.0
  0
LINE
  5
12E
100
AcDbEntity
  8
0
370
     0
390
0
  6
Continuous
 62
     7
100
AcDbLine
 10
6.322038
 20
7.657304
 30
0.0
 11
6.322038
 21
7.790798
 31
0.0
  0
LINE
  5
12F
100
AcDbEntity
  8
0
370
     0
390
0
  6
Continuous
 62
     7
100
AcDbLine
 10
5.864038
 20
7.790798
 30
0.0
 11
6.378538
 21
7.790798
 31
0.0
  0
LINE
  5
130
100
AcDbEntity
  8
0
370
     0
390
0
  6
Continuous
 62
     7
100
AcDbLine
 10
6.325538
 20
7.647777
 30
0.0
 11
5.864038
 21
7.647777
 31
0.0
  0
LINE
  5
131
100
AcDbEntity
  8
0
370
     0
390
0
  6
Continuous
 62
     7
100
AcDbLine
 10
5.864038
 20
7.627859
 30
0.0
 11
6.360038
 21
7.627859
 31
0.0
  0
LINE
  5
132
100
AcDbEntity
  8
0
370
     0
390
0
  6
Continuous
 62
     7
100
AcDbLine
 10
5.864038
 20
7.356798
 30
0.0
 11
6.360038
 21
7.356798
 31
0.0
  0
LINE
  5
133
100
AcDbEntity
  8
0
370
     0
390
0
  6
Continuous
 62
     7
100
AcDbLine
 10
6.325538
 20
7.322298
 30
0.0
 11
5.864038
 21
7.322298
 31
0.0
  0
LINE
  5
134
100
AcDbEntity
  8
0
370
     0
390
0
  6
Continuous
 62
     7
100
AcDbLine
 10
5.864038
 20
7.312798
 30
0.0
 11
6.316038
 21
7.312798
 31
0.0
  0
LINE
  5
135
100
AcDbEntity
  8
CENTRE_LINES
370
     0
390
0
  6
Continuous
 62
     7
100
AcDbLine
 10
6.346538
 20
8.456703
 30
0.0
 11
6.399537
 21
8.456703
 31
0.0
  0
LINE
  5
136
100
AcDbEntity
  8
CENTRE_LINES
370
     0
390
0
  6
Continuous
 62
     7
100
AcDbLine
 10
6.399537
 20
8.456703
 30
0.0
 11
6.399537
 21
8.417704
 31
0.0
  0
ARC
  5
137
100
AcDbEntity
  8
CENTRE_LINES
370
     0
390
0
  6
Continuous
 62
     7
100
AcDbCircle
 10
6.389541
 20
8.417699
 30
0.0
 40
0.009996
100
AcDbArc
 50
269.976155
 51
360.023845
  0
ARC
  5
138
100
AcDbEntity
  8
CENTRE_LINES
370
     0
390
0
  6
Continuous
 62
     7
100
AcDbCircle
 10
6.356537
 20
8.417703
 30
0.0
 40
0.009999
100
AcDbArc
 50
179.994807
 51
270.0
  0
LINE
  5
139
100
AcDbEntity
  8
CENTRE_LINES
370
     0
390
0
  6
Continuous
 62
     7
100
AcDbLine
 10
6.346538
 20
8.456703
 30
0.0
 11
6.346538
 21
8.417704
 31
0.0
  0
ARC
  5
13A
100
AcDbEntity
  8
CENTRE_LINES
370
     0
390
0
  6
Continuous
 62
     7
100
AcDbCircle
 10
6.373037
 20
8.375672
 30
0.0
 40
0.036032
100
AcDbArc
 50
62.747148
 51
117.252852
  0
ELLIPSE
  5
13B
100
AcDbEntity
  8
HEX_BODY
370
     0
390
0
  6
Continuous
 62
     1
100
AcDbEllipse
 10
6.375123
 20
8.369342
 30
0.0
 11
-0.0001697540283203
 21
0.042210578918457
 31
0.0
210
0.0
220
0.0
230
1.0
 40
0.687106
 41
0.0
 42
6.2831853071795862
  0
ARC
  5
13C
100
AcDbEntity
  8
CENTRE_LINES
370
     0
390
0
  6
Continuous
 62
     7
100
AcDbCircle
 10
6.365069
 20
7.707805
 30
0.0
 40
0.009996
100
AcDbArc
 50
359.976155
 51
450.023845
  0
ARC
  5
13D
100
AcDbEntity
  8
CENTRE_LINES
370
     0
390
0
  6
Continuous
 62
     7
100
AcDbCircle
 10
6.332065
 20
7.707801
 30
0.0
 40
0.009999
100
AcDbArc
 50
90.0
 51
180.005193
  0
LINE
  5
13E
100
AcDbEntity
  8
CENTRE_LINES
370
     0
390
0
  6
Continuous
 62
     7
100
AcDbLine
 10
6.322066
 20
7.668801
 30
0.0
 11
6.322066
 21
7.7078
 31
0.0
  0
ARC
  5
13F
100
AcDbEntity
  8
CENTRE_LINES
370
     0
390
0
  6
Continuous
 62
     7
100
AcDbCircle
 10
6.348566
 20
7.749833
 30
0.0
 40
0.036032
100
AcDbArc
 50
242.747148
 51
297.252852
  0
ELLIPSE
  5
140
100
AcDbEntity
  8
HEX_BODY
370
     0
390
0
  6
Continuous
 62
     1
100
AcDbEllipse
 10
6.35047
 20
7.752393
 30
0.0
 11
0.0005936622619629
 21
0.0379724502563477
 31
0.0
210
0.0
220
0.0
230
1.0
 40
0.750395
 41
0.0
 42
6.2831853071795862
  0
LINE
  5
141
100
AcDbEntity
  8
CENTRE_LINES
370
     0
390
0
  6
Continuous
 62
     7
100
AcDbLine
 10
6.322066
 20
7.668801
 30
0.0
 11
6.36704
 21
7.668801
 31
0.0
  0
LINE
  5
142
100
AcDbEntity
  8
CENTRE_LINES
370
     0
390
0
  6
Continuous
 62
     7
100
AcDbLine
 10
6.375065
 20
7.676826
 30
0.0
 11
6.375065
 21
7.7078
 31
0.0
  0
LINE
  5
143
100
AcDbEntity
  8
0
370
     0
390
0
  6
Continuous
 62
     1
100
AcDbLine
 10
6.512964
 20
3.884777
 30
0.0
 11
6.270538
 21
3.884777
 31
0.0
  0
LINE
  5
144
100
AcDbEntity
  8
0
370
     0
390
0
  6
Continuous
 62
     1
100
AcDbLine
 10
6.610919
 20
5.415777
 30
0.0
 11
6.291538
 21
5.415777
 31
0.0
  0
LINE
  5
145
100
AcDbEntity
  8
0
370
     0
390
0
  6
Continuous
 62
     1
100
AcDbLine
 10
6.59552
 20
5.806777
 30
0.0
 11
6.312038
 21
5.806777
 31
0.0
  0
LINE
  5
146
100
AcDbEntity
  8
HEX_BODY
370
     0
390
0
  6
Continuous
 62
     1
100
AcDbLine
 10
6.249534
 20
3.725642
 30
0.0
 11
6.404907
 21
3.881017
 31
0.0
  0
LINE
  5
147
100
AcDbEntity
  8
HEX_BODY
370
     0
390
0
  6
Continuous
 62
     1
100
AcDbLine
 10
6.343563
 20
3.884777
 30
0.0
 11
6.249534
 21
3.790748
 31
0.0
  0
LINE
  5
148
100
AcDbEntity
  8
HEX_BODY
370
     0
390
0
  6
Continuous
 62
     1
100
AcDbLine
 10
6.48526
 20
3.884777
 30
0.0
 11
6.249534
 21
3.649051
 31
0.0
  0
LINE
  5
149
100
AcDbEntity
  8
HEX_BODY
370
     0
390
0
  6
Continuous
 62
     1
100
AcDbLine
 10
6.356905
 20
5.806777
 30
0.0
 11
6.291537
 21
5.741409
 31
0.0
  0
LINE
  5
14A
100
AcDbEntity
  8
HEX_BODY
370
     0
390
0
  6
Continuous
 62
     1
100
AcDbLine
 10
6.428708
 20
5.806777
 30
0.0
 11
6.291537
 21
5.669606
 31
0.0
  0
LINE
  5
14B
100
AcDbEntity
  8
HEX_BODY
370
     0
390
0
  6
Continuous
 62
     1
100
AcDbLine
 10
6.510092
 20
5.806777
 30
0.0
 11
6.291537
 21
5.588223
 31
0.0
  0
LINE
  5
14C
100
AcDbEntity
  8
HEX_BODY
370
     0
390
0
  6
Continuous
 62
     1
100
AcDbLine
 10
6.624328
 20
5.572515
 30
0.0
 11
6.46759
 21
5.415776
 31
0.0
  0
LINE
  5
14D
100
AcDbEntity
  8
HEX_BODY
370
     0
390
0
  6
Continuous
 62
     1
100
AcDbLine
 10
6.62375
 20
5.65886
 30
0.0
 11
6.380664
 21
5.415776
 31
0.0
  0
LINE
  5
14E
100
AcDbEntity
  8
HEX_BODY
370
     0
390
0
  6
Continuous
 62
     1
100
AcDbLine
 10
6.617049
 20
5.737572
 30
0.0
 11
6.295255
 21
5.415776
 31
0.0
  0
LINE
  5
14F
100
AcDbEntity
  8
HEX_BODY
370
     0
390
0
  6
Continuous
 62
     1
100
AcDbLine
 10
6.59657
 20
5.803162
 30
0.0
 11
6.291537
 21
5.498127
 31
0.0
  0
LINE
  5
150
100
AcDbEntity
  8
HEX_BODY
370
     0
390
0
  6
Continuous
 62
     1
100
AcDbLine
 10
6.619946
 20
5.481207
 30
0.0
 11
6.554515
 21
5.415776
 31
0.0
  0
LINE
  5
151
100
AcDbEntity
  8
HEX_BODY
370
     0
390
0
  6
Continuous
 62
     1
100
AcDbLine
 10
6.504422
 20
3.832135
 30
0.0
 11
6.249534
 21
3.577247
 31
0.0
  0
LINE
  5
152
100
AcDbEntity
  8
0
370
     0
390
0
  6
Continuous
 62
     1
100
AcDbLine
 10
6.642589
 20
7.869298
 30
0.0
 11
6.403538
 21
7.869298
 31
0.0
  0
LINE
  5
153
100
AcDbEntity
  8
HEX_BODY
370
     0
390
0
  6
Continuous
 62
     1
100
AcDbLine
 10
6.521473
 20
7.867666
 30
0.0
 11
6.380038
 21
7.726231
 31
0.0
  0
LINE
  5
154
100
AcDbEntity
  8
HEX_BODY
370
     0
390
0
  6
Continuous
 62
     1
100
AcDbLine
 10
6.436061
 20
7.867666
 30
0.0
 11
6.380038
 21
7.811642
 31
0.0
  0
LINE
  5
155
100
AcDbEntity
  8
HEX_BODY
370
     0
390
0
  6
Continuous
 62
     1
100
AcDbLine
 10
6.609174
 20
7.869298
 30
0.0
 11
6.364038
 21
7.624162
 31
0.0
  0
LINE
  5
156
100
AcDbEntity
  8
HEX_BODY
370
     0
390
0
  6
Continuous
 62
     1
100
AcDbLine
 10
6.639108
 20
7.813823
 30
0.0
 11
6.360038
 21
7.534752
 31
0.0
  0
LINE
  5
157
100
AcDbEntity
  8
HEX_BODY
370
     0
390
0
  6
Continuous
 62
     1
100
AcDbLine
 10
6.632242
 20
7.720032
 30
0.0
 11
6.360038
 21
7.447828
 31
0.0
  0
LINE
  5
158
100
AcDbEntity
  8
0
370
     0
390
0
  6
Continuous
 62
     1
100
AcDbLine
 10
6.672229
 20
8.244298
 30
0.0
 11
6.403538
 21
8.244298
 31
0.0
  0
LINE
  5
159
100
AcDbEntity
  8
HEX_BODY
370
     0
390
0
  6
Continuous
 62
     1
100
AcDbLine
 10
6.685534
 20
8.493807
 30
0.0
 11
6.436025
 21
8.244298
 31
0.0
  0
LINE
  5
15A
100
AcDbEntity
  8
HEX_BODY
370
     0
390
0
  6
Continuous
 62
     1
100
AcDbLine
 10
6.697943
 20
8.40891
 30
0.0
 11
6.534217
 21
8.245423
 31
0.0
  0
LINE
  5
15B
100
AcDbEntity
  8
HEX_BODY
370
     0
390
0
  6
Continuous
 62
     1
100
AcDbLine
 10
6.681776
 20
8.290926
 30
0.0
 11
6.638699
 21
8.245423
 31
0.0
  0
LINE
  5
15C
100
AcDbEntity
  8
0
370
     0
390
0
  6
Continuous
 62
     1
100
AcDbLine
 10
6.554771
 20
8.056798
 30
0.0
 11
6.362978
 21
8.056798
 31
0.0
  0
LINE
  5
15D
100
AcDbEntity
  8
SEAL_RETAINER
370
     0
390
0
  6
Continuous
 62
     1
100
AcDbLine
 10
6.702182
 20
8.244298
 30
0.0
 11
6.982286
 21
8.244298
 31
0.0
  0
LINE
  5
15E
100
AcDbEntity
  8
SEAL_RETAINER
370
     0
390
0
  6
Continuous
 62
     1
100
AcDbLine
 10
6.924181
 20
8.244298
 30
0.0
 11
6.924181
 21
8.326099
 31
0.0
  0
LINE
  5
15F
100
AcDbEntity
  8
SEAL_RETAINER
370
     0
390
0
  6
Continuous
 62
     1
100
AcDbLine
 10
6.924181
 20
8.326099
 30
0.0
 11
7.016547
 21
8.326099
 31
0.0
  0
LINE
  5
160
100
AcDbEntity
  8
SEAL_RETAINER
370
     0
390
0
  6
Continuous
 62
     1
100
AcDbLine
 10
6.691442
 20
7.869298
 30
0.0
 11
6.982286
 21
7.869298
 31
0.0
  0
LINE
  5
161
100
AcDbEntity
  8
SEAL_RETAINER
370
     0
390
0
  6
Continuous
 62
     1
100
AcDbLine
 10
6.924181
 20
8.244298
 30
0.0
 11
6.924181
 21
7.869298
 31
0.0
  0
TEXT
  5
162
100
AcDbEntity
  8
SEAL_RETAINER
370
     0
390
0
  6
Continuous
 62
     7
100
AcDbText
 10
7.027073
 20
8.294308
 30
0.0
 40
0.071
  1
.375
  7
Vcadd_SIMP
100
AcDbText
  0
LINE
  5
163
100
AcDbEntity
  8
TEXT
370
     0
390
0
  6
Continuous
 62
     1
100
AcDbLine
 10
6.644975
 20
5.415607
 30
0.0
 11
6.900866
 21
5.415607
 31
0.0
  0
LINE
  5
164
100
AcDbEntity
  8
0
370
     0
390
0
  6
Continuous
 62
     1
100
AcDbLine
 10
6.235038
 20
3.467777
 30
0.0
 11
5.864038
 21
3.467777
 31
0.0
  0
LINE
  5
165
100
AcDbEntity
  8
HEX_BODY
370
     0
390
0
  6
Continuous
 62
     7
100
AcDbLine
 10
5.324538
 20
7.837798
 30
0.0
 11
5.324538
 21
8.525798
 31
0.0
  0
LINE
  5
166
100
AcDbEntity
  8
HEX_BODY
370
     0
390
0
  6
Continuous
 62
     7
100
AcDbLine
 10
5.208038
 20
8.642298
 30
0.0
 11
5.208038
 21
9.260196
 31
0.0
  0
LINE
  5
167
100
AcDbEntity
  8
HEX_BODY
370
     0
390
0
  6
Continuous
 62
     7
100
AcDbLine
 10
5.324538
 20
8.525798
 30
0.0
 11
5.208038
 21
8.642298
 31
0.0
  0
LINE
  5
168
100
AcDbEntity
  8
HEX_BODY
370
     0
390
0
  6
Continuous
 62
     7
100
AcDbLine
 10
5.338038
 20
7.837798
 30
0.0
 11
5.348038
 21
7.820478
 31
0.0
  0
LINE
  5
169
100
AcDbEntity
  8
HEX_BODY
370
     0
390
0
  6
Continuous
 62
     7
100
AcDbLine
 10
5.348038
 20
7.820478
 30
0.0
 11
5.348038
 21
7.681798
 31
0.0
  0
LINE
  5
16A
100
AcDbEntity
  8
HEX_BODY
370
     0
390
0
  6
Continuous
 62
     7
100
AcDbLine
 10
5.324538
 20
7.837798
 30
0.0
 11
5.338038
 21
7.837798
 31
0.0
  0
LINE
  5
16B
100
AcDbEntity
  8
HEX_BODY
370
     0
390
0
  6
Continuous
 62
     7
100
AcDbLine
 10
5.396538
 20
6.743798
 30
0.0
 11
5.416038
 21
6.710023
 31
0.0
  0
LINE
  5
16C
100
AcDbEntity
  8
HEX_BODY
370
     0
390
0
  6
Continuous
 62
     7
100
AcDbLine
 10
5.348038
 20
7.681798
 30
0.0
 11
5.396538
 21
7.633298
 31
0.0
  0
LINE
  5
16D
100
AcDbEntity
  8
HEX_BODY
370
     0
390
0
  6
Continuous
 62
     7
100
AcDbLine
 10
5.396538
 20
7.633298
 30
0.0
 11
5.396538
 21
6.743798
 31
0.0
  0
LINE
  5
16E
100
AcDbEntity
  8
HEX_BODY
370
     0
390
0
  6
Continuous
 62
     7
100
AcDbLine
 10
5.416038
 20
5.790777
 30
0.0
 11
5.436538
 21
5.75527
 31
0.0
  0
LINE
  5
16F
100
AcDbEntity
  8
HEX_BODY
370
     0
390
0
  6
Continuous
 62
     7
100
AcDbLine
 10
5.416038
 20
6.710023
 30
0.0
 11
5.416038
 21
5.790777
 31
0.0
  0
LINE
  5
170
100
AcDbEntity
  8
HEX_BODY
370
     0
390
0
  6
Continuous
 62
     7
100
AcDbLine
 10
5.457538
 20
3.868777
 30
0.0
 11
5.478038
 21
3.83327
 31
0.0
  0
LINE
  5
171
100
AcDbEntity
  8
HEX_BODY
370
     0
390
0
  6
Continuous
 62
     7
100
AcDbLine
 10
5.436538
 20
4.837777
 30
0.0
 11
5.457538
 21
4.801404
 31
0.0
  0
LINE
  5
172
100
AcDbEntity
  8
HEX_BODY
370
     0
390
0
  6
Continuous
 62
     7
100
AcDbLine
 10
5.436538
 20
5.75527
 30
0.0
 11
5.436538
 21
4.837777
 31
0.0
  0
LINE
  5
173
100
AcDbEntity
  8
HEX_BODY
370
     0
390
0
  6
Continuous
 62
     7
100
AcDbLine
 10
5.457538
 20
4.801404
 30
0.0
 11
5.457538
 21
3.868777
 31
0.0
  0
LINE
  5
174
100
AcDbEntity
  8
HEX_BODY
370
     0
390
0
  6
CL____X1
 62
     7
100
AcDbLine
 10
5.364038
 20
7.665798
 30
0.0
 11
5.364038
 21
7.212798
 31
0.0
  0
SPLINE
  5
175
100
AcDbEntity
  8
0
370
     0
390
0
  6
Continuous
 62
     1
100
AcDbSpline
210
0.0
220
0.0
230
1.0
 70
     0
 71
     2
 72
     0
 73
     0
 74
     2
 44
0.000001
 12
0.0193753285107103
 22
0.0042144162818119
 32
0.0
 13
0.0182225749073748
 23
0.0078168039018145
 33
0.0
 11
6.1610376481268929
 21
3.1428380253399375
 31
0.0
 11
6.2191636336590239
 21
3.1554812741853713
 31
0.0
  0
SPLINE
  5
176
100
AcDbEntity
  8
0
370
     0
390
0
  6
Continuous
 62
     1
100
AcDbSpline
210
0.0
220
0.0
230
1.0
 70
     0
 71
     2
 72
     0
 73
     0
 74
     2
 44
0.000001
 12
0.0179008035034052
 22
0.0076787759897989
 32
0.0
 13
0.0140982351065926
 23
0.0134403174682856
 33
0.0
 11
6.2191636336590239
 21
3.1554812741853713
 31
0.0
 11
6.2674003765367132
 21
3.18846366247781
 31
0.0
  0
SPLINE
  5
177
100
AcDbEntity
  8
0
370
     0
390
0
  6
Continuous
 62
     1
100
AcDbSpline
210
0.0
220
0.0
230
1.0
 70
     0
 71
     2
 72
     0
 73
     0
 74
     2
 44
0.000001
 12
0.0137598098185876
 22
0.0131176853603847
 32
0.0
 13
0.0144296812586351
 23
0.0123770082908585
 33
0.0
 11
6.2674003765367132
 21
3.18846366247781
 31
0.0
 11
6.3016196043901171
 21
3.2340892996156807
 31
0.0
  0
SPLINE
  5
178
100
AcDbEntity
  8
0
370
     0
390
0
  6
Continuous
 62
     1
100
AcDbSpline
210
0.0
220
0.0
230
1.0
 70
     0
 71
     2
 72
     0
 73
     0
 74
     2
 44
0.000001
 12
0.0187001601134487
 22
0.016039996491676
 32
0.0
 13
0.0202293020163786
 23
0.014062461223121
 33
0.0
 11
6.3016196043901171
 21
3.2340892996156807
 31
0.0
 11
6.3649732752351724
 21
3.2721564727698684
 31
0.0
  0
SPLINE
  5
179
100
AcDbEntity
  8
0
370
     0
390
0
  6
Continuous
 62
     1
100
AcDbSpline
210
0.0
220
0.0
230
1.0
 70
     0
 71
     2
 72
     0
 73
     0
 74
     2
 44
0.000001
 12
0.015786622953879
 22
0.0109741192727864
 32
0.0
 13
0.0129299452687484
 23
0.0142290292517941
 33
0.0
 11
6.3649732752351724
 21
3.2721564727698684
 31
0.0
 11
6.4093620728120779
 21
3.3089868063630892
 31
0.0
  0
SPLINE
  5
17A
100
AcDbEntity
  8
0
370
     0
390
0
  6
Continuous
 62
     1
100
AcDbSpline
210
0.0
220
0.0
230
1.0
 70
     0
 71
     2
 72
     0
 73
     0
 74
     2
 44
0.000001
 12
0.0164777992815903
 22
0.0181333395547796
 32
0.0
 13
0.0135852663962268
 23
0.0203905961049902
 33
0.0
 11
6.4093620728120779
 21
3.3089868063630892
 31
0.0
 11
6.4525140308280164
 21
3.3684925319073606
 31
0.0
  0
SPLINE
  5
17B
100
AcDbEntity
  8
0
370
     0
390
0
  6
Continuous
 62
     1
100
AcDbSpline
210
0.0
220
0.0
230
1.0
 70
     0
 71
     2
 72
     0
 73
     0
 74
     2
 44
0.000001
 12
0.0109464804296238
 22
0.0164299509999779
 32
0.0
 13
0.0089463160269556
 23
0.0175992088800498
 33
0.0
 11
6.4525140308280164
 21
3.3684925319073606
 31
0.0
 11
6.4828853133806348
 21
3.4193403805248686
 31
0.0
  0
SPLINE
  5
17C
100
AcDbEntity
  8
0
370
     0
390
0
  6
Continuous
 62
     1
100
AcDbSpline
210
0.0
220
0.0
230
1.0
 70
     0
 71
     2
 72
     0
 73
     0
 74
     2
 44
0.000001
 12
0.0066956596996821
 22
0.0131717137299159
 32
0.0
 13
0.0054696951385189
 23
0.0137261916236238
 33
0.0
 11
6.4828853133806348
 21
3.4193403805248686
 31
0.0
 11
6.4992943987961933
 21
3.4605189553957416
 31
0.0
  0
LINE
  5
17D
100
AcDbEntity
  8
HEX_BODY
370
     0
390
0
  6
Continuous
 62
     1
100
AcDbLine
 10
6.482052
 20
3.638287
 30
0.0
 11
6.161038
 21
3.317272
 31
0.0
  0
LINE
  5
17E
100
AcDbEntity
  8
HEX_BODY
370
     0
390
0
  6
Continuous
 62
     1
100
AcDbLine
 10
6.504812
 20
3.574977
 30
0.0
 11
6.161038
 21
3.231204
 31
0.0
  0
LINE
  5
17F
100
AcDbEntity
  8
HEX_BODY
370
     0
390
0
  6
Continuous
 62
     1
100
AcDbLine
 10
6.505995
 20
3.490751
 30
0.0
 11
6.161038
 21
3.145794
 31
0.0
  0
LINE
  5
180
100
AcDbEntity
  8
HEX_BODY
370
     0
390
0
  6
Continuous
 62
     1
100
AcDbLine
 10
6.486481
 20
3.732811
 30
0.0
 11
6.250038
 21
3.496368
 31
0.0
  0
LINE
  5
181
100
AcDbEntity
  8
HEX_BODY
370
     0
390
0
  6
Continuous
 62
     1
100
AcDbLine
 10
6.221447
 20
3.467777
 30
0.0
 11
6.161038
 21
3.407368
 31
0.0
  0
LINE
  5
182
100
AcDbEntity
  8
SEAL_RETAINER
370
     0
390
0
  6
Continuous
 62
     1
100
AcDbLine
 10
6.270574
 20
3.467777
 30
0.0
 11
6.653356
 21
3.467777
 31
0.0
  0
SPLINE
  5
183
100
AcDbEntity
  8
0
370
     0
390
0
  6
Continuous
 62
     1
100
AcDbSpline
210
0.0
220
0.0
230
1.0
 70
     0
 71
     2
 72
     0
 73
     0
 74
     2
 44
0.000001
 12
0.0064499231928963
 22
0.0257482251920429
 32
0.0
 13
0.0006780041737162
 23
0.0264421627747637
 33
0.0
 11
6.4992943987961933
 21
3.4605189553957416
 31
0.0
 11
6.5113777992067714
 21
3.5386372410552625
 31
0.0
  0
SPLINE
  5
184
100
AcDbEntity
  8
0
370
     0
390
0
  6
Continuous
 62
     1
100
AcDbSpline
210
0.0
220
0.0
230
1.0
 70
     0
 71
     2
 72
     0
 73
     0
 74
     2
 44
0.000001
 12
0.0010364506782334
 22
0.0404215764511093
 32
0.0
 13
0.0
 23
0.0404348620969746
 33
0.0
 11
6.5113777992067714
 21
3.5386372410552625
 31
0.0
 11
6.4801746304617769
 21
3.6558599560702429
 31
0.0
  0
SPLINE
  5
185
100
AcDbEntity
  8
0
370
     0
390
0
  6
Continuous
 62
     1
100
AcDbSpline
210
0.0
220
0.0
230
1.0
 70
     0
 71
     2
 72
     0
 73
     0
 74
     2
 44
0.000001
 12
0.0
 22
0.0732683004981247
 32
0.0
 13
0.0106860424615043
 23
0.0724848422388753
 33
0.0
 11
6.4801746304617769
 21
3.6558599560702429
 31
0.0
 11
6.5113777992067714
 21
3.8734388084002056
 31
0.0
  0
SPLINE
  5
186
100
AcDbEntity
  8
0
370
     0
390
0
  6
Continuous
 62
     1
100
AcDbSpline
210
0.0
220
0.0
230
1.0
 70
     0
 71
     2
 72
     0
 73
     0
 74
     2
 44
0.000001
 12
0.0126462089854016
 22
0.0857809115515789
 32
0.0
 13
0.0029245403113096
 23
0.086658747119321
 33
0.0
 11
6.5113777992067714
 21
3.8734388084002056
 31
0.0
 11
6.5501709279167661
 21
4.1306541183251646
 31
0.0
  0
SPLINE
  5
187
100
AcDbEntity
  8
0
370
     0
390
0
  6
Continuous
 62
     1
100
AcDbSpline
210
0.0
220
0.0
230
1.0
 70
     0
 71
     2
 72
     0
 73
     0
 74
     2
 44
0.000001
 12
0.0016842931963073
 22
0.0499082668167858
 32
0.0
 13
-0.0073883358152997
 23
0.0495923165339214
 33
0.0
 11
6.5501709279167661
 21
4.1306541183251646
 31
0.0
 11
6.5349535657395874
 21
4.2795914032810707
 31
0.0
  0
SPLINE
  5
188
100
AcDbEntity
  8
0
370
     0
390
0
  6
Continuous
 62
     1
100
AcDbSpline
210
0.0
220
0.0
230
1.0
 70
     0
 71
     2
 72
     0
 73
     0
 74
     2
 44
0.000001
 12
0.0075114472912627
 22
0.0395156088266582
 32
0.0
 13
0.0028151661187916
 23
0.0400210102292711
 33
0.0
 11
6.6012604263905237
 21
5.3652430224385306
 31
0.0
 11
6.6201672253717545
 21
5.4841969787499352
 31
0.0
  0
SPLINE
  5
189
100
AcDbEntity
  8
0
370
     0
390
0
  6
Continuous
 62
     1
100
AcDbSpline
210
0.0
220
0.0
230
1.0
 70
     0
 71
     2
 72
     0
 73
     0
 74
     2
 44
0.000001
 12
0.0054638613375158
 22
0.0776754341495565
 32
0.0
 13
-0.0066144682072231
 23
0.0775859243766135
 33
0.0
 11
6.6201672253717545
 21
5.4841969787499352
 31
0.0
 11
6.6201672253717545
 21
5.7177990798948954
 31
0.0
  0
SPLINE
  5
18A
100
AcDbEntity
  8
0
370
     0
390
0
  6
Continuous
 62
     1
100
AcDbSpline
210
0.0
220
0.0
230
1.0
 70
     0
 71
     2
 72
     0
 73
     0
 74
     2
 44
0.000001
 12
-0.0038516970322338
 22
0.0451793651889005
 32
0.0
 13
0.0008768814989129
 23
0.0453347734938312
 33
0.0
 11
6.6201672253717545
 21
5.7177990798948954
 31
0.0
 11
6.58896405662676
 21
5.8502017148398728
 31
0.0
  0
SPLINE
  5
18B
100
AcDbEntity
  8
0
370
     0
390
0
  6
Continuous
 62
     1
100
AcDbSpline
210
0.0
220
0.0
230
1.0
 70
     0
 71
     2
 72
     0
 73
     0
 74
     2
 44
0.000001
 12
0.0022537544135854
 22
0.1165191031824158
 32
0.0
 13
0.0080012451779075
 23
0.116219432848272
 33
0.0
 11
6.58896405662676
 21
5.8502017148398728
 31
0.0
 11
6.6326531184347619
 21
6.197038559958191
 31
0.0
  0
TEXT
  5
18C
100
AcDbEntity
  8
SEAL_RETAINER
370
     0
390
0
  6
Continuous
 62
     7
100
AcDbText
 10
7.746781
 20
7.803282
 30
0.0
 40
0.071
  1
0.000
  7
Vcadd_SIMP
100
AcDbText
  0
TEXT
  5
18D
100
AcDbEntity
  8
SEAL_RETAINER
370
     0
390
0
  6
Continuous
 62
     7
100
AcDbText
 10
7.162629
 20
7.756587
 30
0.0
 40
0.071
  1
SHOULDER
  7
Vcadd_SIMP
100
AcDbText
  0
TEXT
  5
18E
100
AcDbEntity
  8
SEAL_RETAINER
370
     0
390
0
  6
Continuous
 62
     7
100
AcDbText
 10
7.165612
 20
7.856861
 30
0.0
 40
0.071
  1
LOCATING
  7
Vcadd_SIMP
100
AcDbText
  0
LINE
  5
18F
100
AcDbEntity
  8
0
370
     0
390
0
  6
Continuous
 62
     7
100
AcDbLine
 10
5.864038
 20
8.115939
 30
0.0
 11
5.864038
 21
8.061305
 31
0.0
  0
LINE
  5
190
100
AcDbEntity
  8
0
370
     0
390
0
  6
Continuous
 62
     7
100
AcDbLine
 10
5.864038
 20
8.012924
 30
0.0
 11
5.864038
 21
6.896
 31
0.0
  0
LINE
  5
191
100
AcDbEntity
  8
HEX_BODY
370
     0
390
0
  6
CL____X1
 62
     1
100
AcDbLine
 10
5.378539
 20
7.85523
 30
0.0
 11
5.355039
 21
7.868798
 31
0.0
  0
LINE
  5
192
100
AcDbEntity
  8
HEX_BODY
370
     0
390
0
  6
CL____X1
 62
     1
100
AcDbLine
 10
5.378539
 20
7.85523
 30
0.0
 11
5.378539
 21
7.712798
 31
0.0
  0
LINE
  5
193
100
AcDbEntity
  8
HEX_BODY
370
     0
390
0
  6
CL____X1
 62
     1
100
AcDbLine
 10
5.426539
 20
7.685085
 30
0.0
 11
5.378539
 21
7.712798
 31
0.0
  0
LINE
  5
194
100
AcDbEntity
  8
HEX_BODY
370
     0
390
0
  6
CL____X1
 62
     1
100
AcDbLine
 10
5.236039
 20
8.982195
 30
0.0
 11
5.134539
 21
9.040797
 31
0.0
  0
LINE
  5
195
100
AcDbEntity
  8
HEX_BODY
370
     0
390
0
  6
CL____X1
 62
     1
100
AcDbLine
 10
5.236039
 20
8.982195
 30
0.0
 11
5.236039
 21
8.634797
 31
0.0
  0
LINE
  5
196
100
AcDbEntity
  8
HEX_BODY
370
     0
390
0
  6
CL____X1
 62
     1
100
AcDbLine
 10
5.134539
 20
9.040797
 30
0.0
 11
5.134539
 21
9.197388
 31
0.0
  0
LINE
  5
197
100
AcDbEntity
  8
HEX_BODY
370
     0
390
0
  6
CL____X1
 62
     1
100
AcDbLine
 10
5.355039
 20
8.566091
 30
0.0
 11
5.355039
 21
7.868798
 31
0.0
  0
LINE
  5
198
100
AcDbEntity
  8
HEX_BODY
370
     0
390
0
  6
CL____X1
 62
     1
100
AcDbLine
 10
5.355039
 20
8.566091
 30
0.0
 11
5.236039
 21
8.634797
 31
0.0
  0
LINE
  5
199
100
AcDbEntity
  8
CENTRE_LINES
370
     0
390
0
  6
Continuous
 62
     7
100
AcDbLine
 10
5.457538
 20
3.868777
 30
0.0
 11
5.579788
 21
3.868777
 31
0.0
  0
LINE
  5
19A
100
AcDbEntity
  8
CENTRE_LINES
370
     0
390
0
  6
Continuous
 62
     7
100
AcDbLine
 10
5.478038
 20
3.83327
 30
0.0
 11
5.589027
 21
3.83327
 31
0.0
  0
LINE
  5
19B
100
AcDbEntity
  8
CENTRE_LINES
370
     0
390
0
  6
Continuous
 62
     7
100
AcDbLine
 10
5.436538
 20
4.837777
 30
0.0
 11
5.556201
 21
4.837777
 31
0.0
  0
LINE
  5
19C
100
AcDbEntity
  8
CENTRE_LINES
370
     0
390
0
  6
Continuous
 62
     7
100
AcDbLine
 10
5.457538
 20
4.801404
 30
0.0
 11
5.563474
 21
4.801404
 31
0.0
  0
LINE
  5
19D
100
AcDbEntity
  8
CENTRE_LINES
370
     0
390
0
  6
Continuous
 62
     7
100
AcDbLine
 10
5.396538
 20
6.743798
 30
0.0
 11
5.557373
 21
6.743798
 31
0.0
  0
LINE
  5
19E
100
AcDbEntity
  8
CENTRE_LINES
370
     0
390
0
  6
Continuous
 62
     7
100
AcDbLine
 10
5.416038
 20
6.710023
 30
0.0
 11
5.56625
 21
6.710023
 31
0.0
  0
LINE
  5
19F
100
AcDbEntity
  8
CENTRE_LINES
370
     0
390
0
  6
Continuous
 62
     7
100
AcDbLine
 10
5.416038
 20
5.790777
 30
0.0
 11
5.581604
 21
5.790777
 31
0.0
  0
LINE
  5
1A0
100
AcDbEntity
  8
CENTRE_LINES
370
     0
390
0
  6
Continuous
 62
     7
100
AcDbLine
 10
5.436538
 20
5.75527
 30
0.0
 11
5.588321
 21
5.75527
 31
0.0
  0
LINE
  5
1A1
100
AcDbEntity
  8
HEX_BODY
370
     0
390
0
  6
Continuous
 62
     7
100
AcDbLine
 10
5.348038
 20
7.681798
 30
0.0
 11
5.530024
 21
7.681798
 31
0.0
  0
LINE
  5
1A2
100
AcDbEntity
  8
HEX_BODY
370
     0
390
0
  6
Continuous
 62
     7
100
AcDbLine
 10
5.396538
 20
7.6333
 30
0.0
 11
5.525746
 21
7.6333
 31
0.0
  0
LINE
  5
1A3
100
AcDbEntity
  8
HEX_BODY
370
     0
390
0
  6
Continuous
 62
     7
100
AcDbLine
 10
5.208038
 20
8.642298
 30
0.0
 11
5.413033
 21
8.642298
 31
0.0
  0
LINE
  5
1A4
100
AcDbEntity
  8
HEX_BODY
370
     0
390
0
  6
Continuous
 62
     7
100
AcDbLine
 10
5.324538
 20
8.525798
 30
0.0
 11
5.428033
 21
8.525798
 31
0.0
  0
LINE
  5
1A5
100
AcDbEntity
  8
HEX_BODY
370
     0
390
0
  6
CL____X1
 62
     1
100
AcDbLine
 10
5.446538
 20
6.794251
 30
0.0
 11
5.426539
 21
6.805798
 31
0.0
  0
LINE
  5
1A6
100
AcDbEntity
  8
HEX_BODY
370
     0
390
0
  6
CL____X1
 62
     1
100
AcDbLine
 10
5.426539
 20
7.685085
 30
0.0
 11
5.426539
 21
6.805798
 31
0.0
  0
LINE
  5
1A7
100
AcDbEntity
  8
HEX_BODY
370
     0
390
0
  6
CL____X1
 62
     1
100
AcDbLine
 10
5.467039
 20
5.840941
 30
0.0
 11
5.446538
 21
5.852777
 31
0.0
  0
LINE
  5
1A8
100
AcDbEntity
  8
HEX_BODY
370
     0
390
0
  6
CL____X1
 62
     1
100
AcDbLine
 10
5.446538
 20
6.794251
 30
0.0
 11
5.446538
 21
5.852777
 31
0.0
  0
LINE
  5
1A9
100
AcDbEntity
  8
HEX_BODY
370
     0
390
0
  6
CL____X1
 62
     1
100
AcDbLine
 10
5.488038
 20
4.887653
 30
0.0
 11
5.467039
 21
4.899777
 31
0.0
  0
LINE
  5
1AA
100
AcDbEntity
  8
HEX_BODY
370
     0
390
0
  6
CL____X1
 62
     1
100
AcDbLine
 10
5.467039
 20
5.840941
 30
0.0
 11
5.467039
 21
4.899777
 31
0.0
  0
LINE
  5
1AB
100
AcDbEntity
  8
HEX_BODY
370
     0
390
0
  6
CL____X1
 62
     1
100
AcDbLine
 10
5.488038
 20
4.887653
 30
0.0
 11
5.488038
 21
3.930777
 31
0.0
  0
LINE
  5
1AC
100
AcDbEntity
  8
HEX_BODY
370
     0
390
0
  6
CL____X1
 62
     1
100
AcDbLine
 10
5.509038
 20
3.918653
 30
0.0
 11
5.488038
 21
3.930777
 31
0.0
  0
LINE
  5
1AD
100
AcDbEntity
  8
HEX_BODY
370
     0
390
0
  6
CL____X1
 62
     1
100
AcDbLine
 10
5.509038
 20
3.918653
 30
0.0
 11
5.509038
 21
3.501263
 31
0.0
  0
LINE
  5
1AE
100
AcDbEntity
  8
HEX_BODY
370
     0
390
0
  6
Continuous
 62
     7
100
AcDbLine
 10
5.478038
 20
3.83327
 30
0.0
 11
5.478038
 21
3.479777
 31
0.0
  0
LINE
  5
1AF
100
AcDbEntity
  8
HEX_BODY
370
     0
390
0
  6
Continuous
 62
     7
100
AcDbLine
 10
5.722492
 20
3.467777
 30
0.0
 11
5.490038
 21
3.467777
 31
0.0
  0
LINE
  5
1B0
100
AcDbEntity
  8
HEX_BODY
370
     0
390
0
  6
Continuous
 62
     7
100
AcDbLine
 10
5.478038
 20
3.479777
 30
0.0
 11
5.490038
 21
3.467777
 31
0.0
  0
ARC
  5
1B1
100
AcDbEntity
  8
SEAL_RETAINER
370
     0
390
0
  6
Continuous
 62
     1
100
AcDbCircle
 10
5.457532
 20
3.868787
 30
0.0
 40
0.370025
100
AcDbArc
 50
120.0
 51
142.596793
  0
ARC
  5
1B2
100
AcDbEntity
  8
SEAL_RETAINER
370
     0
390
0
  6
Continuous
 62
     1
100
AcDbCircle
 10
5.457532
 20
3.868787
 30
0.0
 40
0.370025
100
AcDbArc
 50
68.241256
 51
90.0
  0
TEXT
  5
1B3
100
AcDbEntity
  8
SEAL_RETAINER
370
     0
390
0
  6
Continuous
 62
     7
100
AcDbText
 10
5.274687
 20
4.200163
 30
0.0
 40
0.057
  1
30^  
  7
Vcadd_SIMP
100
AcDbText
  0
TEXT
  5
1B4
100
AcDbEntity
  8
SEAL_RETAINER
370
     0
390
0
  6
Continuous
 62
     7
100
AcDbText
 10
5.274687
 20
4.114663
 30
0.0
 40
0.057
  1
 **
  7
Vcadd_SIMP
100
AcDbText
  0
LINE
  5
1B5
100
AcDbEntity
  8
SEAL_RETAINER
370
     0
390
0
  6
Continuous
 62
     1
100
AcDbLine
 10
5.419511
 20
3.934642
 30
0.0
 11
5.239757
 21
4.245985
 31
0.0
  0
LINE
  5
1B6
100
AcDbEntity
  8
SEAL_RETAINER
370
     0
390
0
  6
Continuous
 62
     1
100
AcDbLine
 10
5.005472
 20
4.074165
 30
0.0
 11
5.084208
 21
4.074165
 31
0.0
  0
LINE
  5
1B7
100
AcDbEntity
  8
SEAL_RETAINER
370
     0
390
0
  6
Continuous
 62
     1
100
AcDbLine
 10
5.084208
 20
4.074165
 30
0.0
 11
5.36978
 21
3.758235
 31
0.0
  0
LINE
  5
1B8
100
AcDbEntity
  8
SEAL_RETAINER
370
     0
390
0
  6
Continuous
 62
     1
100
AcDbLine
 10
5.36978
 20
3.758235
 30
0.0
 11
5.478038
 21
3.83327
 31
0.0
  0
LINE
  5
1B9
100
AcDbEntity
  8
SEAL_RETAINER
370
     0
390
0
  6
Continuous
 62
     1
100
AcDbLine
 10
5.13062
 20
4.680549
 30
0.0
 11
5.209356
 21
4.680549
 31
0.0
  0
LINE
  5
1BA
100
AcDbEntity
  8
SEAL_RETAINER
370
     0
390
0
  6
Continuous
 62
     1
100
AcDbLine
 10
5.209356
 20
4.680549
 30
0.0
 11
5.457538
 21
4.801404
 31
0.0
  0
LINE
  5
1BB
100
AcDbEntity
  8
SEAL_RETAINER
370
     0
390
0
  6
Continuous
 62
     1
100
AcDbLine
 10
5.089115
 20
6.589169
 30
0.0
 11
5.16785
 21
6.589169
 31
0.0
  0
LINE
  5
1BC
100
AcDbEntity
  8
SEAL_RETAINER
370
     0
390
0
  6
Continuous
 62
     1
100
AcDbLine
 10
5.16785
 20
6.589169
 30
0.0
 11
5.416032
 21
6.710023
 31
0.0
  0
ARC
  5
1BD
100
AcDbEntity
  8
SEAL_RETAINER
370
     0
390
0
  6
Continuous
 62
     1
100
AcDbCircle
 10
5.416032
 20
5.790787
 30
0.0
 40
0.370025
100
AcDbArc
 50
120.0
 51
142.596793
  0
ARC
  5
1BE
100
AcDbEntity
  8
SEAL_RETAINER
370
     0
390
0
  6
Continuous
 62
     1
100
AcDbCircle
 10
5.416032
 20
5.790787
 30
0.0
 40
0.370025
100
AcDbArc
 50
68.241256
 51
90.0
  0
TEXT
  5
1BF
100
AcDbEntity
  8
SEAL_RETAINER
370
     0
390
0
  6
Continuous
 62
     7
100
AcDbText
 10
5.233187
 20
6.122163
 30
0.0
 40
0.057
  1
30^  
  7
Vcadd_SIMP
100
AcDbText
  0
TEXT
  5
1C0
100
AcDbEntity
  8
SEAL_RETAINER
370
     0
390
0
  6
Continuous
 62
     7
100
AcDbText
 10
5.233187
 20
6.036663
 30
0.0
 40
0.057
  1
 **
  7
Vcadd_SIMP
100
AcDbText
  0
LINE
  5
1C1
100
AcDbEntity
  8
SEAL_RETAINER
370
     0
390
0
  6
Continuous
 62
     1
100
AcDbLine
 10
5.382045
 20
5.849655
 30
0.0
 11
5.198257
 21
6.167985
 31
0.0
  0
LINE
  5
1C2
100
AcDbEntity
  8
0
370
     0
390
0
  6
Continuous
 62
     1
100
AcDbLine
 10
4.954952
 20
6.394543
 30
0.0
 11
4.891944
 21
6.284909
 31
0.0
  0
LINE
  5
1C3
100
AcDbEntity
  8
0
370
     0
390
0
  6
Continuous
 62
     1
100
AcDbLine
 10
4.911595
 20
6.394543
 30
0.0
 11
4.954952
 21
6.394543
 31
0.0
  0
LINE
  5
1C4
100
AcDbEntity
  8
0
370
     0
390
0
  6
Continuous
 62
     1
100
AcDbLine
 10
4.891949
 20
6.284917
 30
0.0
 11
4.865748
 21
6.330299
 31
0.0
  0
TEXT
  5
1C5
100
AcDbEntity
  8
SEAL_RETAINER
370
     0
390
0
  6
Continuous
 62
     7
100
AcDbText
 10
4.308293
 20
6.301079
 30
0.0
 40
0.071
  1
.895
  7
Vcadd_SIMP
100
AcDbText
  0
TEXT
  5
1C6
100
AcDbEntity
  8
SEAL_RETAINER
370
     0
390
0
  6
Continuous
 62
     7
100
AcDbText
 10
4.812483
 20
6.340785
 30
0.0
 40
0.051546
  1
63
  7
Vcadd_SIMP
100
AcDbText
  0
LINE
  5
1C7
100
AcDbEntity
  8
TEXT
370
     0
390
0
  6
Continuous
 62
     1
100
AcDbLine
 10
4.57782
 20
6.284909
 30
0.0
 11
4.341874
 21
6.284909
 31
0.0
  0
LINE
  5
1C8
100
AcDbEntity
  8
SEAL_RETAINER
370
     0
390
0
  6
Continuous
 62
     7
100
AcDbLine
 10
4.607395
 20
6.247839
 30
0.0
 11
4.64741
 21
6.332006
 31
0.0
  0
TEXT
  5
1C9
100
AcDbEntity
  8
SEAL_RETAINER
370
     0
390
0
  6
Continuous
 62
     7
100
AcDbText
 10
4.597286
 20
6.251321
 30
0.0
 40
0.081375
  1
O
  7
Vcadd_SIMP
100
AcDbText
  0
LINE
  5
1CA
100
AcDbEntity
  8
SEAL_RETAINER
370
     0
390
0
  6
Continuous
 62
     1
100
AcDbLine
 10
4.681077
 20
6.284909
 30
0.0
 11
5.416032
 21
6.284909
 31
0.0
  0
TEXT
  5
1CB
100
AcDbEntity
  8
SEAL_RETAINER
370
     0
390
0
  6
Continuous
 62
     7
100
AcDbText
 10
4.308293
 20
6.202049
 30
0.0
 40
0.071
  1
.897
  7
Vcadd_SIMP
100
AcDbText
  0
LINE
  5
1CC
100
AcDbEntity
  8
SEAL_RETAINER
370
     0
390
0
  6
Continuous
 62
     1
100
AcDbLine
 10
5.109615
 20
5.634416
 30
0.0
 11
5.188351
 21
5.634416
 31
0.0
  0
LINE
  5
1CD
100
AcDbEntity
  8
SEAL_RETAINER
370
     0
390
0
  6
Continuous
 62
     1
100
AcDbLine
 10
5.188351
 20
5.634416
 30
0.0
 11
5.436532
 21
5.75527
 31
0.0
  0
ARC
  5
1CE
100
AcDbEntity
  8
SEAL_RETAINER
370
     0
390
0
  6
Continuous
 62
     1
100
AcDbCircle
 10
5.436532
 20
4.837787
 30
0.0
 40
0.370025
100
AcDbArc
 50
120.0
 51
142.596793
  0
ARC
  5
1CF
100
AcDbEntity
  8
SEAL_RETAINER
370
     0
390
0
  6
Continuous
 62
     1
100
AcDbCircle
 10
5.436532
 20
4.837787
 30
0.0
 40
0.370025
100
AcDbArc
 50
68.241256
 51
90.0
  0
TEXT
  5
1D0
100
AcDbEntity
  8
SEAL_RETAINER
370
     0
390
0
  6
Continuous
 62
     7
100
AcDbText
 10
5.253687
 20
5.169163
 30
0.0
 40
0.057
  1
30^  
  7
Vcadd_SIMP
100
AcDbText
  0
TEXT
  5
1D1
100
AcDbEntity
  8
SEAL_RETAINER
370
     0
390
0
  6
Continuous
 62
     7
100
AcDbText
 10
5.253687
 20
5.083663
 30
0.0
 40
0.057
  1
 **
  7
Vcadd_SIMP
100
AcDbText
  0
LINE
  5
1D2
100
AcDbEntity
  8
SEAL_RETAINER
370
     0
390
0
  6
Continuous
 62
     1
100
AcDbLine
 10
5.402545
 20
4.896655
 30
0.0
 11
5.218757
 21
5.214985
 31
0.0
  0
ARC
  5
1D3
100
AcDbEntity
  8
SEAL_RETAINER
370
     0
390
0
  6
Continuous
 62
     1
100
AcDbCircle
 10
5.396531
 20
6.743809
 30
0.0
 40
0.370025
100
AcDbArc
 50
120.0
 51
142.596793
  0
ARC
  5
1D4
100
AcDbEntity
  8
SEAL_RETAINER
370
     0
390
0
  6
Continuous
 62
     1
100
AcDbCircle
 10
5.396531
 20
6.743809
 30
0.0
 40
0.370025
100
AcDbArc
 50
68.241256
 51
90.0
  0
TEXT
  5
1D5
100
AcDbEntity
  8
SEAL_RETAINER
370
     0
390
0
  6
Continuous
 62
     7
100
AcDbText
 10
5.213686
 20
7.075186
 30
0.0
 40
0.057
  1
30^  
  7
Vcadd_SIMP
100
AcDbText
  0
TEXT
  5
1D6
100
AcDbEntity
  8
SEAL_RETAINER
370
     0
390
0
  6
Continuous
 62
     7
100
AcDbText
 10
5.213686
 20
6.989686
 30
0.0
 40
0.057
  1
 **
  7
Vcadd_SIMP
100
AcDbText
  0
LINE
  5
1D7
100
AcDbEntity
  8
SEAL_RETAINER
370
     0
390
0
  6
Continuous
 62
     1
100
AcDbLine
 10
5.361583
 20
6.804342
 30
0.0
 11
5.178756
 21
7.121007
 31
0.0
  0
TEXT
  5
1D8
100
AcDbEntity
  8
SEAL_RETAINER
370
     0
390
0
  6
Continuous
 62
     7
100
AcDbText
 10
4.308293
 20
6.93438
 30
0.0
 40
0.071
  1
.933
  7
Vcadd_SIMP
100
AcDbText
  0
LINE
  5
1D9
100
AcDbEntity
  8
SEAL_RETAINER
370
     0
390
0
  6
Continuous
 62
     7
100
AcDbLine
 10
4.607395
 20
6.88114
 30
0.0
 11
4.64741
 21
6.965308
 31
0.0
  0
TEXT
  5
1DA
100
AcDbEntity
  8
SEAL_RETAINER
370
     0
390
0
  6
Continuous
 62
     7
100
AcDbText
 10
4.597286
 20
6.884623
 30
0.0
 40
0.081375
  1
O
  7
Vcadd_SIMP
100
AcDbText
  0
LINE
  5
1DB
100
AcDbEntity
  8
TEXT
370
     0
390
0
  6
Continuous
 62
     1
100
AcDbLine
 10
4.573632
 20
6.91821
 30
0.0
 11
4.33889
 21
6.91821
 31
0.0
  0
LINE
  5
1DC
100
AcDbEntity
  8
SEAL_RETAINER
370
     0
390
0
  6
Continuous
 62
     1
100
AcDbLine
 10
4.682454
 20
6.91821
 30
0.0
 11
5.396531
 21
6.91821
 31
0.0
  0
TEXT
  5
1DD
100
AcDbEntity
  8
SEAL_RETAINER
370
     0
390
0
  6
Continuous
 62
     7
100
AcDbText
 10
4.308293
 20
6.83535
 30
0.0
 40
0.071
  1
.937
  7
Vcadd_SIMP
100
AcDbText
  0
TEXT
  5
1DE
100
AcDbEntity
  8
SEAL_RETAINER
370
     0
390
0
  6
Continuous
 62
     7
100
AcDbText
 10
7.798933
 20
8.026747
 30
0.0
 40
0.071
  1
.219
  7
Vcadd_SIMP
100
AcDbText
  0
LINE
  5
1DF
100
AcDbEntity
  8
TEXT
370
     0
390
0
  6
Continuous
 62
     1
100
AcDbLine
 10
7.807942
 20
8.056798
 30
0.0
 11
6.554771
 21
8.056798
 31
0.0
  0
LINE
  5
1E0
100
AcDbEntity
  8
SEAL_RETAINER
370
     0
390
0
  6
Continuous
 62
     1
100
AcDbLine
 10
5.372628
 20
4.837777
 30
0.0
 11
4.33221
 21
4.837777
 31
0.0
  0
LINE
  5
1E1
100
AcDbEntity
  8
SEAL_RETAINER
370
     0
390
0
  6
Continuous
 62
     1
100
AcDbLine
 10
5.372628
 20
5.790777
 30
0.0
 11
4.33221
 21
5.790777
 31
0.0
  0
LINE
  5
1E2
100
AcDbEntity
  8
SEAL_RETAINER
370
     0
390
0
  6
Continuous
 62
     1
100
AcDbLine
 10
5.362068
 20
6.743798
 30
0.0
 11
4.33221
 21
6.743798
 31
0.0
  0
LINE
  5
1E3
100
AcDbEntity
  8
SEAL_RETAINER
370
     0
390
0
  6
Continuous
 62
     1
100
AcDbLine
 10
4.33221
 20
7.54438
 30
0.0
 11
5.010135
 21
7.54438
 31
0.0
  0
LINE
  5
1E4
100
AcDbEntity
  8
SEAL_RETAINER
370
     0
390
0
  6
Continuous
 62
     1
100
AcDbLine
 10
5.314887
 20
7.212798
 30
0.0
 11
4.33221
 21
7.212798
 31
0.0
  0
TEXT
  5
1E5
100
AcDbEntity
  8
SEAL_RETAINER
370
     0
390
0
  6
Continuous
 62
     7
100
AcDbText
 10
4.361415
 20
7.23511
 30
0.0
 40
0.071
  1
MIN. FULL
  7
Vcadd_SIMP
100
AcDbText
  0
INSERT
  5
1ED
100
AcDbEntity
  8
SEAL_RETAINER
370
    15
390
0
  6
Continuous
 62
     7
100
AcDbBlockReference
  2
DELTA
 10
4.835699
 20
7.122113
 30
0.0
 41
0.5
 42
0.5
  0
TEXT
  5
1EE
100
AcDbEntity
  8
SEAL_RETAINER
370
     0
390
0
  6
Continuous
 62
     7
100
AcDbText
 10
4.37694
 20
7.120765
 30
0.0
 40
0.071
  1
THREAD
  7
Vcadd_SIMP
100
AcDbText
  0
TEXT
  5
1EF
100
AcDbEntity
  8
SEAL_RETAINER
370
     0
390
0
  6
Continuous
 62
     7
100
AcDbText
 10
4.040231
 20
7.182699
 30
0.0
 40
0.071
  1
.625
  7
Vcadd_SIMP
100
AcDbText
  0
TEXT
  5
1F0
100
AcDbEntity
  8
SEAL_RETAINER
370
     0
390
0
  6
Continuous
 62
     7
100
AcDbText
 10
4.045168
 20
7.51453
 30
0.0
 40
0.071
  1
.156
  7
Vcadd_SIMP
100
AcDbText
  0
TEXT
  5
1F1
100
AcDbEntity
  8
SEAL_RETAINER
370
     0
390
0
  6
Continuous
 62
     7
100
AcDbText
 10
3.971702
 20
6.715616
 30
0.0
 40
0.071
  1
1.094
  7
Vcadd_SIMP
100
AcDbText
  0
TEXT
  5
1F2
100
AcDbEntity
  8
SEAL_RETAINER
370
     0
390
0
  6
Continuous
 62
     7
100
AcDbText
 10
3.98375
 20
5.760914
 30
0.0
 40
0.071
  1
2.047
  7
Vcadd_SIMP
100
AcDbText
  0
TEXT
  5
1F3
100
AcDbEntity
  8
SEAL_RETAINER
370
     0
390
0
  6
Continuous
 62
     7
100
AcDbText
 10
3.98375
 20
4.807914
 30
0.0
 40
0.071
  1
3.000
  7
Vcadd_SIMP
100
AcDbText
  0
LINE
  5
1F4
100
AcDbEntity
  8
SEAL_RETAINER
370
     0
390
0
  6
Continuous
 62
     1
100
AcDbLine
 10
4.682454
 20
5.351625
 30
0.0
 11
5.436532
 21
5.351625
 31
0.0
  0
LINE
  5
1F5
100
AcDbEntity
  8
SEAL_RETAINER
370
     0
390
0
  6
Continuous
 62
     1
100
AcDbLine
 10
4.682454
 20
4.383459
 30
0.0
 11
5.457538
 21
4.383459
 31
0.0
  0
LINE
  5
1F6
100
AcDbEntity
  8
SEAL_RETAINER
370
     0
390
0
  6
Continuous
 62
     1
100
AcDbLine
 10
4.682454
 20
3.669939
 30
0.0
 11
5.478038
 21
3.669939
 31
0.0
  0
LINE
  5
1F7
100
AcDbEntity
  8
TEXT
370
     0
390
0
  6
Continuous
 62
     1
100
AcDbLine
 10
4.575488
 20
5.351625
 30
0.0
 11
4.342332
 21
5.351625
 31
0.0
  0
LINE
  5
1F8
100
AcDbEntity
  8
SEAL_RETAINER
370
     0
390
0
  6
Continuous
 62
     7
100
AcDbLine
 10
4.606604
 20
5.314555
 30
0.0
 11
4.646618
 21
5.398722
 31
0.0
  0
TEXT
  5
1F9
100
AcDbEntity
  8
SEAL_RETAINER
370
     0
390
0
  6
Continuous
 62
     7
100
AcDbText
 10
4.596494
 20
5.318038
 30
0.0
 40
0.081375
  1
O
  7
Vcadd_SIMP
100
AcDbText
  0
LINE
  5
1FA
100
AcDbEntity
  8
0
370
     0
390
0
  6
Continuous
 62
     1
100
AcDbLine
 10
4.809194
 20
5.461259
 30
0.0
 11
4.746186
 21
5.351625
 31
0.0
  0
LINE
  5
1FB
100
AcDbEntity
  8
0
370
     0
390
0
  6
Continuous
 62
     1
100
AcDbLine
 10
4.765837
 20
5.461259
 30
0.0
 11
4.809194
 21
5.461259
 31
0.0
  0
LINE
  5
1FC
100
AcDbEntity
  8
0
370
     0
390
0
  6
Continuous
 62
     1
100
AcDbLine
 10
4.746192
 20
5.351634
 30
0.0
 11
4.71999
 21
5.397015
 31
0.0
  0
TEXT
  5
1FD
100
AcDbEntity
  8
SEAL_RETAINER
370
     0
390
0
  6
Continuous
 62
     7
100
AcDbText
 10
4.666726
 20
5.407501
 30
0.0
 40
0.051546
  1
63
  7
Vcadd_SIMP
100
AcDbText
  0
TEXT
  5
1FE
100
AcDbEntity
  8
SEAL_RETAINER
370
     0
390
0
  6
Continuous
 62
     7
100
AcDbText
 10
4.307148
 20
5.367795
 30
0.0
 40
0.071
  1
.854
  7
Vcadd_SIMP
100
AcDbText
  0
TEXT
  5
1FF
100
AcDbEntity
  8
SEAL_RETAINER
370
     0
390
0
  6
Continuous
 62
     7
100
AcDbText
 10
4.307148
 20
5.279045
 30
0.0
 40
0.071
  1
.856
  7
Vcadd_SIMP
100
AcDbText
  0
LINE
  5
200
100
AcDbEntity
  8
TEXT
370
     0
390
0
  6
Continuous
 62
     1
100
AcDbLine
 10
4.575488
 20
4.383459
 30
0.0
 11
4.342332
 21
4.383459
 31
0.0
  0
LINE
  5
201
100
AcDbEntity
  8
SEAL_RETAINER
370
     0
390
0
  6
Continuous
 62
     7
100
AcDbLine
 10
4.606604
 20
4.346389
 30
0.0
 11
4.646618
 21
4.430556
 31
0.0
  0
TEXT
  5
202
100
AcDbEntity
  8
SEAL_RETAINER
370
     0
390
0
  6
Continuous
 62
     7
100
AcDbText
 10
4.596494
 20
4.349872
 30
0.0
 40
0.081375
  1
O
  7
Vcadd_SIMP
100
AcDbText
  0
LINE
  5
203
100
AcDbEntity
  8
0
370
     0
390
0
  6
Continuous
 62
     1
100
AcDbLine
 10
4.809194
 20
4.493093
 30
0.0
 11
4.746186
 21
4.383459
 31
0.0
  0
LINE
  5
204
100
AcDbEntity
  8
0
370
     0
390
0
  6
Continuous
 62
     1
100
AcDbLine
 10
4.765837
 20
4.493093
 30
0.0
 11
4.809194
 21
4.493093
 31
0.0
  0
LINE
  5
205
100
AcDbEntity
  8
0
370
     0
390
0
  6
Continuous
 62
     1
100
AcDbLine
 10
4.746192
 20
4.383468
 30
0.0
 11
4.71999
 21
4.428849
 31
0.0
  0
TEXT
  5
206
100
AcDbEntity
  8
SEAL_RETAINER
370
     0
390
0
  6
Continuous
 62
     7
100
AcDbText
 10
4.666726
 20
4.439335
 30
0.0
 40
0.051546
  1
63
  7
Vcadd_SIMP
100
AcDbText
  0
TEXT
  5
207
100
AcDbEntity
  8
SEAL_RETAINER
370
     0
390
0
  6
Continuous
 62
     7
100
AcDbText
 10
4.307148
 20
4.399629
 30
0.0
 40
0.071
  1
.812
  7
Vcadd_SIMP
100
AcDbText
  0
TEXT
  5
208
100
AcDbEntity
  8
SEAL_RETAINER
370
     0
390
0
  6
Continuous
 62
     7
100
AcDbText
 10
4.307148
 20
4.310879
 30
0.0
 40
0.071
  1
.814
  7
Vcadd_SIMP
100
AcDbText
  0
LINE
  5
209
100
AcDbEntity
  8
TEXT
370
     0
390
0
  6
Continuous
 62
     1
100
AcDbLine
 10
4.575488
 20
3.669939
 30
0.0
 11
4.342332
 21
3.669939
 31
0.0
  0
LINE
  5
20A
100
AcDbEntity
  8
SEAL_RETAINER
370
     0
390
0
  6
Continuous
 62
     7
100
AcDbLine
 10
4.606604
 20
3.632869
 30
0.0
 11
4.646618
 21
3.717037
 31
0.0
  0
TEXT
  5
20B
100
AcDbEntity
  8
SEAL_RETAINER
370
     0
390
0
  6
Continuous
 62
     7
100
AcDbText
 10
4.596494
 20
3.636352
 30
0.0
 40
0.081375
  1
O
  7
Vcadd_SIMP
100
AcDbText
  0
LINE
  5
20C
100
AcDbEntity
  8
0
370
     0
390
0
  6
Continuous
 62
     1
100
AcDbLine
 10
4.809194
 20
3.779573
 30
0.0
 11
4.746186
 21
3.669939
 31
0.0
  0
LINE
  5
20D
100
AcDbEntity
  8
0
370
     0
390
0
  6
Continuous
 62
     1
100
AcDbLine
 10
4.765837
 20
3.779573
 30
0.0
 11
4.809194
 21
3.779573
 31
0.0
  0
LINE
  5
20E
100
AcDbEntity
  8
0
370
     0
390
0
  6
Continuous
 62
     1
100
AcDbLine
 10
4.746192
 20
3.669948
 30
0.0
 11
4.71999
 21
3.71533
 31
0.0
  0
TEXT
  5
20F
100
AcDbEntity
  8
SEAL_RETAINER
370
     0
390
0
  6
Continuous
 62
     7
100
AcDbText
 10
4.666726
 20
3.725815
 30
0.0
 40
0.051546
  1
63
  7
Vcadd_SIMP
100
AcDbText
  0
TEXT
  5
210
100
AcDbEntity
  8
SEAL_RETAINER
370
     0
390
0
  6
Continuous
 62
     7
100
AcDbText
 10
4.307148
 20
3.686109
 30
0.0
 40
0.071
  1
.771
  7
Vcadd_SIMP
100
AcDbText
  0
TEXT
  5
211
100
AcDbEntity
  8
SEAL_RETAINER
370
     0
390
0
  6
Continuous
 62
     7
100
AcDbText
 10
4.307148
 20
3.597359
 30
0.0
 40
0.071
  1
.773
  7
Vcadd_SIMP
100
AcDbText
  0
LINE
  5
212
100
AcDbEntity
  8
SEAL_RETAINER
370
     0
390
0
  6
Continuous
 62
     1
100
AcDbLine
 10
5.421465
 20
3.868777
 30
0.0
 11
4.33221
 21
3.868777
 31
0.0
  0
TEXT
  5
213
100
AcDbEntity
  8
SEAL_RETAINER
370
     0
390
0
  6
Continuous
 62
     7
100
AcDbText
 10
3.980638
 20
3.836283
 30
0.0
 40
0.071
  1
3.969
  7
Vcadd_SIMP
100
AcDbText
  0
LINE
  5
214
100
AcDbEntity
  8
SEAL_RETAINER
370
     0
390
0
  6
Continuous
 62
     1
100
AcDbLine
 10
4.323518
 20
3.467777
 30
0.0
 11
3.987075
 21
3.467777
 31
0.0
  0
TEXT
  5
215
100
AcDbEntity
  8
SEAL_RETAINER
370
     0
390
0
  6
Continuous
 62
     7
100
AcDbText
 10
3.988354
 20
3.479461
 30
0.0
 40
0.071
  1
4.368
  7
Vcadd_SIMP
100
AcDbText
  0
TEXT
  5
216
100
AcDbEntity
  8
SEAL_RETAINER
370
     0
390
0
  6
Continuous
 62
     7
100
AcDbText
 10
3.988354
 20
3.390711
 30
0.0
 40
0.071
  1
4.372
  7
Vcadd_SIMP
100
AcDbText
  0
LINE
  5
217
100
AcDbEntity
  8
SEAL_RETAINER
370
     0
390
0
  6
Continuous
 62
     1
100
AcDbLine
 10
5.461422
 20
3.467777
 30
0.0
 11
4.361649
 21
3.467777
 31
0.0
  0
TEXT
  5
218
100
AcDbEntity
  8
SEAL_RETAINER
370
     0
390
0
  6
Continuous
 62
     7
100
AcDbText
 10
7.561935
 20
8.440606
 30
0.0
 40
0.071
  1
MINIMUM
  7
Vcadd_SIMP
100
AcDbText
  0
TEXT
  5
219
100
AcDbEntity
  8
SEAL_RETAINER
370
     0
390
0
  6
Continuous
 62
     7
100
AcDbText
 10
7.420432
 20
8.352372
 30
0.0
 40
0.071
  1
L.S.DEPTH
  7
Vcadd_SIMP
100
AcDbText
  0
LINE
  5
21A
100
AcDbEntity
  8
HEX_BODY
370
     0
390
0
  6
Continuous
 62
     1
100
AcDbLine
 10
6.493096
 20
8.556798
 30
0.0
 11
6.403538
 21
8.46724
 31
0.0
  0
LINE
  5
21B
100
AcDbEntity
  8
HEX_BODY
370
     0
390
0
  6
Continuous
 62
     1
100
AcDbLine
 10
6.58002
 20
8.556798
 30
0.0
 11
6.403538
 21
8.380316
 31
0.0
  0
LINE
  5
21C
100
AcDbEntity
  8
HEX_BODY
370
     0
390
0
  6
Continuous
 62
     1
100
AcDbLine
 10
6.664574
 20
8.556798
 30
0.0
 11
6.403538
 21
8.295761
 31
0.0
  0
TEXT
  5
21D
100
AcDbEntity
  8
SEAL_RETAINER
370
     0
390
0
  6
Continuous
 62
     7
100
AcDbText
 10
7.774725
 20
8.526013
 30
0.0
 40
0.071
  1
.719
  7
Vcadd_SIMP
100
AcDbText
  0
LINE
  5
21E
100
AcDbEntity
  8
SEAL_RETAINER
370
     0
390
0
  6
Continuous
 62
     1
100
AcDbLine
 10
6.434538
 20
8.556798
 30
0.0
 11
7.784012
 21
8.556798
 31
0.0
  0
LINE
  5
21F
100
AcDbEntity
  8
0
370
     0
390
0
  6
CL____X1
 62
     1
100
AcDbLine
 10
6.614038
 20
8.962798
 30
0.0
 11
6.520038
 21
8.908527
 31
0.0
  0
LINE
  5
220
100
AcDbEntity
  8
SEAL_RETAINER
370
     0
390
0
  6
Continuous
 62
     1
100
AcDbLine
 10
6.614038
 20
8.962798
 30
0.0
 11
6.823411
 21
8.962798
 31
0.0
  0
LINE
  5
221
100
AcDbEntity
  8
SEAL_RETAINER
370
     0
390
0
  6
Continuous
 62
     1
100
AcDbLine
 10
7.685151
 20
8.787231
 30
0.0
 11
6.758644
 21
8.787231
 31
0.0
  0
LINE
  5
222
100
AcDbEntity
  8
SEAL_RETAINER
370
     0
390
0
  6
Continuous
 62
     1
100
AcDbLine
 10
6.823411
 20
8.962798
 30
0.0
 11
6.758644
 21
8.787231
 31
0.0
  0
TEXT
  5
223
100
AcDbEntity
  8
SEAL_RETAINER
370
     0
390
0
  6
Continuous
 62
     7
100
AcDbText
 10
7.104464
 20
9.4415
 30
0.0
 40
0.071
  1
*SEPARATE DRILL
  7
Vcadd_SIMP
100
AcDbText
  0
TEXT
  5
224
100
AcDbEntity
  8
SEAL_RETAINER
370
     0
390
0
  6
Continuous
 62
     7
100
AcDbText
 10
7.104464
 20
9.335
 30
0.0
 40
0.071
  1
FOR SOCKET
  7
Vcadd_SIMP
100
AcDbText
  0
TEXT
  5
225
100
AcDbEntity
  8
SEAL_RETAINER
370
     0
390
0
  6
Continuous
 62
     7
100
AcDbText
 10
7.104464
 20
9.2285
 30
0.0
 40
0.071
  1
CLEARANCE
  7
Vcadd_SIMP
100
AcDbText
  0
TEXT
  5
226
100
AcDbEntity
  8
SEAL_RETAINER
370
     0
390
0
  6
Continuous
 62
     7
100
AcDbText
 10
7.047159
 20
9.065552
 30
0.0
 40
0.071
  1
1.500
  7
Vcadd_SIMP
100
AcDbText
  0
LINE
  5
227
100
AcDbEntity
  8
SEAL_RETAINER
370
     0
390
0
  6
Continuous
 62
     1
100
AcDbLine
 10
6.614038
 20
9.237556
 30
0.0
 11
6.957628
 21
9.237556
 31
0.0
  0
LINE
  5
228
100
AcDbEntity
  8
SEAL_RETAINER
370
     0
390
0
  6
Continuous
 62
     1
100
AcDbLine
 10
7.03832
 20
9.092827
 30
0.0
 11
6.915573
 21
9.092827
 31
0.0
  0
LINE
  5
229
100
AcDbEntity
  8
SEAL_RETAINER
370
     0
390
0
  6
Continuous
 62
     1
100
AcDbLine
 10
6.915573
 20
9.092827
 30
0.0
 11
6.957628
 21
9.237556
 31
0.0
  0
LINE
  5
22A
100
AcDbEntity
  8
SEAL_RETAINER
370
     0
390
0
  6
Continuous
 62
     1
100
AcDbLine
 10
7.091398
 20
9.476713
 30
0.0
 11
7.019188
 21
9.476713
 31
0.0
  0
LINE
  5
22B
100
AcDbEntity
  8
SEAL_RETAINER
370
     0
390
0
  6
Continuous
 62
     1
100
AcDbLine
 10
7.019188
 20
9.476713
 30
0.0
 11
7.019188
 21
9.176764
 31
0.0
  0
LINE
  5
22C
100
AcDbEntity
  8
SEAL_RETAINER
370
     0
390
0
  6
Continuous
 62
     1
100
AcDbLine
 10
7.019188
 20
9.176764
 30
0.0
 11
7.577427
 21
9.176764
 31
0.0
  0
LINE
  5
22D
100
AcDbEntity
  8
SEAL_RETAINER
370
     0
390
0
  6
Continuous
 62
     1
100
AcDbLine
 10
7.577427
 20
9.176764
 30
0.0
 11
7.577427
 21
9.092827
 31
0.0
  0
LINE
  5
22E
100
AcDbEntity
  8
SEAL_RETAINER
370
     0
390
0
  6
Continuous
 62
     1
100
AcDbLine
 10
7.516634
 20
9.092827
 30
0.0
 11
7.577427
 21
9.092827
 31
0.0
  0
LINE
  5
22F
100
AcDbEntity
  8
0
370
     0
390
0
  6
Continuous
 62
     1
100
AcDbLine
 10
6.403538
 20
8.525798
 30
0.0
 11
6.434538
 21
8.556798
 31
0.0
  0
LINE
  5
230
100
AcDbEntity
  8
0
370
     0
390
0
  6
CL____X1
 62
     1
100
AcDbLine
 10
6.434538
 20
8.556798
 30
0.0
 11
6.520038
 21
8.642298
 31
0.0
  0
LINE
  5
231
100
AcDbEntity
  8
0
370
     0
390
0
  6
CL____X1
 62
     1
100
AcDbLine
 10
6.497423
 20
8.962798
 30
0.0
 11
6.614038
 21
8.962798
 31
0.0
  0
LINE
  5
232
100
AcDbEntity
  8
0
370
     0
390
0
  6
CL____X1
 62
     1
100
AcDbLine
 10
6.520038
 20
8.642298
 30
0.0
 11
6.520038
 21
8.908527
 31
0.0
  0
LINE
  5
233
100
AcDbEntity
  8
SEAL_RETAINER
370
     0
390
0
  6
Continuous
 62
     7
100
AcDbLine
 10
7.432796
 20
9.054131
 30
0.0
 11
7.472811
 21
9.138298
 31
0.0
  0
TEXT
  5
234
100
AcDbEntity
  8
SEAL_RETAINER
370
     0
390
0
  6
Continuous
 62
     7
100
AcDbText
 10
7.422687
 20
9.057613
 30
0.0
 40
0.081375
  1
O
  7
Vcadd_SIMP
100
AcDbText
  0
TEXT
  5
235
100
AcDbEntity
  8
SEAL_RETAINER
370
     0
390
0
  6
Continuous
 62
     7
100
AcDbText
 10
6.752548
 20
8.63752
 30
0.0
 40
0.071
  1
1.125 HEX
  7
Vcadd_SIMP
100
AcDbText
  0
LINE
  5
236
100
AcDbEntity
  8
0
370
     0
390
0
  6
Continuous
 62
     1
100
AcDbLine
 10
6.745039
 20
8.664231
 30
0.0
 11
6.70747
 21
8.664231
 31
0.0
  0
LINE
  5
237
100
AcDbEntity
  8
0
370
     0
390
0
  6
Continuous
 62
     1
100
AcDbLine
 10
6.70747
 20
8.664231
 30
0.0
 11
6.498038
 21
8.780884
 31
0.0
  0
LINE
  5
238
100
AcDbEntity
  8
0
370
     0
390
0
  6
Continuous
 62
     1
100
AcDbLine
 10
5.396538
 20
7.6333
 30
0.0
 11
5.396539
 21
7.633299
 31
0.0
  0
LINE
  5
239
100
AcDbEntity
  8
0
370
     0
390
0
  6
Continuous
 62
     1
100
AcDbLine
 10
5.441345
 20
7.588492
 30
0.0
 11
5.69639
 21
7.333448
 31
0.0
  0
TEXT
  5
23A
100
AcDbEntity
  8
SEAL_RETAINER
370
     0
390
0
  6
Continuous
 62
     7
100
AcDbText
 10
7.709702
 20
8.760846
 30
0.0
 40
0.071
  1
1.125*
  7
Vcadd_SIMP
100
AcDbText
  0
TEXT
  5
23B
100
AcDbEntity
  8
SEAL_RETAINER
370
     0
390
0
  6
Continuous
 62
     7
100
AcDbText
 10
7.709702
 20
8.654346
 30
0.0
 40
0.071
  1
 REF
  7
Vcadd_SIMP
100
AcDbText
  0
LINE
  5
23C
100
AcDbEntity
  8
0
370
     0
390
0
  6
CL____X1
 62
     1
100
AcDbLine
 10
5.567038
 20
3.467777
 30
0.0
 11
5.567038
 21
3.092777
 31
0.0
  0
LINE
  5
23D
100
AcDbEntity
  8
HEX_BODY
370
     0
390
0
  6
CL____X1
 62
     1
100
AcDbLine
 10
5.567038
 20
3.467777
 30
0.0
 11
5.509038
 21
3.501263
 31
0.0
  0
INSERT
  5
25D
100
AcDbEntity
  8
SEAL_RETAINER
370
     0
390
0
  6
Continuous
 62
     1
100
AcDbBlockReference
  2
ARROW
 10
5.4716
 20
7.868798
 30
0.0
 41
0.5
 42
0.5
 50
270.0
  0
INSERT
  5
25E
100
AcDbEntity
  8
SEAL_RETAINER
370
     0
390
0
  6
Continuous
 62
     1
100
AcDbBlockReference
  2
ARROW
 10
5.4716
 20
7.837798
 30
0.0
 41
0.5
 42
0.5
 50
90.0
  0
INSERT
  5
25F
100
AcDbEntity
  8
SEAL_RETAINER
370
     0
390
0
  6
Continuous
 62
     1
100
AcDbBlockReference
  2
ARROW
 10
5.348031
 20
7.75603
 30
0.0
 41
0.5
 42
0.5
  0
INSERT
  5
260
100
AcDbEntity
  8
SEAL_RETAINER
370
     0
390
0
  6
Continuous
 62
     1
100
AcDbBlockReference
  2
ARROW
 10
5.324037
 20
8.098583
 30
0.0
 41
0.5
 42
0.5
  0
INSERT
  5
261
100
AcDbEntity
  8
SEAL_RETAINER
370
     0
390
0
  6
Continuous
 62
     1
100
AcDbBlockReference
  2
ARROW
 10
5.324037
 20
8.525798
 30
0.0
 41
0.5
 42
0.5
 50
38.949984
  0
INSERT
  5
262
100
AcDbEntity
  8
SEAL_RETAINER
370
     0
390
0
  6
Continuous
 62
     1
100
AcDbBlockReference
  2
ARROW
 10
5.324037
 20
8.159837
 30
0.0
 41
0.5
 42
0.5
 50
352.34741
  0
INSERT
  5
263
100
AcDbEntity
  8
SEAL_RETAINER
370
     0
390
0
  6
Continuous
 62
     1
100
AcDbBlockReference
  2
ARROW
 10
5.582811
 20
8.267024
 30
0.0
 41
0.5
 42
0.5
 50
231.917248
  0
INSERT
  5
264
100
AcDbEntity
  8
SEAL_RETAINER
370
     0
390
0
  6
Continuous
 62
     1
100
AcDbBlockReference
  2
ARROW
 10
5.396531
 20
7.267338
 30
0.0
 41
0.5
 42
0.5
 50
352.34741
  0
INSERT
  5
265
100
AcDbEntity
  8
SEAL_RETAINER
370
     0
390
0
  6
Continuous
 62
     1
100
AcDbBlockReference
  2
ARROW
 10
5.655305
 20
7.374526
 30
0.0
 41
0.5
 42
0.5
 50
231.917248
  0
INSERT
  5
266
100
AcDbEntity
  8
SEAL_RETAINER
370
     0
390
0
  6
Continuous
 62
     1
100
AcDbBlockReference
  2
ARROW
 10
6.924181
 20
8.244298
 30
0.0
 41
0.5
 42
0.5
 50
90.0
  0
INSERT
  5
267
100
AcDbEntity
  8
SEAL_RETAINER
370
     0
390
0
  6
Continuous
 62
     1
100
AcDbBlockReference
  2
ARROW
 10
6.924181
 20
7.869298
 30
0.0
 41
0.5
 42
0.5
 50
270.0
  0
INSERT
  5
268
100
AcDbEntity
  8
SEAL_RETAINER
370
     0
390
0
  6
Continuous
 62
     1
100
AcDbBlockReference
  2
ARROW
 10
6.843474
 20
5.415607
 30
0.0
 41
0.5
 42
0.5
 50
90.0
  0
INSERT
  5
269
100
AcDbEntity
  8
SEAL_RETAINER
370
     0
390
0
  6
Continuous
 62
     1
100
AcDbBlockReference
  2
ARROW
 10
5.484038
 20
3.473777
 30
0.0
 41
0.5
 42
0.5
 50
65.683464
  0
INSERT
  5
26A
100
AcDbEntity
  8
SEAL_RETAINER
370
     0
390
0
  6
Continuous
 62
     1
100
AcDbBlockReference
  2
ARROW
 10
5.457532
 20
4.238811
 30
0.0
 41
0.5
 42
0.5
 50
170.387339
  0
INSERT
  5
26B
100
AcDbEntity
  8
SEAL_RETAINER
370
     0
390
0
  6
Continuous
 62
     1
100
AcDbBlockReference
  2
ARROW
 10
5.27252
 20
4.189237
 30
0.0
 41
0.5
 42
0.5
 50
39.172892
  0
INSERT
  5
26C
100
AcDbEntity
  8
SEAL_RETAINER
370
     0
390
0
  6
Continuous
 62
     1
100
AcDbBlockReference
  2
ARROW
 10
5.478038
 20
3.669939
 30
0.0
 41
0.5
 42
0.5
  0
INSERT
  5
26D
100
AcDbEntity
  8
SEAL_RETAINER
370
     0
390
0
  6
Continuous
 62
     1
100
AcDbBlockReference
  2
ARROW
 10
5.478038
 20
3.83327
 30
0.0
 41
0.5
 42
0.5
 50
34.726414
  0
INSERT
  5
26E
100
AcDbEntity
  8
SEAL_RETAINER
370
     0
390
0
  6
Continuous
 62
     1
100
AcDbBlockReference
  2
ARROW
 10
5.457538
 20
4.801404
 30
0.0
 41
0.5
 42
0.5
 50
25.964233
  0
INSERT
  5
26F
100
AcDbEntity
  8
SEAL_RETAINER
370
     0
390
0
  6
Continuous
 62
     1
100
AcDbBlockReference
  2
ARROW
 10
5.416032
 20
6.710023
 30
0.0
 41
0.5
 42
0.5
 50
25.964233
  0
INSERT
  5
270
100
AcDbEntity
  8
SEAL_RETAINER
370
     0
390
0
  6
Continuous
 62
     1
100
AcDbBlockReference
  2
ARROW
 10
5.416032
 20
6.160811
 30
0.0
 41
0.5
 42
0.5
 50
170.387339
  0
INSERT
  5
271
100
AcDbEntity
  8
SEAL_RETAINER
370
     0
390
0
  6
Continuous
 62
     1
100
AcDbBlockReference
  2
ARROW
 10
5.23102
 20
6.111238
 30
0.0
 41
0.5
 42
0.5
 50
39.172892
  0
INSERT
  5
272
100
AcDbEntity
  8
SEAL_RETAINER
370
     0
390
0
  6
Continuous
 62
     1
100
AcDbBlockReference
  2
ARROW
 10
5.416032
 20
6.284909
 30
0.0
 41
0.5
 42
0.5
  0
INSERT
  5
273
100
AcDbEntity
  8
SEAL_RETAINER
370
     0
390
0
  6
Continuous
 62
     1
100
AcDbBlockReference
  2
ARROW
 10
5.436532
 20
5.75527
 30
0.0
 41
0.5
 42
0.5
 50
25.964233
  0
INSERT
  5
274
100
AcDbEntity
  8
SEAL_RETAINER
370
     0
390
0
  6
Continuous
 62
     1
100
AcDbBlockReference
  2
ARROW
 10
5.436532
 20
5.207811
 30
0.0
 41
0.5
 42
0.5
 50
170.387339
  0
INSERT
  5
275
100
AcDbEntity
  8
SEAL_RETAINER
370
     0
390
0
  6
Continuous
 62
     1
100
AcDbBlockReference
  2
ARROW
 10
5.25152
 20
5.158238
 30
0.0
 41
0.5
 42
0.5
 50
39.172892
  0
INSERT
  5
276
100
AcDbEntity
  8
SEAL_RETAINER
370
     0
390
0
  6
Continuous
 62
     1
100
AcDbBlockReference
  2
ARROW
 10
5.457538
 20
4.383459
 30
0.0
 41
0.5
 42
0.5
  0
INSERT
  5
277
100
AcDbEntity
  8
SEAL_RETAINER
370
     0
390
0
  6
Continuous
 62
     1
100
AcDbBlockReference
  2
ARROW
 10
5.436532
 20
5.351625
 30
0.0
 41
0.5
 42
0.5
  0
INSERT
  5
278
100
AcDbEntity
  8
SEAL_RETAINER
370
     0
390
0
  6
Continuous
 62
     1
100
AcDbBlockReference
  2
ARROW
 10
5.396531
 20
7.113834
 30
0.0
 41
0.5
 42
0.5
 50
170.387339
  0
INSERT
  5
279
100
AcDbEntity
  8
SEAL_RETAINER
370
     0
390
0
  6
Continuous
 62
     1
100
AcDbBlockReference
  2
ARROW
 10
5.211519
 20
7.06426
 30
0.0
 41
0.5
 42
0.5
 50
39.172892
  0
INSERT
  5
27A
100
AcDbEntity
  8
SEAL_RETAINER
370
     0
390
0
  6
Continuous
 62
     1
100
AcDbBlockReference
  2
ARROW
 10
5.396531
 20
6.91821
 30
0.0
 41
0.5
 42
0.5
  0
INSERT
  5
27B
100
AcDbEntity
  8
SEAL_RETAINER
370
     0
390
0
  6
Continuous
 62
     1
100
AcDbBlockReference
  2
ARROW
 10
5.207536
 20
9.091081
 30
0.0
 41
0.5
 42
0.5
  0
INSERT
  5
27C
100
AcDbEntity
  8
SEAL_RETAINER
370
     0
390
0
  6
Continuous
 62
     1
100
AcDbBlockReference
  2
ARROW
 10
6.498038
 20
8.780884
 30
0.0
 41
0.5
 42
0.5
 50
150.0
  0
LINE
  5
27D
100
AcDbEntity
  8
0
370
     0
390
0
  6
Continuous
 62
     7
100
AcDbLine
 10
5.864038
 20
9.377659
 30
0.0
 11
5.864038
 21
8.164648
 31
0.0
  0
SPLINE
  5
27E
100
AcDbEntity
  8
0
370
     0
390
0
  6
Continuous
 62
     1
100
AcDbSpline
210
0.0
220
0.0
230
1.0
 70
     0
 71
     2
 72
     0
 73
     0
 74
     2
 44
0.000001
 12
0.0081035653915462
 22
-0.0017776455905789
 32
0.0
 13
0.0081988256741132
 23
0.0012676961253675
 33
0.0
 11
6.6140376481268985
 21
9.3438419590815691
 31
0.0
 11
6.6383483443015372
 21
9.3385090223098324
 31
0.0
  0
SPLINE
  5
27F
100
AcDbEntity
  8
0
370
     0
390
0
  6
Continuous
 62
     1
100
AcDbSpline
210
0.0
220
0.0
230
1.0
 70
     0
 71
     2
 72
     0
 73
     0
 74
     2
 44
0.000001
 12
0.0150049643630386
 22
0.0023200560592933
 32
0.0
 13
0.0148204493962298
 23
0.0032993780244297
 33
0.0
 11
6.6383483443015372
 21
9.3385090223098324
 31
0.0
 11
6.6811058163769212
 21
9.354211987718049
 31
0.0
  0
SPLINE
  5
280
100
AcDbEntity
  8
0
370
     0
390
0
  6
Continuous
 62
     1
100
AcDbSpline
210
0.0
220
0.0
230
1.0
 70
     0
 71
     2
 72
     0
 73
     0
 74
     2
 44
0.000001
 12
0.0116797277330702
 22
0.002600180060913
 32
0.0
 13
0.0119300172759127
 23
-0.0009228564700052
 33
0.0
 11
6.6811058163769212
 21
9.354211987718049
 31
0.0
 11
6.7169577675197765
 21
9.3560093150840515
 31
0.0
  0
SPLINE
  5
281
100
AcDbEntity
  8
0
370
     0
390
0
  6
Continuous
 62
     1
100
AcDbSpline
210
0.0
220
0.0
230
1.0
 70
     0
 71
     2
 72
     0
 73
     0
 74
     2
 44
0.000001
 12
0.0106935890439406
 22
-0.000827211529419
 32
0.0
 13
0.0101521542090843
 23
0.003097899997627
 33
0.0
 11
6.7169577675197765
 21
9.3560093150840515
 31
0.0
 11
6.7483636983362087
 21
9.3490091979743646
 31
0.0
  0
SPLINE
  5
282
100
AcDbEntity
  8
0
370
     0
390
0
  6
Continuous
 62
     1
100
AcDbSpline
210
0.0
220
0.0
230
1.0
 70
     0
 71
     2
 72
     0
 73
     0
 74
     2
 44
0.000001
 12
0.0095575516489612
 22
0.0029164587752319
 32
0.0
 13
0.0089053607430394
 23
0.0047508968398198
 33
0.0
 11
6.7483636983362087
 21
9.3490091979743646
 31
0.0
 11
6.7684180878936893
 21
9.3717122804922681
 31
0.0
  0
SPLINE
  5
283
100
AcDbEntity
  8
0
370
     0
390
0
  6
Continuous
 62
     1
100
AcDbSpline
210
0.0
220
0.0
230
1.0
 70
     0
 71
     2
 72
     0
 73
     0
 74
     2
 44
0.000001
 12
0.0022342581552159
 22
0.0011919483460865
 32
0.0
 13
0.0025481788433837
 23
-0.0001770490699542
 33
0.0
 11
6.7684180878936893
 21
9.3717122804922681
 31
0.0
 11
6.7756505137020735
 21
9.3729783340865787
 31
0.0
  0
SPLINE
  5
284
100
AcDbEntity
  8
0
370
     0
390
0
  6
Continuous
 62
     1
100
AcDbSpline
210
0.0
220
0.0
230
1.0
 70
     0
 71
     2
 72
     0
 73
     0
 74
     2
 44
0.000001
 12
0.0136929752986159
 22
0.0833693477684498
 32
0.0
 13
0.0029402491114965
 23
0.084338724513934
 33
0.0
 11
6.6576508915037955
 21
8.168295413446117
 31
0.0
 11
6.6985968116767438
 21
8.418138169664438
 31
0.0
  0
SPLINE
  5
285
100
AcDbEntity
  8
0
370
     0
390
0
  6
Continuous
 62
     1
100
AcDbSpline
210
0.0
220
0.0
230
1.0
 70
     0
 71
     2
 72
     0
 73
     0
 74
     2
 44
0.000001
 12
0.0019343239241714
 22
0.055484554667018
 32
0.0
 13
0.0
 23
0.055518262001268
 33
0.0
 11
6.6985968116767438
 21
8.418138169664438
 31
0.0
 11
6.6673936429317475
 21
8.5817439733544099
 31
0.0
  0
SPLINE
  5
286
100
AcDbEntity
  8
0
370
     0
390
0
  6
Continuous
 62
     1
100
AcDbSpline
210
0.0
220
0.0
230
1.0
 70
     0
 71
     2
 72
     0
 73
     0
 74
     2
 44
0.000001
 12
0.0
 22
0.0502817044738428
 32
0.0
 13
0.0083938430352895
 23
0.0495761354271771
 33
0.0
 11
6.6673936429317475
 21
8.5817439733544099
 31
0.0
 11
6.6985968116767438
 21
8.7293265282293859
 31
0.0
  0
SPLINE
  5
287
100
AcDbEntity
  8
0
370
     0
390
0
  6
Continuous
 62
     1
100
AcDbSpline
210
0.0
220
0.0
230
1.0
 70
     0
 71
     2
 72
     0
 73
     0
 74
     2
 44
0.000001
 12
0.0096101558571569
 22
0.056759983031327
 32
0.0
 13
0.018526416249145
 23
0.0545052536025565
 33
0.0
 11
6.6985968116767438
 21
8.7293265282293859
 31
0.0
 11
6.72136669157174
 21
8.9005222918843536
 31
0.0
  0
SPLINE
  5
288
100
AcDbEntity
  8
0
370
     0
390
0
  6
Continuous
 62
     1
100
AcDbSpline
210
0.0
220
0.0
230
1.0
 70
     0
 71
     2
 72
     0
 73
     0
 74
     2
 44
0.000001
 12
0.0209308170419087
 22
0.0615790704276407
 32
0.0
 13
0.0151598640840849
 23
0.0632476049959685
 33
0.0
 11
6.72136669157174
 21
8.9005222918843536
 31
0.0
 11
6.8149761978067245
 21
9.0717180555393249
 31
0.0
  0
SPLINE
  5
289
100
AcDbEntity
  8
0
370
     0
390
0
  6
Continuous
 62
     1
100
AcDbSpline
210
0.0
220
0.0
230
1.0
 70
     0
 71
     2
 72
     0
 73
     0
 74
     2
 44
0.000001
 12
0.0121790784154019
 22
0.0508116389803881
 32
0.0
 13
-0.0061516081602466
 23
0.051887477525554
 33
0.0
 11
6.8149761978067245
 21
9.0717180555393249
 31
0.0
 11
6.7997962778767276
 21
9.227733899264301
 31
0.0
  0
SPLINE
  5
28A
100
AcDbEntity
  8
0
370
     0
390
0
  6
Continuous
 62
     1
100
AcDbSpline
210
0.0
220
0.0
230
1.0
 70
     0
 71
     2
 72
     0
 73
     0
 74
     2
 44
0.000001
 12
-0.0057597534135967
 22
0.0485822679233792
 32
0.0
 13
-0.0018649744839285
 23
0.0485678647930108
 33
0.0
 11
6.7997962778767276
 21
9.227733899264301
 31
0.0
 11
6.7756487487658186
 21
9.3730241319474175
 31
0.0
  0
LINE
  5
28B
100
AcDbEntity
  8
0
370
     0
390
0
  6
CL____X1
 62
     1
100
AcDbLine
 10
6.614038
 20
9.343842
 30
0.0
 11
6.614038
 21
8.962798
 31
0.0
  0
TEXT
  5
28C
100
AcDbEntity
  8
SEAL_RETAINER
370
     0
390
0
  6
Continuous
 62
     7
100
AcDbText
 10
6.58557
 20
9.783726
 30
0.0
 40
0.071
  1
.031 DRILL-REAMER
  7
Vcadd_SIMP
100
AcDbText
  0
TEXT
  5
28D
100
AcDbEntity
  8
SEAL_RETAINER
370
     0
390
0
  6
Continuous
 62
     7
100
AcDbText
 10
6.939938
 20
9.694976
 30
0.0
 40
0.071
  1
RELATIONSHIP
  7
Vcadd_SIMP
100
AcDbText
  0
LINE
  5
28E
100
AcDbEntity
  8
SEAL_RETAINER
370
     0
390
0
  6
Continuous
 62
     1
100
AcDbLine
 10
5.893143
 20
9.520882
 30
0.0
 11
5.756795
 21
9.520882
 31
0.0
  0
LINE
  5
28F
100
AcDbEntity
  8
SEAL_RETAINER
370
     0
390
0
  6
Continuous
 62
     1
100
AcDbLine
 10
5.756795
 20
9.520882
 30
0.0
 11
5.70969
 21
9.337059
 31
0.0
  0
LINE
  5
290
100
AcDbEntity
  8
SEAL_RETAINER
370
     0
390
0
  6
Continuous
 62
     1
100
AcDbLine
 10
5.884407
 20
9.722849
 30
0.0
 11
5.724731
 21
9.722849
 31
0.0
  0
LINE
  5
291
100
AcDbEntity
  8
SEAL_RETAINER
370
     0
390
0
  6
Continuous
 62
     1
100
AcDbLine
 10
5.582276
 20
9.20007
 30
0.0
 11
5.724731
 21
9.722849
 31
0.0
  0
LINE
  5
292
100
AcDbEntity
  8
SEAL_RETAINER
370
     0
390
0
  6
Continuous
 62
     1
100
AcDbLine
 10
6.606611
 20
9.816638
 30
0.0
 11
5.657027
 21
9.816638
 31
0.0
  0
LINE
  5
293
100
AcDbEntity
  8
SEAL_RETAINER
370
     0
390
0
  6
Continuous
 62
     1
100
AcDbLine
 10
5.657027
 20
9.816638
 30
0.0
 11
5.4716
 21
9.154512
 31
0.0
  0
LINE
  5
294
100
AcDbEntity
  8
SEAL_RETAINER
370
     0
390
0
  6
Continuous
 62
     1
100
AcDbLine
 10
5.70969
 20
7.837798
 30
0.0
 11
5.70969
 21
9.337059
 31
0.0
  0
LINE
  5
295
100
AcDbEntity
  8
SEAL_RETAINER
370
     0
390
0
  6
Continuous
 62
     1
100
AcDbLine
 10
5.582276
 20
8.327115
 30
0.0
 11
5.582276
 21
9.20007
 31
0.0
  0
LINE
  5
296
100
AcDbEntity
  8
SEAL_RETAINER
370
     0
390
0
  6
Continuous
 62
     1
100
AcDbLine
 10
5.4716
 20
8.302763
 30
0.0
 11
5.4716
 21
9.154512
 31
0.0
  0
LINE
  5
297
100
AcDbEntity
  8
0
370
    15
390
0
  6
Continuous
 62
     6
100
AcDbLine
 10
8.159028
 20
9.897095
 30
0.0
 11
8.159028
 21
1.895243
 31
0.0
  0
LINE
  5
298
100
AcDbEntity
  8
0
370
    15
390
0
  6
Continuous
 62
     6
100
AcDbLine
 10
3.156446
 20
1.895243
 30
0.0
 11
3.156446
 21
9.897095
 31
0.0
  0
LINE
  5
299
100
AcDbEntity
  8
0
370
    15
390
0
  6
Continuous
 62
     6
100
AcDbLine
 10
8.159028
 20
1.895243
 30
0.0
 11
3.156446
 21
1.895243
 31
0.0
  0
LINE
  5
29A
100
AcDbEntity
  8
0
370
    15
390
0
  6
Continuous
 62
     6
100
AcDbLine
 10
8.159028
 20
9.897095
 30
0.0
 11
3.156446
 21
9.897095
 31
0.0
  0
LINE
  5
29B
100
AcDbEntity
  8
0
370
    15
390
0
  6
Continuous
 62
     2
100
AcDbLine
 10
3.843946
 20
1.895243
 30
0.0
 11
3.843946
 21
7.207743
 31
0.0
  0
LINE
  5
29C
100
AcDbEntity
  8
0
370
    15
390
0
  6
Continuous
 62
     2
100
AcDbLine
 10
3.843946
 20
7.207743
 30
0.0
 11
3.156446
 21
7.207743
 31
0.0
  0
LINE
  5
29D
100
AcDbEntity
  8
0
370
     0
390
0
  6
Continuous
 62
     7
100
AcDbLine
 10
3.843946
 20
1.895243
 30
0.0
 11
3.843946
 21
1.895243
 31
0.0
  0
LINE
  5
29E
100
AcDbEntity
  8
0
370
     0
390
0
  6
Continuous
 62
     7
100
AcDbLine
 10
3.843946
 20
3.270243
 30
0.0
 11
3.156446
 21
3.270243
 31
0.0
  0
LINE
  5
29F
100
AcDbEntity
  8
0
370
     0
390
0
  6
Continuous
 62
     7
100
AcDbLine
 10
3.843946
 20
4.770243
 30
0.0
 11
3.156446
 21
4.770243
 31
0.0
  0
LINE
  5
2A0
100
AcDbEntity
  8
0
370
     0
390
0
  6
Continuous
 62
     7
100
AcDbLine
 10
3.843946
 20
5.270243
 30
0.0
 11
3.156446
 21
5.270243
 31
0.0
  0
LINE
  5
2A1
100
AcDbEntity
  8
0
370
     0
390
0
  6
Continuous
 62
     7
100
AcDbLine
 10
3.843946
 20
5.395243
 30
0.0
 11
3.156446
 21
5.395243
 31
0.0
  0
LINE
  5
2A2
100
AcDbEntity
  8
0
370
     0
390
0
  6
Continuous
 62
     7
100
AcDbLine
 10
3.843946
 20
5.520243
 30
0.0
 11
3.156446
 21
5.520243
 31
0.0
  0
LINE
  5
2A3
100
AcDbEntity
  8
0
370
     0
390
0
  6
Continuous
 62
     7
100
AcDbLine
 10
3.843946
 20
5.645243
 30
0.0
 11
3.156446
 21
5.645243
 31
0.0
  0
LINE
  5
2A4
100
AcDbEntity
  8
0
370
     0
390
0
  6
Continuous
 62
     7
100
AcDbLine
 10
3.843946
 20
5.895243
 30
0.0
 11
3.156446
 21
5.895243
 31
0.0
  0
LINE
  5
2A5
100
AcDbEntity
  8
0
370
     0
390
0
  6
Continuous
 62
     7
100
AcDbLine
 10
3.843946
 20
7.082743
 30
0.0
 11
3.156446
 21
7.082743
 31
0.0
  0
LINE
  5
2A6
100
AcDbEntity
  8
0
370
     0
390
0
  6
Continuous
 62
     7
100
AcDbLine
 10
3.234447
 20
7.207743
 30
0.0
 11
3.234447
 21
5.270243
 31
0.0
  0
LINE
  5
2A7
100
AcDbEntity
  8
0
370
     0
390
0
  6
Continuous
 62
     7
100
AcDbLine
 10
3.780447
 20
7.082743
 30
0.0
 11
3.780447
 21
5.895243
 31
0.0
  0
LINE
  5
2A8
100
AcDbEntity
  8
0
370
     0
390
0
  6
Continuous
 62
     7
100
AcDbLine
 10
3.656446
 20
4.770243
 30
0.0
 11
3.656446
 21
5.270243
 31
0.0
  0
LINE
  5
2A9
100
AcDbEntity
  8
0
370
    15
390
0
  6
Continuous
 62
     7
100
AcDbLine
 10
3.313114
 20
4.864854
 30
0.0
 11
3.316026
 21
4.859567
 31
0.0
  0
LINE
  5
2AA
100
AcDbEntity
  8
0
370
    15
390
0
  6
Continuous
 62
     7
100
AcDbLine
 10
3.316026
 20
4.859567
 30
0.0
 11
3.295313
 21
4.843086
 31
0.0
  0
LINE
  5
2AB
100
AcDbEntity
  8
0
370
    15
390
0
  6
Continuous
 62
     7
100
AcDbLine
 10
3.295313
 20
4.843086
 30
0.0
 11
3.325736
 21
4.810124
 31
0.0
  0
LINE
  5
2AC
100
AcDbEntity
  8
0
370
     0
390
0
  6
Continuous
 62
     7
100
AcDbLine
 10
3.350766
 20
4.87839
 30
0.0
 11
3.350766
 21
4.852102
 31
0.0
  0
LINE
  5
2AD
100
AcDbEntity
  8
0
370
     0
390
0
  6
Continuous
 62
     7
100
AcDbLine
 10
3.368354
 20
4.87839
 30
0.0
 11
3.368354
 21
4.852102
 31
0.0
  0
LINE
  5
2AE
100
AcDbEntity
  8
0
370
     0
390
0
  6
Continuous
 62
     7
100
AcDbLine
 10
3.383987
 20
4.805161
 30
0.0
 11
3.350766
 21
4.827693
 31
0.0
  0
LINE
  5
2AF
100
AcDbEntity
  8
0
370
     0
390
0
  6
Continuous
 62
     7
100
AcDbLine
 10
3.424406
 20
5.01566
 30
0.0
 11
3.424406
 21
4.986977
 31
0.0
  0
LINE
  5
2B0
100
AcDbEntity
  8
0
370
     0
390
0
  6
Continuous
 62
     7
100
AcDbLine
 10
3.442522
 20
5.01566
 30
0.0
 11
3.442522
 21
4.986977
 31
0.0
  0
LINE
  5
2B1
100
AcDbEntity
  8
0
370
     0
390
0
  6
Continuous
 62
     7
100
AcDbLine
 10
3.450573
 20
5.001318
 30
0.0
 11
3.43447
 21
5.001318
 31
0.0
  0
LINE
  5
2B2
100
AcDbEntity
  8
0
370
     0
390
0
  6
Continuous
 62
     7
100
AcDbLine
 10
3.480767
 20
5.01566
 30
0.0
 11
3.480767
 21
4.986977
 31
0.0
  0
LINE
  5
2B3
100
AcDbEntity
  8
0
370
     0
390
0
  6
Continuous
 62
     7
100
AcDbLine
 10
3.498884
 20
5.01566
 30
0.0
 11
3.498884
 21
4.986977
 31
0.0
  0
LINE
  5
2B4
100
AcDbEntity
  8
0
370
     0
390
0
  6
Continuous
 62
     7
100
AcDbLine
 10
3.506935
 20
5.001318
 30
0.0
 11
3.490832
 21
5.001318
 31
0.0
  0
LINE
  5
2B5
100
AcDbEntity
  8
0
370
     0
390
0
  6
Continuous
 62
     7
100
AcDbLine
 10
3.537129
 20
5.01566
 30
0.0
 11
3.537129
 21
4.986977
 31
0.0
  0
LINE
  5
2B6
100
AcDbEntity
  8
0
370
     0
390
0
  6
Continuous
 62
     7
100
AcDbLine
 10
3.555245
 20
5.01566
 30
0.0
 11
3.555245
 21
4.986977
 31
0.0
  0
LINE
  5
2B7
100
AcDbEntity
  8
0
370
     0
390
0
  6
Continuous
 62
     7
100
AcDbLine
 10
3.563297
 20
5.001318
 30
0.0
 11
3.547194
 21
5.001318
 31
0.0
  0
LINE
  5
2B8
100
AcDbEntity
  8
0
370
     0
390
0
  6
Continuous
 62
     7
100
AcDbLine
 10
3.296947
 20
4.770243
 30
0.0
 11
3.296947
 21
3.957743
 31
0.0
  0
LINE
  5
2B9
100
AcDbEntity
  8
0
370
     0
390
0
  6
Continuous
 62
     7
100
AcDbLine
 10
3.437447
 20
4.770243
 30
0.0
 11
3.437447
 21
3.957743
 31
0.0
  0
LINE
  5
2BA
100
AcDbEntity
  8
0
370
     0
390
0
  6
Continuous
 62
     7
100
AcDbLine
 10
3.437447
 20
3.957743
 30
0.0
 11
3.437447
 21
3.270243
 31
0.0
  0
LINE
  5
2BB
100
AcDbEntity
  8
0
370
     0
390
0
  6
Continuous
 62
     7
100
AcDbLine
 10
3.624947
 20
4.770243
 30
0.0
 11
3.624947
 21
3.270243
 31
0.0
  0
LINE
  5
2BC
100
AcDbEntity
  8
0
370
     0
390
0
  6
Continuous
 62
     7
100
AcDbLine
 10
3.437447
 20
3.957742
 30
0.0
 11
3.156446
 21
3.957743
 31
0.0
  0
LINE
  5
2BD
100
AcDbEntity
  8
0
370
     0
390
0
  6
Continuous
 62
     7
100
AcDbLine
 10
3.437447
 20
3.957742
 30
0.0
 11
3.624947
 21
3.957742
 31
0.0
  0
LINE
  5
2BE
100
AcDbEntity
  8
0
370
     0
390
0
  6
Continuous
 62
     7
100
AcDbLine
 10
3.624947
 20
4.582743
 30
0.0
 11
3.437447
 21
4.582743
 31
0.0
  0
LINE
  5
2BF
100
AcDbEntity
  8
0
370
     0
390
0
  6
Continuous
 62
     7
100
AcDbLine
 10
3.156446
 20
4.499243
 30
0.0
 11
3.296947
 21
4.499243
 31
0.0
  0
LINE
  5
2C0
100
AcDbEntity
  8
0
370
     0
390
0
  6
Continuous
 62
     7
100
AcDbLine
 10
3.156446
 20
4.228243
 30
0.0
 11
3.296947
 21
4.228243
 31
0.0
  0
LINE
  5
2C1
100
AcDbEntity
  8
0
370
     0
390
0
  6
Continuous
 62
     7
100
AcDbLine
 10
3.296947
 20
4.228243
 30
0.0
 11
3.437447
 21
4.228243
 31
0.0
  0
LINE
  5
2C2
100
AcDbEntity
  8
0
370
     0
390
0
  6
Continuous
 62
     7
100
AcDbLine
 10
3.296947
 20
4.499243
 30
0.0
 11
3.437447
 21
4.499243
 31
0.0
  0
LINE
  5
2C3
100
AcDbEntity
  8
0
370
     0
390
0
  6
Continuous
 62
     7
100
AcDbLine
 10
3.624947
 20
3.270243
 30
0.0
 11
3.624947
 21
1.895243
 31
0.0
  0
LINE
  5
2C4
100
AcDbEntity
  8
0
370
     0
390
0
  6
Continuous
 62
     7
100
AcDbLine
 10
3.843946
 20
2.989243
 30
0.0
 11
3.624947
 21
2.989243
 31
0.0
  0
LINE
  5
2C5
100
AcDbEntity
  8
0
370
     0
390
0
  6
Continuous
 62
     7
100
AcDbLine
 10
3.305282
 20
3.703342
 30
0.0
 11
3.243417
 21
3.559591
 31
0.0
  0
ARC
  5
2C6
100
AcDbEntity
  8
0
370
     0
390
0
  6
Continuous
 62
     7
100
AcDbCircle
 10
3.393527
 20
3.494989
 30
0.0
 40
0.163421
100
AcDbArc
 50
156.690317
 51
236.832422
  0
ARC
  5
2C7
100
AcDbEntity
  8
0
370
     0
390
0
  6
Continuous
 62
     7
100
AcDbCircle
 10
3.150829
 20
3.754643
 30
0.0
 40
0.162748
100
AcDbArc
 50
341.621816
 51
418.31416
  0
LINE
  5
2C8
100
AcDbEntity
  8
0
370
     0
390
0
  6
Continuous
 62
     7
100
AcDbLine
 10
3.303909
 20
3.639591
 30
0.0
 11
3.256563
 21
3.66428
 31
0.0
  0
LINE
  5
2C9
100
AcDbEntity
  8
0
370
     0
390
0
  6
Continuous
 62
     7
100
AcDbLine
 10
3.290205
 20
3.610158
 30
0.0
 11
3.244649
 21
3.63584
 31
0.0
  0
LINE
  5
2CA
100
AcDbEntity
  8
0
370
     0
390
0
  6
Continuous
 62
     7
100
AcDbLine
 10
3.371922
 20
4.717384
 30
0.0
 11
3.325102
 21
4.717384
 31
0.0
  0
ARC
  5
2CB
100
AcDbEntity
  8
0
370
     0
390
0
  6
Continuous
 62
     7
100
AcDbCircle
 10
3.348512
 20
4.705708
 30
0.0
 40
0.02616
100
AcDbArc
 50
153.492232
 51
386.507768
  0
LINE
  5
2CC
100
AcDbEntity
  8
0
370
     0
390
0
  6
Continuous
 62
     7
100
AcDbLine
 10
3.374742
 20
4.638843
 30
0.0
 11
3.322281
 21
4.612688
 31
0.0
  0
LINE
  5
2CD
100
AcDbEntity
  8
0
370
     0
390
0
  6
Continuous
 62
     7
100
AcDbLine
 10
3.322281
 20
4.612688
 30
0.0
 11
3.34933
 21
4.65485
 31
0.0
  0
LINE
  5
2CE
100
AcDbEntity
  8
0
370
     0
390
0
  6
Continuous
 62
     7
100
AcDbLine
 10
3.374742
 20
4.638843
 30
0.0
 11
3.322281
 21
4.671887
 31
0.0
  0
LINE
  5
2CF
100
AcDbEntity
  8
0
370
     0
390
0
  6
Continuous
 62
     7
100
AcDbLine
 10
3.347852
 20
4.597409
 30
0.0
 11
3.347852
 21
4.554131
 31
0.0
  0
LINE
  5
2D0
100
AcDbEntity
  8
0
370
     0
390
0
  6
Continuous
 62
     7
100
AcDbLine
 10
3.374653
 20
4.568302
 30
0.0
 11
3.347852
 21
4.597409
 31
0.0
  0
LINE
  5
2D1
100
AcDbEntity
  8
0
370
     0
390
0
  6
Continuous
 62
     7
100
AcDbLine
 10
3.347852
 20
4.554131
 30
0.0
 11
3.322281
 21
4.580558
 31
0.0
  0
INSERT
  5
356
100
AcDbEntity
  8
HEX_BODY
370
     0
390
0
  6
Continuous
 62
     7
100
AcDbBlockReference
  2
LOGOFIX
 10
3.156446
 20
1.895243
 30
0.0
 41
0.5
 42
0.5
 50
270.0
  0
TEXT
  5
357
100
AcDbEntity
  8
0
370
     0
390
0
  6
Continuous
 62
     7
100
AcDbText
 10
3.175157
 20
7.189654
 30
0.0
 40
0.032922
  1
LET
 50
270.0
  7
Vcadd_SIMP
100
AcDbText
  0
TEXT
  5
358
100
AcDbEntity
  8
0
370
     0
390
0
  6
Continuous
 62
     7
100
AcDbText
 10
3.179585
 20
6.636013
 30
0.0
 40
0.032922
  1
REVISION 
 50
270.0
  7
Vcadd_SIMP
100
AcDbText
  0
TEXT
  5
359
100
AcDbEntity
  8
0
370
     0
390
0
  6
Continuous
 62
     7
100
AcDbText
 10
3.178571
 20
5.835429
 30
0.0
 40
0.032922
  1
DATE 
 50
270.0
  7
Vcadd_SIMP
100
AcDbText
  0
TEXT
  5
35A
100
AcDbEntity
  8
0
370
     0
390
0
  6
Continuous
 62
     7
100
AcDbText
 10
3.178654
 20
5.628418
 30
0.0
 40
0.032922
  1
DRN 
 50
270.0
  7
Vcadd_SIMP
100
AcDbText
  0
TEXT
  5
35B
100
AcDbEntity
  8
0
370
     0
390
0
  6
Continuous
 62
     7
100
AcDbText
 10
3.178488
 20
5.504682
 30
0.0
 40
0.032922
  1
CHK 
 50
270.0
  7
Vcadd_SIMP
100
AcDbText
  0
TEXT
  5
35C
100
AcDbEntity
  8
0
370
     0
390
0
  6
Continuous
 62
     7
100
AcDbText
 10
3.178654
 20
5.380168
 30
0.0
 40
0.032922
  1
REL
 50
270.0
  7
Vcadd_SIMP
100
AcDbText
  0
TEXT
  5
35D
100
AcDbEntity
  8
0
370
     0
390
0
  6
Continuous
 62
     7
100
AcDbText
 10
3.790626
 20
5.11168
 30
0.0
 40
0.031
  1
UNLESS
 50
270.0
  7
Vcadd_SIMP
100
AcDbText
  0
TEXT
  5
35E
100
AcDbEntity
  8
0
370
     0
390
0
  6
Continuous
 62
     7
100
AcDbText
 10
3.738748
 20
5.156893
 30
0.0
 40
0.031
  1
OTHERWISE
 50
270.0
  7
Vcadd_SIMP
100
AcDbText
  0
TEXT
  5
35F
100
AcDbEntity
  8
0
370
     0
390
0
  6
Continuous
 62
     7
100
AcDbText
 10
3.682717
 20
5.155817
 30
0.0
 40
0.031
  1
SPECIFIED
 50
270.0
  7
Vcadd_SIMP
100
AcDbText
  0
TEXT
  5
360
100
AcDbEntity
  8
0
370
     0
390
0
  6
Continuous
 62
     7
100
AcDbText
 10
3.606624
 20
5.246496
 30
0.0
 40
0.031
  1
DIMENSION TOL
 50
270.0
 41
1.1725
  7
Vcadd_SIMP
100
AcDbText
  0
TEXT
  5
361
100
AcDbEntity
  8
0
370
     0
390
0
  6
Continuous
 62
     7
100
AcDbText
 10
3.537129
 20
5.238416
 30
0.0
 40
0.032922
  1
.
 50
270.0
 41
1.324153
  7
Vcadd_SIMP
100
AcDbText
  0
TEXT
  5
362
100
AcDbEntity
  8
0
370
     0
390
0
  6
Continuous
 62
     7
100
AcDbText
 10
3.478979
 20
5.194822
 30
0.0
 40
0.032922
  1
xx
 50
270.0
 41
1.324153
  7
Vcadd_SIMP
100
AcDbText
  0
TEXT
  5
363
100
AcDbEntity
  8
0
370
     0
390
0
  6
Continuous
 62
     7
100
AcDbText
 10
3.423737
 20
5.194822
 30
0.0
 40
0.032922
  1
xxx
 50
270.0
 41
1.324153
  7
Vcadd_SIMP
100
AcDbText
  0
TEXT
  5
364
100
AcDbEntity
  8
0
370
     0
390
0
  6
Continuous
 62
     7
100
AcDbText
 10
3.350532
 20
5.235891
 30
0.0
 40
0.031
  1
ANGLE TOL
 50
270.0
 41
1.25
  7
Vcadd_SIMP
100
AcDbText
  0
TEXT
  5
365
100
AcDbEntity
  8
0
370
     0
390
0
  6
Continuous
 62
     7
100
AcDbText
 10
3.294724
 20
5.2195
 30
0.0
 40
0.031
  1
FINISH
 50
270.0
 41
1.25
  7
Vcadd_SIMP
100
AcDbText
  0
TEXT
  5
366
100
AcDbEntity
  8
0
370
     0
390
0
  6
Continuous
 62
     7
100
AcDbText
 10
3.294724
 20
4.948249
 30
0.0
 40
0.031
  1
8O
 50
270.0
 41
1.25
  7
Vcadd_SIMP
100
AcDbText
  0
TEXT
  5
367
100
AcDbEntity
  8
0
370
     0
390
0
  6
Continuous
 62
     7
100
AcDbText
 10
3.24081
 20
5.199466
 30
0.0
 40
0.031
  1
REMOVE ALL
 50
270.0
 41
1.25
  7
Vcadd_SIMP
100
AcDbText
  0
TEXT
  5
368
100
AcDbEntity
  8
0
370
     0
390
0
  6
Continuous
 62
     7
100
AcDbText
 10
3.188586
 20
5.117512
 30
0.0
 40
0.031
  1
BURRS
 50
270.0
 41
1.25
  7
Vcadd_SIMP
100
AcDbText
  0
TEXT
  5
369
100
AcDbEntity
  8
0
370
     0
390
0
  6
Continuous
 62
     7
100
AcDbText
 10
3.537129
 20
5.194822
 30
0.0
 40
0.032922
  1
x
 50
270.0
 41
1.324153
  7
Vcadd_SIMP
100
AcDbText
  0
TEXT
  5
36A
100
AcDbEntity
  8
0
370
     0
390
0
  6
Continuous
 62
     7
100
AcDbText
 10
3.478979
 20
5.06404
 30
0.0
 40
0.032922
  1
=
 50
270.0
 41
1.324153
  7
Vcadd_SIMP
100
AcDbText
  0
TEXT
  5
36B
100
AcDbEntity
  8
0
370
     0
390
0
  6
Continuous
 62
     7
100
AcDbText
 10
3.423737
 20
5.06404
 30
0.0
 40
0.032922
  1
=
 50
270.0
 41
1.324153
  7
Vcadd_SIMP
100
AcDbText
  0
TEXT
  5
36C
100
AcDbEntity
  8
0
370
     0
390
0
  6
Continuous
 62
     7
100
AcDbText
 10
3.423737
 20
4.976852
 30
0.0
 40
0.032922
  1
.OO5
 50
270.0
 41
1.324153
  7
Vcadd_SIMP
100
AcDbText
  0
TEXT
  5
36D
100
AcDbEntity
  8
0
370
     0
390
0
  6
Continuous
 62
     7
100
AcDbText
 10
3.368354
 20
4.833325
 30
0.0
 40
0.015981
  1
1 
 50
270.0
 41
1.25
  7
Vcadd_SIMP
100
AcDbText
  0
TEXT
  5
36E
100
AcDbEntity
  8
0
370
     0
390
0
  6
Continuous
 62
     7
100
AcDbText
 10
3.348378
 20
4.81335
 30
0.0
 40
0.015981
  1
2
 50
270.0
 41
1.25
  7
Vcadd_SIMP
100
AcDbText
  0
TEXT
  5
36F
100
AcDbEntity
  8
0
370
     0
390
0
  6
Continuous
 62
     7
100
AcDbText
 10
3.478979
 20
5.238416
 30
0.0
 40
0.032922
  1
.
 50
270.0
 41
1.324153
  7
Vcadd_SIMP
100
AcDbText
  0
TEXT
  5
370
100
AcDbEntity
  8
0
370
     0
390
0
  6
Continuous
 62
     7
100
AcDbText
 10
3.423737
 20
5.238416
 30
0.0
 40
0.032922
  1
.
 50
270.0
 41
1.324153
  7
Vcadd_SIMP
100
AcDbText
  0
TEXT
  5
371
100
AcDbEntity
  8
0
370
     0
390
0
  6
Continuous
 62
     7
100
AcDbText
 10
3.478979
 20
5.06404
 30
0.0
 40
0.032922
  1
  .O1 
 50
270.0
 41
1.324153
  7
Vcadd_SIMP
100
AcDbText
  0
TEXT
  5
372
100
AcDbEntity
  8
0
370
     0
390
0
  6
Continuous
 62
     7
100
AcDbText
 10
3.478979
 20
4.84607
 30
0.0
 40
0.032922
  1
5
 50
270.0
 41
1.324153
  7
Vcadd_SIMP
100
AcDbText
  0
TEXT
  5
373
100
AcDbEntity
  8
0
370
     0
390
0
  6
Continuous
 62
     7
100
AcDbText
 10
3.537129
 20
5.194822
 30
0.0
 40
0.032922
  1
   = 
 50
270.0
 41
1.324153
  7
Vcadd_SIMP
100
AcDbText
  0
TEXT
  5
374
100
AcDbEntity
  8
0
370
     0
390
0
  6
Continuous
 62
     7
100
AcDbText
 10
3.537129
 20
4.976852
 30
0.0
 40
0.032922
  1
.O3O
 50
270.0
 41
1.324153
  7
Vcadd_SIMP
100
AcDbText
  0
TEXT
  5
375
100
AcDbEntity
  8
0
370
     0
390
0
  6
Continuous
 62
     7
100
AcDbText
 10
3.784207
 20
4.75107
 30
0.0
 40
0.031
  1
TITLE
 50
270.0
  7
Vcadd_SIMP
100
AcDbText
  0
TEXT
  5
376
100
AcDbEntity
  8
0
370
     0
390
0
  6
Continuous
 62
     7
100
AcDbText
 10
3.784222
 20
3.250475
 30
0.0
 40
0.031
  1
REVISION
 50
270.0
  7
Vcadd_SIMP
100
AcDbText
  0
TEXT
  5
377
100
AcDbEntity
  8
0
370
     0
390
0
  6
Continuous
 62
     7
100
AcDbText
 10
3.574152
 20
4.755328
 30
0.0
 40
0.031
  1
SCALE
 50
270.0
  7
Vcadd_SIMP
100
AcDbText
  0
TEXT
  5
378
100
AcDbEntity
  8
0
370
     0
390
0
  6
Continuous
 62
     7
100
AcDbText
 10
3.574152
 20
4.755328
 30
0.0
 40
0.031
  1
      REF.                
 50
270.0
  7
Vcadd_SIMP
100
AcDbText
  0
TEXT
  5
379
100
AcDbEntity
  8
0
370
     0
390
0
  6
Continuous
 62
     7
100
AcDbText
 10
3.574152
 20
3.938438
 30
0.0
 40
0.031
  1
MATERIAL
 50
270.0
  7
Vcadd_SIMP
100
AcDbText
  0
TEXT
  5
37A
100
AcDbEntity
  8
0
370
     0
390
0
  6
Continuous
 62
     7
100
AcDbText
 10
3.390475
 20
4.752795
 30
0.0
 40
0.031
  1
DRAWN    
 50
270.0
  7
Vcadd_SIMP
100
AcDbText
  0
TEXT
  5
37B
100
AcDbEntity
  8
0
370
     0
390
0
  6
Continuous
 62
     7
100
AcDbText
 10
3.390475
 20
4.484951
 30
0.0
 40
0.031
  1
CHECK 
 50
270.0
  7
Vcadd_SIMP
100
AcDbText
  0
TEXT
  5
37C
100
AcDbEntity
  8
0
370
     0
390
0
  6
Continuous
 62
     7
100
AcDbText
 10
3.390475
 20
4.214574
 30
0.0
 40
0.031
  1
RELEASE
 50
270.0
  7
Vcadd_SIMP
100
AcDbText
  0
TEXT
  5
37D
100
AcDbEntity
  8
0
370
     0
390
0
  6
Continuous
 62
     7
100
AcDbText
 10
3.245865
 20
4.749779
 30
0.0
 40
0.031
  1
DATE     
 50
270.0
  7
Vcadd_SIMP
100
AcDbText
  0
TEXT
  5
37E
100
AcDbEntity
  8
0
370
     0
390
0
  6
Continuous
 62
     7
100
AcDbText
 10
3.245865
 20
4.481935
 30
0.0
 40
0.031
  1
DATE  
 50
270.0
  7
Vcadd_SIMP
100
AcDbText
  0
TEXT
  5
37F
100
AcDbEntity
  8
0
370
     0
390
0
  6
Continuous
 62
     7
100
AcDbText
 10
3.245865
 20
4.211558
 30
0.0
 40
0.031
  1
DATE
 50
270.0
  7
Vcadd_SIMP
100
AcDbText
  0
TEXT
  5
380
100
AcDbEntity
  8
0
370
     0
390
0
  6
Continuous
 62
     7
100
AcDbText
 10
3.390475
 20
3.94007
 30
0.0
 40
0.031
  1
HEAT TREAT & FINISH
 50
270.0
  7
Vcadd_SIMP
100
AcDbText
  0
TEXT
  5
381
100
AcDbEntity
  8
0
370
     0
390
0
  6
Continuous
 62
     7
100
AcDbText
 10
3.784222
 20
3.157475
 30
0.0
 40
0.031
  1
      PART NO.
 50
270.0
  7
Vcadd_SIMP
100
AcDbText
  0
TEXT
  5
382
100
AcDbEntity
  8
0
370
     0
390
0
  6
Continuous
 62
     7
100
AcDbText
 10
3.676038
 20
4.722181
 30
0.0
 40
0.05
  1
DIMENSIONS, TOOLING, PORTING
 50
270.0
  7
Vcadd_SIMP
100
AcDbText
  0
TEXT
  5
383
100
AcDbEntity
  8
0
370
     0
390
0
  6
Continuous
 62
     7
100
AcDbText
 10
3.472855
 20
4.739917
 30
0.0
 40
0.047
  1
2:1
 50
270.0
  7
Vcadd_SIMP
100
AcDbText
  0
LINE
  5
384
100
AcDbEntity
  8
0
370
     0
390
0
  6
Continuous
 62
     7
100
AcDbLine
 10
3.843946
 20
1.895243
 30
0.0
 11
3.843946
 21
1.895243
 31
0.0
  0
TEXT
  5
385
100
AcDbEntity
  8
SEAL_RETAINER
370
     0
390
0
  6
Continuous
 62
     7
100
AcDbText
 10
3.177708
 20
9.605014
 30
0.0
 40
0.071
  1
(ALL DIMENSIONS ARE IN INCHES)
  7
Vcadd_SIMP
100
AcDbText
  0
INSERT
  5
386
100
AcDbEntity
  8
SEAL_RETAINER
370
    30
390
0
  6
Continuous
 62
     7
100
AcDbBlockReference
  2
DELTA
 10
3.352943
 20
9.498981
 30
0.0
 41
0.5
 42
0.5
  0
TEXT
  5
387
100
AcDbEntity
  8
SEAL_RETAINER
370
     0
390
0
  6
Continuous
 62
     7
100
AcDbText
 10
3.457866
 20
9.500145
 30
0.0
 40
0.071
  1
1.000-14 UNS-2B THREAD
  7
Vcadd_SIMP
100
AcDbText
  0
TEXT
  5
388
100
AcDbEntity
  8
SEAL_RETAINER
370
     0
390
0
  6
Continuous
 62
     7
100
AcDbText
 10
3.431683
 20
9.400643
 30
0.0
 40
0.071
  1
.9536/.9609 PITCH DIA.
  7
Vcadd_SIMP
100
AcDbText
  0
TEXT
  5
389
100
AcDbEntity
  8
0
370
     0
390
0
  6
Continuous
 62
     7
100
AcDbText
 10
3.478742
 20
4.526353
 30
0.0
 40
0.06768
  1
SERIES 2
 50
270.0
  7
Vcadd_SIMP
100
AcDbText
  0
LINE
  5
38A
100
AcDbEntity
  8
0
370
     0
390
0
  6
Continuous
 62
     7
100
AcDbLine
 10
7.971528
 20
3.270243
 30
0.0
 11
7.971528
 21
1.895243
 31
0.0
  0
LINE
  5
38B
100
AcDbEntity
  8
0
370
     0
390
0
  6
Continuous
 62
     7
100
AcDbLine
 10
7.971528
 20
2.989243
 30
0.0
 11
8.157623
 21
2.989243
 31
0.0
  0
LINE
  5
38C
100
AcDbEntity
  8
0
370
     0
390
0
  6
Continuous
 62
     7
100
AcDbLine
 10
7.971528
 20
3.270243
 30
0.0
 11
8.159028
 21
3.270243
 31
0.0
  0
TEXT
  5
38D
100
AcDbEntity
  8
0
370
     0
390
0
  6
Continuous
 62
     7
100
AcDbText
 10
8.098747
 20
3.256702
 30
0.0
 40
0.031
  1
REVISION PART NO.
 50
270.0
  7
Vcadd_SIMP
100
AcDbText
  0
LINE
  5
38E
100
AcDbEntity
  8
0
370
     0
390
0
  6
Continuous
 62
     7
100
AcDbLine
 10
3.390447
 20
7.082743
 30
0.0
 11
3.390447
 21
5.895243
 31
0.0
  0
LINE
  5
38F
100
AcDbEntity
  8
0
370
     0
390
0
  6
Continuous
 62
     7
100
AcDbLine
 10
3.468446
 20
7.082743
 30
0.0
 11
3.468446
 21
5.895243
 31
0.0
  0
LINE
  5
390
100
AcDbEntity
  8
0
370
     0
390
0
  6
Continuous
 62
     7
100
AcDbLine
 10
3.624446
 20
7.082743
 30
0.0
 11
3.624446
 21
5.895243
 31
0.0
  0
LINE
  5
391
100
AcDbEntity
  8
0
370
     0
390
0
  6
Continuous
 62
     7
100
AcDbLine
 10
3.702446
 20
7.082743
 30
0.0
 11
3.702446
 21
5.895243
 31
0.0
  0
LINE
  5
392
100
AcDbEntity
  8
0
370
     0
390
0
  6
CL____X1
 62
     1
100
AcDbLine
 10
5.567038
 20
3.092777
 30
0.0
 11
5.864038
 21
2.921304
 31
0.0
  0
LINE
  5
393
100
AcDbEntity
  8
0
370
     0
390
0
  6
Continuous
 62
     1
100
AcDbLine
 10
6.161038
 20
3.467777
 30
0.0
 11
6.161038
 21
3.092777
 31
0.0
  0
LINE
  5
394
100
AcDbEntity
  8
0
370
     0
390
0
  6
Continuous
 62
     1
100
AcDbLine
 10
5.864038
 20
2.921304
 30
0.0
 11
6.161038
 21
3.092777
 31
0.0
  0
TEXT
  5
395
100
AcDbEntity
  8
SEAL_RETAINER
370
     0
390
0
  6
Continuous
 62
     7
100
AcDbText
 10
5.656091
 20
3.128969
 30
0.0
 40
0.071
  1
PORT 1
  7
Vcadd_SIMP
100
AcDbText
  0
LINE
  5
396
100
AcDbEntity
  8
0
370
     0
390
0
  6
Continuous
 62
     7
100
AcDbLine
 10
5.864038
 20
4.063403
 30
0.0
 11
5.864038
 21
3.247479
 31
0.0
  0
LINE
  5
397
100
AcDbEntity
  8
0
370
     0
390
0
  6
Continuous
 62
     7
100
AcDbLine
 10
5.864038
 20
3.08524
 30
0.0
 11
5.864038
 21
2.897718
 31
0.0
  0
LINE
  5
398
100
AcDbEntity
  8
SEAL_RETAINER
370
     0
390
0
  6
Continuous
 62
     1
100
AcDbLine
 10
5.342794
 20
3.300801
 30
0.0
 11
5.405876
 21
3.300801
 31
0.0
  0
LINE
  5
399
100
AcDbEntity
  8
SEAL_RETAINER
370
     0
390
0
  6
Continuous
 62
     1
100
AcDbLine
 10
5.405876
 20
3.300801
 30
0.0
 11
5.484038
 21
3.473777
 31
0.0
  0
LINE
  5
39A
100
AcDbEntity
  8
0
370
     0
390
0
  6
Continuous
 62
     1
100
AcDbLine
 10
4.251368
 20
3.092777
 30
0.0
 11
4.251368
 21
3.092777
 31
0.0
  0
LINE
  5
39B
100
AcDbEntity
  8
0
370
     0
390
0
  6
Continuous
 62
     1
100
AcDbLine
 10
5.519782
 20
3.092777
 30
0.0
 11
4.33221
 21
3.092777
 31
0.0
  0
TEXT
  5
39C
100
AcDbEntity
  8
SEAL_RETAINER
370
     0
390
0
  6
Continuous
 62
     7
100
AcDbText
 10
3.9766
 20
3.060283
 30
0.0
 40
0.071
  1
4.745
  7
Vcadd_SIMP
100
AcDbText
  0
TEXT
  5
39D
100
AcDbEntity
  8
SEAL_RETAINER
370
     0
390
0
  6
Continuous
 62
     7
100
AcDbText
 10
3.921675
 20
2.962256
 30
0.0
 40
0.0639
  1
(WORKING PARTS CLEARANCE,
  7
Vcadd_SIMP
100
AcDbText
  0
TEXT
  5
39E
100
AcDbEntity
  8
SEAL_RETAINER
370
     0
390
0
  6
Continuous
 62
     7
100
AcDbText
 10
3.921675
 20
2.866406
 30
0.0
 40
0.0639
  1
BUILT INTO TD-52A)
  7
Vcadd_SIMP
100
AcDbText
  0
TEXT
  5
39F
100
AcDbEntity
  8
SEAL_RETAINER
370
     0
390
0
  6
Continuous
 62
     7
100
AcDbText
 10
7.133317
 20
3.681082
 30
0.0
 40
0.071
  1
CARTRIDGE NOSE
  7
Vcadd_SIMP
100
AcDbText
  0
TEXT
  5
3A0
100
AcDbEntity
  8
SEAL_RETAINER
370
     0
390
0
  6
Continuous
 62
     7
100
AcDbText
 10
7.346317
 20
3.592333
 30
0.0
 40
0.071
  1
SUPPORT
  7
Vcadd_SIMP
100
AcDbText
  0
LINE
  5
3A1
100
AcDbEntity
  8
SEAL_RETAINER
370
     0
390
0
  6
Continuous
 62
     1
100
AcDbLine
 10
6.815964
 20
3.711462
 30
0.0
 11
7.10397
 21
3.711462
 31
0.0
  0
LINE
  5
3A2
100
AcDbEntity
  8
0
370
     0
390
0
  6
Continuous
 62
     1
100
AcDbLine
 10
6.653356
 20
3.467777
 30
0.0
 11
6.815964
 21
3.711462
 31
0.0
  0
TEXT
  5
3A3
100
AcDbEntity
  8
0
370
     0
390
0
  6
Continuous
 62
     7
100
AcDbText
 10
3.255693
 20
7.153296
 30
0.0
 40
0.031
  1
A
 50
270.0
 41
1.25
  7
Vcadd_SIMP
100
AcDbText
  0
LINE
  5
3A4
100
AcDbEntity
  8
0
370
     0
390
0
  6
Continuous
 62
     7
100
AcDbLine
 10
3.312447
 20
7.207743
 30
0.0
 11
3.312447
 21
5.270243
 31
0.0
  0
TEXT
  5
3A5
100
AcDbEntity
  8
SEAL_RETAINER
370
     0
390
0
  6
Continuous
 62
     7
100
AcDbText
 10
4.280139
 20
3.275762
 30
0.0
 40
0.071
  1
.015 x 45^  MAX.
  7
Vcadd_SIMP
100
AcDbText
  0
TEXT
  5
3A6
100
AcDbEntity
  8
SEAL_RETAINER
370
     0
390
0
  6
Continuous
 62
     7
100
AcDbText
 10
5.916744
 20
9.686809
 30
0.0
 40
0.071
  1
FORM DRILL
  7
Vcadd_SIMP
100
AcDbText
  0
TEXT
  5
3A7
100
AcDbEntity
  8
SEAL_RETAINER
370
     0
390
0
  6
Continuous
 62
     7
100
AcDbText
 10
5.916744
 20
9.580309
 30
0.0
 40
0.071
  1
994-052-***
  7
Vcadd_SIMP
100
AcDbText
  0
TEXT
  5
3A8
100
AcDbEntity
  8
SEAL_RETAINER
370
     0
390
0
  6
Continuous
 62
     7
100
AcDbText
 10
5.914341
 20
9.488144
 30
0.0
 40
0.071
  1
FORM REAMER
  7
Vcadd_SIMP
100
AcDbText
  0
TEXT
  5
3A9
100
AcDbEntity
  8
SEAL_RETAINER
370
     0
390
0
  6
Continuous
 62
     7
100
AcDbText
 10
5.914341
 20
9.381644
 30
0.0
 40
0.071
  1
995-052-***
  7
Vcadd_SIMP
100
AcDbText
  0
TEXT
  5
3AA
100
AcDbEntity
  8
SEAL_RETAINER
370
     0
390
0
  6
Continuous
 62
     7
100
AcDbText
 10
3.635586
 20
8.29737
 30
0.0
 40
0.071
  1
1.051
  7
Vcadd_SIMP
100
AcDbText
  0
TEXT
  5
3AB
100
AcDbEntity
  8
SEAL_RETAINER
370
     0
390
0
  6
Continuous
 62
     7
100
AcDbText
 10
3.635586
 20
8.202825
 30
0.0
 40
0.071
  1
1.053
  7
Vcadd_SIMP
100
AcDbText
  0
TEXT
  5
3AC
100
AcDbEntity
  8
SEAL_RETAINER
370
     0
390
0
  6
Continuous
 62
     7
100
AcDbText
 10
4.702556
 20
6.5652
 30
0.0
 40
0.064
  1
.020 R
  7
Vcadd_SIMP
100
AcDbText
  0
TEXT
  5
3AD
100
AcDbEntity
  8
SEAL_RETAINER
370
     0
390
0
  6
Continuous
 62
     7
100
AcDbText
 10
4.702556
 20
6.4692
 30
0.0
 40
0.064
  1
  **
  7
Vcadd_SIMP
100
AcDbText
  0
TEXT
  5
3AE
100
AcDbEntity
  8
SEAL_RETAINER
370
     0
390
0
  6
Continuous
 62
     7
100
AcDbText
 10
4.723056
 20
5.610447
 30
0.0
 40
0.064
  1
.020 R
  7
Vcadd_SIMP
100
AcDbText
  0
TEXT
  5
3AF
100
AcDbEntity
  8
SEAL_RETAINER
370
     0
390
0
  6
Continuous
 62
     7
100
AcDbText
 10
4.723056
 20
5.514447
 30
0.0
 40
0.064
  1
  **
  7
Vcadd_SIMP
100
AcDbText
  0
TEXT
  5
3B0
100
AcDbEntity
  8
SEAL_RETAINER
370
     0
390
0
  6
Continuous
 62
     7
100
AcDbText
 10
4.744062
 20
4.656581
 30
0.0
 40
0.064
  1
.020 R
  7
Vcadd_SIMP
100
AcDbText
  0
TEXT
  5
3B1
100
AcDbEntity
  8
SEAL_RETAINER
370
     0
390
0
  6
Continuous
 62
     7
100
AcDbText
 10
4.744062
 20
4.560581
 30
0.0
 40
0.064
  1
  **
  7
Vcadd_SIMP
100
AcDbText
  0
TEXT
  5
3B2
100
AcDbEntity
  8
SEAL_RETAINER
370
     0
390
0
  6
Continuous
 62
     7
100
AcDbText
 10
4.618913
 20
4.050197
 30
0.0
 40
0.064
  1
.020 R
  7
Vcadd_SIMP
100
AcDbText
  0
TEXT
  5
3B3
100
AcDbEntity
  8
SEAL_RETAINER
370
     0
390
0
  6
Continuous
 62
     7
100
AcDbText
 10
4.618913
 20
3.954197
 30
0.0
 40
0.064
  1
  **
  7
Vcadd_SIMP
100
AcDbText
  0
LINE
  5
3B4
100
AcDbEntity
  8
SEAL_RETAINER
370
    30
390
0
  6
Continuous
 62
     1
100
AcDbLine
 10
5.296246
 20
7.837798
 30
0.0
 11
4.231989
 21
7.837798
 31
0.0
  0
LINE
  5
3B5
100
AcDbEntity
  8
SEAL_RETAINER
370
    30
390
0
  6
Continuous
 62
     1
100
AcDbLine
 10
6.445447
 20
7.837798
 30
0.0
 11
7.729544
 21
7.837798
 31
0.0
  0
LINE
  5
3B6
100
AcDbEntity
  8
0
370
     0
390
0
  6
Continuous
 62
     7
100
AcDbLine
 10
3.546446
 20
7.082743
 30
0.0
 11
3.546446
 21
5.895243
 31
0.0
  0
TEXT
  5
3B7
100
AcDbEntity
  8
0
370
     0
390
0
  6
Continuous
 62
     7
100
AcDbText
 10
7.980578
 20
2.825126
 30
0.0
 40
0.0752
  1
SHEET 1 OF 3
 50
270.0
  7
Vcadd_SIMP
100
AcDbText
  0
TEXT
  5
3B8
100
AcDbEntity
  8
0
370
     0
390
0
  6
Continuous
 62
     7
100
AcDbText
 10
3.646134
 20
2.825126
 30
0.0
 40
0.0752
  1
SHEET 1 OF 3
 50
270.0
  7
Vcadd_SIMP
100
AcDbText
  0
LINE
  5
3B9
100
AcDbEntity
  8
0
370
     0
390
0
  6
Continuous
 62
     7
100
AcDbLine
 10
5.864038
 20
6.225934
 30
0.0
 11
5.864038
 21
6.158512
 31
0.0
  0
LINE
  5
3BA
100
AcDbEntity
  8
0
370
     0
390
0
  6
Continuous
 62
     7
100
AcDbLine
 10
5.864038
 20
4.203289
 30
0.0
 11
5.864038
 21
4.131281
 31
0.0
  0
LINE
  5
3BB
100
AcDbEntity
  8
0
370
     0
390
0
  6
Continuous
 62
     7
100
AcDbLine
 10
5.864038
 20
6.09476
 30
0.0
 11
5.864038
 21
4.266583
 31
0.0
  0
LINE
  5
3BC
100
AcDbEntity
  8
0
370
     0
390
0
  6
Continuous
 62
     7
100
AcDbLine
 10
6.301538
 20
7.128797
 30
0.0
 11
6.243896
 21
7.071155
 31
0.0
  0
LINE
  5
3BD
100
AcDbEntity
  8
0
370
     0
390
0
  6
Continuous
 62
     7
100
AcDbLine
 10
6.193538
 20
3.769797
 30
0.0
 11
6.193538
 21
3.571797
 31
0.0
  0
LINE
  5
3BE
100
AcDbEntity
  8
0
370
     0
390
0
  6
Continuous
 62
     7
100
AcDbLine
 10
6.214038
 20
3.866797
 30
0.0
 11
6.214038
 21
5.382797
 31
0.0
  0
LINE
  5
3BF
100
AcDbEntity
  8
0
370
     0
390
0
  6
Continuous
 62
     7
100
AcDbLine
 10
6.234538
 20
5.477797
 30
0.0
 11
6.234538
 21
5.675797
 31
0.0
  0
LINE
  5
3C0
100
AcDbEntity
  8
0
370
     0
390
0
  6
Continuous
 62
     7
100
AcDbLine
 10
6.238038
 20
5.770797
 30
0.0
 11
6.238038
 21
7.057012
 31
0.0
  0
LINE
  5
3C1
100
AcDbEntity
  8
0
370
     0
390
0
  6
Continuous
 62
     7
100
AcDbLine
 10
6.248038
 20
3.483797
 30
0.0
 11
6.248038
 21
3.571797
 31
0.0
  0
LINE
  5
3C2
100
AcDbEntity
  8
0
370
     0
390
0
  6
Continuous
 62
     7
100
AcDbLine
 10
6.248038
 20
3.769797
 30
0.0
 11
6.248038
 21
3.846797
 31
0.0
  0
LINE
  5
3C3
100
AcDbEntity
  8
0
370
     0
390
0
  6
Continuous
 62
     7
100
AcDbLine
 10
6.289538
 20
5.402797
 30
0.0
 11
6.289538
 21
5.477797
 31
0.0
  0
LINE
  5
3C4
100
AcDbEntity
  8
0
370
     0
390
0
  6
Continuous
 62
     7
100
AcDbLine
 10
6.289538
 20
5.675797
 30
0.0
 11
6.289538
 21
5.750797
 31
0.0
  0
LINE
  5
3C5
100
AcDbEntity
  8
0
370
     0
390
0
  6
Continuous
 62
     7
100
AcDbLine
 10
6.236036
 20
3.471798
 30
0.0
 11
6.248036
 21
3.483798
 31
0.0
  0
ARC
  5
3C6
100
AcDbEntity
  8
0
370
     0
390
0
  6
Continuous
 62
     7
100
AcDbCircle
 10
6.234038
 20
5.382797
 30
0.0
 40
0.02
100
AcDbArc
 50
90.0
 51
180.0
  0
ARC
  5
3C7
100
AcDbEntity
  8
0
370
     0
390
0
  6
Continuous
 62
     7
100
AcDbCircle
 10
6.258038
 20
5.770797
 30
0.0
 40
0.02
100
AcDbArc
 50
180.0
 51
270.0
  0
ARC
  5
3C8
100
AcDbEntity
  8
0
370
     0
390
0
  6
Continuous
 62
     7
100
AcDbCircle
 10
6.258038
 20
7.057012
 30
0.0
 40
0.02
100
AcDbArc
 50
135.0
 51
180.0
  0
ARC
  5
3C9
100
AcDbEntity
  8
0
370
     0
390
0
  6
Continuous
 62
     7
100
AcDbCircle
 10
6.234038
 20
3.866797
 30
0.0
 40
0.02
100
AcDbArc
 50
180.0
 51
270.0
  0
SPLINE
  5
3CA
100
AcDbEntity
  8
0
370
     0
390
0
  6
Continuous
 62
     7
100
AcDbSpline
210
0.0
220
0.0
230
1.0
 70
     0
 71
     2
 72
     0
 73
     0
 74
     2
 44
0.000001
 12
0.0007533056
 22
-0.0080245042333331
 32
0.0
 13
0.0014962078050438
 23
-0.007919690632967
 33
0.0
 11
6.1305340596268909
 21
5.8787966959766429
 31
0.0
 11
6.1327939764268944
 21
5.8547231832766418
 31
0.0
  0
SPLINE
  5
3CB
100
AcDbEntity
  8
0
370
     0
390
0
  6
Continuous
 62
     7
100
AcDbSpline
210
0.0
220
0.0
230
1.0
 70
     0
 71
     2
 72
     0
 73
     0
 74
     2
 44
0.000001
 12
0.00146206970701
 22
-0.0077389916857467
 32
0.0
 13
0.0028931599417916
 23
-0.0073252485071453
 33
0.0
 11
6.1327939764268944
 21
5.8547231832766418
 31
0.0
 11
6.139369541426893
 21
5.8320289393766416
 31
0.0
  0
SPLINE
  5
3CC
100
AcDbEntity
  8
0
370
     0
390
0
  6
Continuous
 62
     7
100
AcDbSpline
210
0.0
220
0.0
230
1.0
 70
     0
 71
     2
 72
     0
 73
     0
 74
     2
 44
0.000001
 12
0.002713148792548
 22
-0.0068694747411548
 32
0.0
 13
0.004028349688916
 23
-0.0061905781938094
 33
0.0
 11
6.139369541426893
 21
5.8320289393766416
 31
0.0
 11
6.1495334958268923
 21
5.8123400651766417
 31
0.0
  0
SPLINE
  5
3CD
100
AcDbEntity
  8
0
370
     0
390
0
  6
Continuous
 62
     7
100
AcDbSpline
210
0.0
220
0.0
230
1.0
 70
     0
 71
     2
 72
     0
 73
     0
 74
     2
 44
0.000001
 12
0.0035528868852417
 22
-0.0054599093364054
 32
0.0
 13
0.0047214710771541
 23
-0.0044879088725907
 33
0.0
 11
6.1495334958268923
 21
5.8123400651766417
 31
0.0
 11
6.1619835021268923
 21
5.7972768689766419
 31
0.0
  0
SPLINE
  5
3CE
100
AcDbEntity
  8
0
370
     0
390
0
  6
Continuous
 62
     7
100
AcDbSpline
210
0.0
220
0.0
230
1.0
 70
     0
 71
     2
 72
     0
 73
     0
 74
     2
 44
0.000001
 12
0.0039096830699741
 22
-0.0037162784759275
 32
0.0
 13
0.0048610575276555
 23
-0.0023380477178794
 33
0.0
 11
6.1619835021268923
 21
5.7972768689766419
 31
0.0
 11
6.1752016879268918
 21
5.7879416297766433
 31
0.0
  0
SPLINE
  5
3CF
100
AcDbEntity
  8
0
370
     0
390
0
  6
Continuous
 62
     7
100
AcDbSpline
210
0.0
220
0.0
230
1.0
 70
     0
 71
     2
 72
     0
 73
     0
 74
     2
 44
0.000001
 12
0.0039388168788363
 22
-0.0018944729130084
 32
0.0
 13
0.0042431533333307
 23
-0.0010483109333332
 33
0.0
 11
6.1752016879268918
 21
5.7879416297766433
 31
0.0
 11
6.187931147926891
 21
5.7847966969766418
 31
0.0
  0
SPLINE
  5
3D0
100
AcDbEntity
  8
0
370
     0
390
0
  6
Continuous
 62
     7
100
AcDbSpline
210
0.0
220
0.0
230
1.0
 70
     0
 71
     2
 72
     0
 73
     0
 74
     2
 44
0.000001
 12
-0.0038500586999994
 22
0.0009521450333327
 32
0.0
 13
-0.0035697549030864
 23
0.0017281151841892
 33
0.0
 11
6.1879311491268911
 21
6.745796695976642
 31
0.0
 11
6.1763809730268928
 21
6.748653131076642
 31
0.0
  0
SPLINE
  5
3D1
100
AcDbEntity
  8
0
370
     0
390
0
  6
Continuous
 62
     7
100
AcDbSpline
210
0.0
220
0.0
230
1.0
 70
     0
 71
     2
 72
     0
 73
     0
 74
     2
 44
0.000001
 12
-0.0044006062748387
 22
0.0021303295967492
 32
0.0
 13
-0.0035260767308856
 23
0.0033868012437779
 33
0.0
 11
6.1763809730268928
 21
6.748653131076642
 31
0.0
 11
6.1644390563268932
 21
6.7571691972766423
 31
0.0
  0
SPLINE
  5
3D2
100
AcDbEntity
  8
0
370
     0
390
0
  6
Continuous
 62
     7
100
AcDbSpline
210
0.0
220
0.0
230
1.0
 70
     0
 71
     2
 72
     0
 73
     0
 74
     2
 44
0.000001
 12
-0.0042182256669321
 22
0.0040516111887676
 32
0.0
 13
-0.0031608283959699
 23
0.0049211934379088
 33
0.0
 11
6.1644390563268932
 21
6.7571691972766423
 31
0.0
 11
6.1533538952268945
 21
6.7707706689766418
 31
0.0
  0
SPLINE
  5
3D3
100
AcDbEntity
  8
0
370
     0
390
0
  6
Continuous
 62
     7
100
AcDbSpline
210
0.0
220
0.0
230
1.0
 70
     0
 71
     2
 72
     0
 73
     0
 74
     2
 44
0.000001
 12
-0.0035801040265184
 22
0.0055739768931424
 32
0.0
 13
-0.0024137812520735
 23
0.0061692806155271
 33
0.0
 11
6.1533538952268945
 21
6.7707706689766418
 31
0.0
 11
6.1443298576268948
 21
6.7884778430766417
 31
0.0
  0
SPLINE
  5
3D4
100
AcDbEntity
  8
0
370
     0
390
0
  6
Continuous
 62
     7
100
AcDbSpline
210
0.0
220
0.0
230
1.0
 70
     0
 71
     2
 72
     0
 73
     0
 74
     2
 44
0.000001
 12
-0.0025871665031154
 22
0.0066124285881717
 32
0.0
 13
-0.0013164457693229
 23
0.0069774359821473
 33
0.0
 11
6.1443298576268948
 21
6.7884778430766417
 31
0.0
 11
6.1384187126268923
 21
6.8089428655766433
 31
0.0
  0
SPLINE
  5
3D5
100
AcDbEntity
  8
0
370
     0
390
0
  6
Continuous
 62
     7
100
AcDbSpline
210
0.0
220
0.0
230
1.0
 70
     0
 71
     2
 72
     0
 73
     0
 74
     2
 44
0.000001
 12
-0.0013873618952012
 22
0.0073533061774533
 32
0.0
 13
-0.0000146068089677
 23
0.0074830255517924
 33
0.0
 11
6.1384187126268923
 21
6.8089428655766433
 31
0.0
 11
6.1362529241268948
 21
6.8312872680766432
 31
0.0
  0
SPLINE
  5
3D6
100
AcDbEntity
  8
0
370
     0
390
0
  6
Continuous
 62
     7
100
AcDbSpline
210
0.0
220
0.0
230
1.0
 70
     0
 71
     2
 72
     0
 73
     0
 74
     2
 44
0.000001
 12
-0.0000149604295849
 22
0.0076641843575942
 32
0.0
 13
0.0013878611142673
 23
0.0075374921034239
 33
0.0
 11
6.1362529241268948
 21
6.8312872680766432
 31
0.0
 11
6.1383303987268949
 21
6.8541858184766422
 31
0.0
  0
SPLINE
  5
3D7
100
AcDbEntity
  8
0
370
     0
390
0
  6
Continuous
 62
     7
100
AcDbSpline
210
0.0
220
0.0
230
1.0
 70
     0
 71
     2
 72
     0
 73
     0
 74
     2
 44
0.000001
 12
0.0013120859151314
 22
0.0071259559927608
 32
0.0
 13
0.0026268154575462
 23
0.0067528259870553
 33
0.0
 11
6.1383303987268949
 21
6.8541858184766422
 31
0.0
 11
6.1443168337268919
 21
6.8750824679766431
 31
0.0
  0
SPLINE
  5
3D8
100
AcDbEntity
  8
0
370
     0
390
0
  6
Continuous
 62
     7
100
AcDbSpline
210
0.0
220
0.0
230
1.0
 70
     0
 71
     2
 72
     0
 73
     0
 74
     2
 44
0.000001
 12
0.0024093014271216
 22
0.0061936567492573
 32
0.0
 13
0.003591291683037
 23
0.0055918459690609
 33
0.0
 11
6.1443168337268919
 21
6.8750824679766431
 31
0.0
 11
6.1533691068268919
 21
6.892846234676643
 31
0.0
  0
SPLINE
  5
3D9
100
AcDbEntity
  8
0
370
     0
390
0
  6
Continuous
 62
     7
100
AcDbSpline
210
0.0
220
0.0
230
1.0
 70
     0
 71
     2
 72
     0
 73
     0
 74
     2
 44
0.000001
 12
0.0031598512850728
 22
0.004920068663516
 32
0.0
 13
0.0042185865493849
 23
0.004049106484505
 33
0.0
 11
6.1533691068268919
 21
6.892846234676643
 31
0.0
 11
6.1644561217268947
 21
6.9064404879766421
 31
0.0
  0
SPLINE
  5
3DA
100
AcDbEntity
  8
0
370
     0
390
0
  6
Continuous
 62
     7
100
AcDbSpline
210
0.0
220
0.0
230
1.0
 70
     0
 71
     2
 72
     0
 73
     0
 74
     2
 44
0.000001
 12
0.0035252910256247
 22
0.0033836638372939
 32
0.0
 13
0.0043987304146
 23
0.0021279164736612
 33
0.0
 11
6.1644561217268947
 21
6.9064404879766421
 31
0.0
 11
6.1763948244268949
 21
6.9149469030766433
 31
0.0
  0
SPLINE
  5
3DB
100
AcDbEntity
  8
0
370
     0
390
0
  6
Continuous
 62
     7
100
AcDbSpline
210
0.0
220
0.0
230
1.0
 70
     0
 71
     2
 72
     0
 73
     0
 74
     2
 44
0.000001
 12
0.0035657206889006
 22
0.001724942217237
 32
0.0
 13
0.0038454415666642
 23
0.0009499309666658
 33
0.0
 11
6.1763948244268949
 21
6.9149469030766433
 31
0.0
 11
6.1879311491268911
 21
6.9177966959766408
 31
0.0
  0
SPLINE
  5
3DC
100
AcDbEntity
  8
0
370
     0
390
0
  6
Continuous
 62
     7
100
AcDbSpline
210
0.0
220
0.0
230
1.0
 70
     0
 71
     2
 72
     0
 73
     0
 74
     2
 44
0.000001
 12
0.0007692696333343
 22
-0.0080192999333342
 32
0.0
 13
0.0015260669653223
 23
-0.0079102507423521
 33
0.0
 11
6.109010249626893
 21
4.3117966959766427
 31
0.0
 11
6.1113180585268925
 21
4.287738796176642
 31
0.0
  0
SPLINE
  5
3DD
100
AcDbEntity
  8
0
370
     0
390
0
  6
Continuous
 62
     7
100
AcDbSpline
210
0.0
220
0.0
230
1.0
 70
     0
 71
     2
 72
     0
 73
     0
 74
     2
 44
0.000001
 12
0.0014943699986318
 22
-0.0077459519533658
 32
0.0
 13
0.0029471260647576
 23
-0.0073176062558105
 33
0.0
 11
6.1113180585268925
 21
4.287738796176642
 31
0.0
 11
6.118029880226894
 21
4.2650441344766428
 31
0.0
  0
SPLINE
  5
3DE
100
AcDbEntity
  8
0
370
     0
390
0
  6
Continuous
 62
     7
100
AcDbSpline
210
0.0
220
0.0
230
1.0
 70
     0
 71
     2
 72
     0
 73
     0
 74
     2
 44
0.000001
 12
0.0027749834945894
 22
-0.0068901825485597
 32
0.0
 13
0.0040992779744329
 23
-0.0061944385569674
 33
0.0
 11
6.118029880226894
 21
4.2650441344766428
 31
0.0
 11
6.1284016104268932
 21
4.2453209614766418
 31
0.0
  0
SPLINE
  5
3DF
100
AcDbEntity
  8
0
370
     0
390
0
  6
Continuous
 62
     7
100
AcDbSpline
210
0.0
220
0.0
230
1.0
 70
     0
 71
     2
 72
     0
 73
     0
 74
     2
 44
0.000001
 12
0.0036220755407115
 22
-0.0054733356765677
 32
0.0
 13
0.004786645025245
 23
-0.0044905304868532
 33
0.0
 11
6.1284016104268932
 21
4.2453209614766418
 31
0.0
 11
6.1410616660268946
 21
4.2302406927766416
 31
0.0
  0
SPLINE
  5
3E0
100
AcDbEntity
  8
0
370
     0
390
0
  6
Continuous
 62
     7
100
AcDbSpline
210
0.0
220
0.0
230
1.0
 70
     0
 71
     2
 72
     0
 73
     0
 74
     2
 44
0.000001
 12
0.003956506107599
 22
-0.0037117461612279
 32
0.0
 13
0.0048963987061086
 23
-0.0023358681160701
 33
0.0
 11
6.1410616660268946
 21
4.2302406927766416
 31
0.0
 11
6.1544066949268927
 21
4.2209246203766426
 31
0.0
  0
SPLINE
  5
3E1
100
AcDbEntity
  8
0
370
     0
390
0
  6
Continuous
 62
     7
100
AcDbSpline
210
0.0
220
0.0
230
1.0
 70
     0
 71
     2
 72
     0
 73
     0
 74
     2
 44
0.000001
 12
0.0039466517753297
 22
-0.0018827833680568
 32
0.0
 13
0.0042466240000003
 23
-0.001042649533332
 33
0.0
 11
6.1544066949268927
 21
4.2209246203766426
 31
0.0
 11
6.1671465669268937
 21
4.2177966717766431
 31
0.0
  0
SPLINE
  5
3E2
100
AcDbEntity
  8
0
370
     0
390
0
  6
Continuous
 62
     7
100
AcDbSpline
210
0.0
220
0.0
230
1.0
 70
     0
 71
     2
 72
     0
 73
     0
 74
     2
 44
0.000001
 12
-0.0042398275000011
 22
-0.0010467167999995
 32
0.0
 13
-0.0039359412393587
 23
-0.0018921204637898
 33
0.0
 11
6.1879310872268949
 21
5.9727966446766416
 31
0.0
 11
6.1752116047268917
 21
5.9696564942766415
 31
0.0
  0
SPLINE
  5
3E3
100
AcDbEntity
  8
0
370
     0
390
0
  6
Continuous
 62
     7
100
AcDbSpline
210
0.0
220
0.0
230
1.0
 70
     0
 71
     2
 72
     0
 73
     0
 74
     2
 44
0.000001
 12
-0.0048591374128435
 22
-0.0023359274887689
 32
0.0
 13
-0.0039083713196462
 23
-0.0037138130347998
 33
0.0
 11
6.1752116047268917
 21
5.9696564942766415
 31
0.0
 11
6.1619973067268941
 21
5.9603295284766418
 31
0.0
  0
SPLINE
  5
3E4
100
AcDbEntity
  8
0
370
     0
390
0
  6
Continuous
 62
     7
100
AcDbSpline
210
0.0
220
0.0
230
1.0
 70
     0
 71
     2
 72
     0
 73
     0
 74
     2
 44
0.000001
 12
-0.0047242258374673
 22
-0.004489054406454
 32
0.0
 13
-0.0035549916184294
 23
-0.0054618635849302
 33
0.0
 11
6.1619973067268941
 21
5.9603295284766418
 31
0.0
 11
6.1495392707268923
 21
5.9452621261766421
 31
0.0
  0
SPLINE
  5
3E5
100
AcDbEntity
  8
0
370
     0
390
0
  6
Continuous
 62
     7
100
AcDbSpline
210
0.0
220
0.0
230
1.0
 70
     0
 71
     2
 72
     0
 73
     0
 74
     2
 44
0.000001
 12
-0.0040309465510937
 22
-0.006193117324413
 32
0.0
 13
-0.0027146662316078
 23
-0.006872686486572
 33
0.0
 11
6.1495392707268923
 21
5.9452621261766421
 31
0.0
 11
6.1393694798268914
 21
5.9255642977766421
 31
0.0
  0
SPLINE
  5
3E6
100
AcDbEntity
  8
0
370
     0
390
0
  6
Continuous
 62
     7
100
AcDbSpline
210
0.0
220
0.0
230
1.0
 70
     0
 71
     2
 72
     0
 73
     0
 74
     2
 44
0.000001
 12
-0.0028938314877855
 22
-0.0073262769208906
 32
0.0
 13
-0.0014622878980326
 23
-0.0077401749530992
 33
0.0
 11
6.1393694798268914
 21
5.9255642977766421
 31
0.0
 11
6.1327932688268927
 21
5.9028664829766413
 31
0.0
  0
SPLINE
  5
3E7
100
AcDbEntity
  8
0
370
     0
390
0
  6
Continuous
 62
     7
100
AcDbSpline
210
0.0
220
0.0
230
1.0
 70
     0
 71
     2
 72
     0
 73
     0
 74
     2
 44
0.000001
 12
-0.0014959688879195
 22
-0.0079184549995013
 32
0.0
 13
-0.0007530697333351
 23
-0.0080232623333316
 33
0.0
 11
6.1327932688268927
 21
5.9028664829766413
 31
0.0
 11
6.1305340596268909
 21
5.8787966959766429
 31
0.0
  0
SPLINE
  5
3E8
100
AcDbEntity
  8
0
370
     0
390
0
  6
Continuous
 62
     7
100
AcDbSpline
210
0.0
220
0.0
230
1.0
 70
     0
 71
     2
 72
     0
 73
     0
 74
     2
 44
0.000001
 12
0.0005567868666674
 22
0.0066077166666645
 32
0.0
 13
0.0003459918588433
 23
0.006622100935159
 33
0.0
 11
6.1385533605268936
 21
5.8352162539766432
 31
0.0
 11
6.1402237211268922
 21
5.855039403976642
 31
0.0
  0
SPLINE
  5
3E9
100
AcDbEntity
  8
0
370
     0
390
0
  6
Continuous
 62
     7
100
AcDbSpline
210
0.0
220
0.0
230
1.0
 70
     0
 71
     2
 72
     0
 73
     0
 74
     2
 44
0.000001
 12
0.0004133284774568
 22
0.0079108881527699
 32
0.0
 13
0.0002022108333328
 23
0.0079190973333354
 33
0.0
 11
6.1402237211268922
 21
5.855039403976642
 31
0.0
 11
6.1408303536268942
 21
5.8787966959766429
 31
0.0
  0
SPLINE
  5
3EA
100
AcDbEntity
  8
0
370
     0
390
0
  6
Continuous
 62
     7
100
AcDbSpline
210
0.0
220
0.0
230
1.0
 70
     0
 71
     2
 72
     0
 73
     0
 74
     2
 44
0.000001
 12
-0.0042476915999998
 22
-0.0010431463333322
 32
0.0
 13
-0.0039476725837062
 23
-0.0018833266772624
 33
0.0
 11
6.1671465077268923
 21
4.4057966679766416
 31
0.0
 11
6.1544034329268928
 21
4.4026672289766431
 31
0.0
  0
SPLINE
  5
3EB
100
AcDbEntity
  8
0
370
     0
390
0
  6
Continuous
 62
     7
100
AcDbSpline
210
0.0
220
0.0
230
1.0
 70
     0
 71
     2
 72
     0
 73
     0
 74
     2
 44
0.000001
 12
-0.004895657403555
 22
-0.0023355843209778
 32
0.0
 13
-0.0039557827243719
 23
-0.0037113607438446
 33
0.0
 11
6.1544034329268928
 21
4.4026672289766431
 31
0.0
 11
6.1410607903268914
 21
4.3933518852766422
 31
0.0
  0
SPLINE
  5
3EC
100
AcDbEntity
  8
0
370
     0
390
0
  6
Continuous
 62
     7
100
AcDbSpline
210
0.0
220
0.0
230
1.0
 70
     0
 71
     2
 72
     0
 73
     0
 74
     2
 44
0.000001
 12
-0.0047864981775874
 22
-0.004490747514355
 32
0.0
 13
-0.003621962695199
 23
-0.0054734599912987
 33
0.0
 11
6.1410607903268914
 21
4.3933518852766422
 31
0.0
 11
6.1284008783268948
 21
4.3782713338766417
 31
0.0
  0
SPLINE
  5
3ED
100
AcDbEntity
  8
0
370
     0
390
0
  6
Continuous
 62
     7
100
AcDbSpline
210
0.0
220
0.0
230
1.0
 70
     0
 71
     2
 72
     0
 73
     0
 74
     2
 44
0.000001
 12
-0.0040995800206822
 22
-0.0061952286957752
 32
0.0
 13
-0.002774955551601
 23
-0.0068910838498439
 33
0.0
 11
6.1284008783268948
 21
4.3782713338766417
 31
0.0
 11
6.1180284494268928
 21
4.3585457298766421
 31
0.0
  0
SPLINE
  5
3EE
100
AcDbEntity
  8
0
370
     0
390
0
  6
Continuous
 62
     7
100
AcDbSpline
210
0.0
220
0.0
230
1.0
 70
     0
 71
     2
 72
     0
 73
     0
 74
     2
 44
0.000001
 12
-0.0029475770155294
 22
-0.0073197570159866
 32
0.0
 13
-0.0014946599499126
 23
-0.0077480994230648
 33
0.0
 11
6.1180284494268928
 21
4.3585457298766421
 31
0.0
 11
6.1113160921268932
 21
4.3358444581766413
 31
0.0
  0
SPLINE
  5
3EF
100
AcDbEntity
  8
0
370
     0
390
0
  6
Continuous
 62
     7
100
AcDbSpline
210
0.0
220
0.0
230
1.0
 70
     0
 71
     2
 72
     0
 73
     0
 74
     2
 44
0.000001
 12
-0.0015252955745915
 22
-0.0079069100380877
 32
0.0
 13
-0.0007686141666667
 23
-0.0080159207333317
 33
0.0
 11
6.1113160921268932
 21
4.3358444581766413
 31
0.0
 11
6.109010249626893
 21
4.3117966959766427
 31
0.0
  0
SPLINE
  5
3F0
100
AcDbEntity
  8
0
370
     0
390
0
  6
Continuous
 62
     7
100
AcDbSpline
210
0.0
220
0.0
230
1.0
 70
     0
 71
     2
 72
     0
 73
     0
 74
     2
 44
0.000001
 12
0.0005348263999991
 22
0.0016946352666665
 32
0.0
 13
0.000387436558178
 23
0.0017342782010257
 33
0.0
 11
6.1326637354268936
 21
4.2406058230766419
 31
0.0
 11
6.1342682146268945
 21
4.2456897288766413
 31
0.0
  0
SPLINE
  5
3F1
100
AcDbEntity
  8
0
370
     0
390
0
  6
Continuous
 62
     7
100
AcDbSpline
210
0.0
220
0.0
230
1.0
 70
     0
 71
     2
 72
     0
 73
     0
 74
     2
 44
0.000001
 12
0.0014522635302754
 22
0.0065007520058735
 32
0.0
 13
0.0009275883918782
 23
0.0065960917048287
 33
0.0
 11
6.1342682146268945
 21
4.2456897288766413
 31
0.0
 11
6.138177406726891
 21
4.2652866120766433
 31
0.0
  0
SPLINE
  5
3F2
100
AcDbEntity
  8
0
370
     0
390
0
  6
Continuous
 62
     7
100
AcDbSpline
210
0.0
220
0.0
230
1.0
 70
     0
 71
     2
 72
     0
 73
     0
 74
     2
 44
0.000001
 12
0.0010604227543816
 22
0.0075406783816998
 32
0.0
 13
0.0004336495228792
 23
0.0076025176728205
 33
0.0
 11
6.138177406726891
 21
4.2652866120766433
 31
0.0
 11
6.1402237211268922
 21
4.2880394039766419
 31
0.0
  0
SPLINE
  5
3F3
100
AcDbEntity
  8
0
370
     0
390
0
  6
Continuous
 62
     7
100
AcDbSpline
210
0.0
220
0.0
230
1.0
 70
     0
 71
     2
 72
     0
 73
     0
 74
     2
 44
0.000001
 12
0.0004511212564786
 22
0.0079088230102773
 32
0.0
 13
0.0002022108333328
 23
0.0079190973333354
 33
0.0
 11
6.1402237211268922
 21
4.2880394039766419
 31
0.0
 11
6.1408303536268942
 21
4.3117966959766427
 31
0.0
  0
SPLINE
  5
3F4
100
AcDbEntity
  8
0
370
     0
390
0
  6
Continuous
 62
     7
100
AcDbSpline
210
0.0
220
0.0
230
1.0
 70
     0
 71
     2
 72
     0
 73
     0
 74
     2
 44
0.000001
 12
-0.0002040531000027
 22
0.0079535222333327
 32
0.0
 13
-0.0004546988160108
 23
0.0079431355628898
 33
0.0
 11
6.1408303536268942
 21
4.3117966959766427
 31
0.0
 11
6.1402181943268932
 21
4.3356572626766408
 31
0.0
  0
SPLINE
  5
3F5
100
AcDbEntity
  8
0
370
     0
390
0
  6
Continuous
 62
     7
100
AcDbSpline
210
0.0
220
0.0
230
1.0
 70
     0
 71
     2
 72
     0
 73
     0
 74
     2
 44
0.000001
 12
-0.000435555904712
 22
0.0076087279634613
 32
0.0
 13
-0.0010656263864028
 23
0.0075463163578444
 33
0.0
 11
6.1402181943268932
 21
4.3356572626766408
 31
0.0
 11
6.138160975426894
 21
4.3584280751766418
 31
0.0
  0
SPLINE
  5
3F6
100
AcDbEntity
  8
0
370
     0
390
0
  6
Continuous
 62
     7
100
AcDbSpline
210
0.0
220
0.0
230
1.0
 70
     0
 71
     2
 72
     0
 73
     0
 74
     2
 44
0.000001
 12
-0.0009309165250926
 22
0.0065923579696427
 32
0.0
 13
-0.0014543118407175
 23
0.0064969813180085
 33
0.0
 11
6.138160975426894
 21
4.3584280751766418
 31
0.0
 11
6.1342371983268951
 21
4.3780121522766429
 31
0.0
  0
SPLINE
  5
3F7
100
AcDbEntity
  8
0
370
     0
390
0
  6
Continuous
 62
     7
100
AcDbSpline
210
0.0
220
0.0
230
1.0
 70
     0
 71
     2
 72
     0
 73
     0
 74
     2
 44
0.000001
 12
-0.000380121408071
 22
0.0016981513989336
 32
0.0
 13
-0.0005247323333357
 23
0.0016591764333338
 33
0.0
 11
6.1342371983268951
 21
4.3780121522766429
 31
0.0
 11
6.1326630013268915
 21
4.3829896815766425
 31
0.0
  0
SPLINE
  5
3F8
100
AcDbEntity
  8
0
370
     0
390
0
  6
Continuous
 62
     7
100
AcDbSpline
210
0.0
220
0.0
230
1.0
 70
     0
 71
     2
 72
     0
 73
     0
 74
     2
 44
0.000001
 12
-0.0002040531000027
 22
0.0079535222333327
 32
0.0
 13
-0.0004149762860131
 23
0.0079453098281803
 33
0.0
 11
6.1408303536268942
 21
5.8787966959766429
 31
0.0
 11
6.1402181943268932
 21
5.9026572626766409
 31
0.0
  0
SPLINE
  5
3F9
100
AcDbEntity
  8
0
370
     0
390
0
  6
Continuous
 62
     7
100
AcDbSpline
210
0.0
220
0.0
230
1.0
 70
     0
 71
     2
 72
     0
 73
     0
 74
     2
 44
0.000001
 12
-0.0003438805518137
 22
0.0065840811153386
 32
0.0
 13
-0.0005544814333334
 23
0.0065696977333332
 33
0.0
 11
6.1402181943268932
 21
5.9026572626766409
 31
0.0
 11
6.1385547500268931
 21
5.9223663558766422
 31
0.0
  0
SPLINE
  5
3FA
100
AcDbEntity
  8
0
370
     0
390
0
  6
Continuous
 62
     7
100
AcDbSpline
210
0.0
220
0.0
230
1.0
 70
     0
 71
     2
 72
     0
 73
     0
 74
     2
 44
0.000001
 12
-0.0043621379666661
 22
-0.0010979433333329
 32
0.0
 13
-0.004045000638051
 23
-0.0019676628373837
 33
0.0
 11
6.1671465394268932
 21
5.1757966959766417
 31
0.0
 11
6.1540601255268914
 21
5.172502865976643
 31
0.0
  0
SPLINE
  5
3FB
100
AcDbEntity
  8
0
370
     0
390
0
  6
Continuous
 62
     7
100
AcDbSpline
210
0.0
220
0.0
230
1.0
 70
     0
 71
     2
 72
     0
 73
     0
 74
     2
 44
0.000001
 12
-0.0049850915336229
 22
-0.0024249636104905
 32
0.0
 13
-0.0040289671007372
 23
-0.0038077565851822
 33
0.0
 11
6.1540601255268914
 21
5.172502865976643
 31
0.0
 11
6.1405210067268943
 21
5.1628448880766413
 31
0.0
  0
SPLINE
  5
3FC
100
AcDbEntity
  8
0
370
     0
390
0
  6
Continuous
 62
     7
100
AcDbSpline
210
0.0
220
0.0
230
1.0
 70
     0
 71
     2
 72
     0
 73
     0
 74
     2
 44
0.000001
 12
-0.0046067924849389
 22
-0.0043538564556318
 32
0.0
 13
-0.0035386188785118
 23
-0.0052589713317488
 33
0.0
 11
6.1405210067268943
 21
5.1628448880766413
 31
0.0
 11
6.1283667586268944
 21
5.148220193876643
 31
0.0
  0
SPLINE
  5
3FD
100
AcDbEntity
  8
0
370
     0
390
0
  6
Continuous
 62
     7
100
AcDbSpline
210
0.0
220
0.0
230
1.0
 70
     0
 71
     2
 72
     0
 73
     0
 74
     2
 44
0.000001
 12
-0.003673867016996
 22
-0.0054599723740658
 32
0.0
 13
-0.002631886727837
 23
-0.006031730219096
 33
0.0
 11
6.1283667586268944
 21
5.148220193876643
 31
0.0
 11
6.1189899969268939
 21
5.1308462560766408
 31
0.0
  0
SPLINE
  5
3FE
100
AcDbEntity
  8
0
370
     0
390
0
  6
Continuous
 62
     7
100
AcDbSpline
210
0.0
220
0.0
230
1.0
 70
     0
 71
     2
 72
     0
 73
     0
 74
     2
 44
0.000001
 12
-0.002569623350638
 22
-0.0058890356685186
 32
0.0
 13
-0.0015308374088008
 23
-0.0062402117029059
 33
0.0
 11
6.1189899969268939
 21
5.1308462560766408
 31
0.0
 11
6.112817871226893
 21
5.112585417876641
 31
0.0
  0
SPLINE
  5
3FF
100
AcDbEntity
  8
0
370
     0
390
0
  6
Continuous
 62
     7
100
AcDbSpline
210
0.0
220
0.0
230
1.0
 70
     0
 71
     2
 72
     0
 73
     0
 74
     2
 44
0.000001
 12
-0.0016755074233537
 22
-0.0068299356753521
 32
0.0
 13
-0.0005314210264871
 23
-0.0070123418447601
 33
0.0
 11
6.112817871226893
 21
5.112585417876641
 31
0.0
 11
6.1094029678268935
 21
5.0917662787766425
 31
0.0
  0
SPLINE
  5
400
100
AcDbEntity
  8
0
370
     0
390
0
  6
Continuous
 62
     7
100
AcDbSpline
210
0.0
220
0.0
230
1.0
 70
     0
 71
     2
 72
     0
 73
     0
 74
     2
 44
0.000001
 12
-0.0005527446090383
 22
-0.0072937162028595
 32
0.0
 13
0.0006776449485599
 23
-0.0072831737569814
 33
0.0
 11
6.1094029678268935
 21
5.0917662787766425
 31
0.0
 11
6.1095771840268913
 21
5.0698230781766433
 31
0.0
  0
SPLINE
  5
401
100
AcDbEntity
  8
0
370
     0
390
0
  6
Continuous
 62
     7
100
AcDbSpline
210
0.0
220
0.0
230
1.0
 70
     0
 71
     2
 72
     0
 73
     0
 74
     2
 44
0.000001
 12
0.0006606342801376
 22
-0.0071003469623463
 32
0.0
 13
0.0018455263815014
 23
-0.0068880619199394
 33
0.0
 11
6.1095771840268913
 21
5.0698230781766433
 31
0.0
 11
6.1134029939268917
 21
5.0487749081766431
 31
0.0
  0
SPLINE
  5
402
100
AcDbEntity
  8
0
370
     0
390
0
  6
Continuous
 62
     7
100
AcDbSpline
210
0.0
220
0.0
230
1.0
 70
     0
 71
     2
 72
     0
 73
     0
 74
     2
 44
0.000001
 12
0.0017385036297846
 22
-0.0064886206829584
 32
0.0
 13
0.0028116792823099
 23
-0.0061007419918813
 33
0.0
 11
6.1134029939268917
 21
5.0487749081766431
 31
0.0
 11
6.1202909352268922
 21
5.0298361224766417
 31
0.0
  0
SPLINE
  5
403
100
AcDbEntity
  8
0
370
     0
390
0
  6
Continuous
 62
     7
100
AcDbSpline
210
0.0
220
0.0
230
1.0
 70
     0
 71
     2
 72
     0
 73
     0
 74
     2
 44
0.000001
 12
0.0026359297397178
 22
-0.0057194031168137
 32
0.0
 13
0.0036150465034517
 23
-0.0051566594209067
 33
0.0
 11
6.1202909352268922
 21
5.0298361224766417
 31
0.0
 11
6.129685747126894
 21
5.0134448202766428
 31
0.0
  0
SPLINE
  5
404
100
AcDbEntity
  8
0
370
     0
390
0
  6
Continuous
 62
     7
100
AcDbSpline
210
0.0
220
0.0
230
1.0
 70
     0
 71
     2
 72
     0
 73
     0
 74
     2
 44
0.000001
 12
0.0033177017281965
 22
-0.0047325139126553
 32
0.0
 13
0.0042469249454129
 23
-0.003920135354651
 33
0.0
 11
6.129685747126894
 21
5.0134448202766428
 31
0.0
 11
6.1409954392268933
 21
5.000302318276642
 31
0.0
  0
SPLINE
  5
405
100
AcDbEntity
  8
0
370
     0
390
0
  6
Continuous
 62
     7
100
AcDbSpline
210
0.0
220
0.0
230
1.0
 70
     0
 71
     2
 72
     0
 73
     0
 74
     2
 44
0.000001
 12
0.003825579412684
 22
-0.0035312112411798
 32
0.0
 13
0.0046967901674932
 23
-0.0022460349051396
 33
0.0
 11
6.1409954392268933
 21
5.000302318276642
 31
0.0
 11
6.1537262042268939
 21
4.9912542124766421
 31
0.0
  0
SPLINE
  5
406
100
AcDbEntity
  8
0
370
     0
390
0
  6
Continuous
 62
     7
100
AcDbSpline
210
0.0
220
0.0
230
1.0
 70
     0
 71
     2
 72
     0
 73
     0
 74
     2
 44
0.000001
 12
0.0041675169368887
 22
-0.001992933082855
 32
0.0
 13
0.0044734450666688
 23
-0.0011525055000021
 33
0.0
 11
6.1537262042268939
 21
4.9912542124766421
 31
0.0
 11
6.1671465394268932
 21
4.9877966959766411
 31
0.0
  0
SPLINE
  5
407
100
AcDbEntity
  8
0
370
     0
390
0
  6
Continuous
 62
     7
100
AcDbSpline
210
0.0
220
0.0
230
1.0
 70
     0
 71
     2
 72
     0
 73
     0
 74
     2
 44
0.000001
 12
0.000528634600002
 22
0.0016592968666664
 32
0.0
 13
0.0003830615659091
 23
0.0016988185508673
 33
0.0
 11
6.1325970957268918
 21
5.0104149373766411
 31
0.0
 11
6.1341829995268942
 21
5.0153928279766422
 31
0.0
  0
SPLINE
  5
408
100
AcDbEntity
  8
0
370
     0
390
0
  6
Continuous
 62
     7
100
AcDbSpline
210
0.0
220
0.0
230
1.0
 70
     0
 71
     2
 72
     0
 73
     0
 74
     2
 44
0.000001
 12
0.0014647203103948
 22
0.0064958070884238
 32
0.0
 13
0.0009397076915683
 23
0.0065922579418665
 33
0.0
 11
6.1341829995268942
 21
5.0153928279766422
 31
0.0
 11
6.1381350049268928
 21
5.0349747045766424
 31
0.0
  0
SPLINE
  5
409
100
AcDbEntity
  8
0
370
     0
390
0
  6
Continuous
 62
     7
100
AcDbSpline
210
0.0
220
0.0
230
1.0
 70
     0
 71
     2
 72
     0
 73
     0
 74
     2
 44
0.000001
 12
0.00106898848653
 22
0.0074991914010347
 32
0.0
 13
0.0004354084129297
 23
0.0075624749631071
 33
0.0
 11
6.1381350049268928
 21
5.0349747045766424
 31
0.0
 11
6.1402003185268921
 21
5.0576056557766425
 31
0.0
  0
SPLINE
  5
40A
100
AcDbEntity
  8
0
370
     0
390
0
  6
Continuous
 62
     7
100
AcDbSpline
210
0.0
220
0.0
230
1.0
 70
     0
 71
     2
 72
     0
 73
     0
 74
     2
 44
0.000001
 12
0.0004635148090877
 22
0.0080506463234702
 32
0.0
 13
0.000000061660927
 23
0.0080639786830083
 33
0.0
 11
6.1402003185268921
 21
5.0576056557766425
 31
0.0
 11
6.1408303535268924
 21
5.0817893863766415
 31
0.0
  0
SPLINE
  5
40B
100
AcDbEntity
  8
0
370
     0
390
0
  6
Continuous
 62
     7
100
AcDbSpline
210
0.0
220
0.0
230
1.0
 70
     0
 71
     2
 72
     0
 73
     0
 74
     2
 44
0.000001
 12
0.0000000616808684
 22
0.0080665863549587
 32
0.0
 13
-0.0004634178184872
 23
0.0080532638943041
 33
0.0
 11
6.1408303535268924
 21
5.0817893863766415
 31
0.0
 11
6.1402006884268925
 21
5.1059809522766422
 31
0.0
  0
SPLINE
  5
40C
100
AcDbEntity
  8
0
370
     0
390
0
  6
Continuous
 62
     7
100
AcDbSpline
210
0.0
220
0.0
230
1.0
 70
     0
 71
     2
 72
     0
 73
     0
 74
     2
 44
0.000001
 12
-0.0004351605833897
 22
0.0075622103308604
 32
0.0
 13
-0.001068198753476
 23
0.0074990226859626
 33
0.0
 11
6.1402006884268925
 21
5.1059809522766422
 31
0.0
 11
6.1381360387268931
 21
5.1286111252766418
 31
0.0
  0
SPLINE
  5
40D
100
AcDbEntity
  8
0
370
     0
390
0
  6
Continuous
 62
     7
100
AcDbSpline
210
0.0
220
0.0
230
1.0
 70
     0
 71
     2
 72
     0
 73
     0
 74
     2
 44
0.000001
 12
-0.0009381673492967
 22
0.0065861696736924
 32
0.0
 13
-0.0014578773910046
 23
0.0064909461913292
 33
0.0
 11
6.1381360387268931
 21
5.1286111252766418
 31
0.0
 11
6.1341903317268933
 21
5.148175161076642
 31
0.0
  0
SPLINE
  5
40E
100
AcDbEntity
  8
0
370
     0
390
0
  6
Continuous
 62
     7
100
AcDbSpline
210
0.0
220
0.0
230
1.0
 70
     0
 71
     2
 72
     0
 73
     0
 74
     2
 44
0.000001
 12
-0.0003708942456768
 22
0.0016513422913444
 32
0.0
 13
-0.0005118061666671
 23
0.0016132415666661
 33
0.0
 11
6.1341903317268933
 21
5.148175161076642
 31
0.0
 11
6.1326549132268919
 21
5.153014885776642
 31
0.0
  0
SPLINE
  5
40F
100
AcDbEntity
  8
0
370
     0
390
0
  6
Continuous
 62
     7
100
AcDbSpline
210
0.0
220
0.0
230
1.0
 70
     0
 71
     2
 72
     0
 73
     0
 74
     2
 44
0.000001
 12
0.0000155681666669
 22
0.0002472113666681
 32
0.0
 13
0.0000076429199147
 23
0.0002475831444144
 33
0.0
 11
6.1384614698268951
 21
6.8088926954766418
 31
0.0
 11
6.1385081743268923
 21
6.8096343295766424
 31
0.0
  0
SPLINE
  5
410
100
AcDbEntity
  8
0
370
     0
390
0
  6
Continuous
 62
     7
100
AcDbSpline
210
0.0
220
0.0
230
1.0
 70
     0
 71
     2
 72
     0
 73
     0
 74
     2
 44
0.000001
 12
0.0002280056320849
 22
0.0073859666151925
 32
0.0
 13
0.0000000207899866
 23
0.0073894850570628
 33
0.0
 11
6.1385081743268923
 21
6.8096343295766424
 31
0.0
 11
6.1391684033268934
 21
6.8317929509766415
 31
0.0
  0
SPLINE
  5
411
100
AcDbEntity
  8
0
370
     0
390
0
  6
Continuous
 62
     7
100
AcDbSpline
210
0.0
220
0.0
230
1.0
 70
     0
 71
     2
 72
     0
 73
     0
 74
     2
 44
0.000001
 12
0.0000000207951203
 22
0.0073913089097779
 32
0.0
 13
-0.0002267492776404
 23
0.0073878300038128
 33
0.0
 11
6.1391684033268934
 21
6.8317929509766415
 31
0.0
 11
6.1385082990268938
 21
6.8539570500766409
 31
0.0
  0
SPLINE
  5
412
100
AcDbEntity
  8
0
370
     0
390
0
  6
Continuous
 62
     7
100
AcDbSpline
210
0.0
220
0.0
230
1.0
 70
     0
 71
     2
 72
     0
 73
     0
 74
     2
 44
0.000001
 12
-0.0000064358829341
 22
0.0002096906747244
 32
0.0
 13
-0.0000131470000007
 23
0.0002093770666658
 33
0.0
 11
6.1385082990268938
 21
6.8539570500766409
 31
0.0
 11
6.1384688580268918
 21
6.8545851812766418
 31
0.0
  0
SPLINE
  5
413
100
AcDbEntity
  8
0
370
     0
390
0
  6
Continuous
 62
     7
100
AcDbSpline
210
0.0
220
0.0
230
1.0
 70
     0
 71
     2
 72
     0
 73
     0
 74
     2
 44
0.000001
 12
0.0037935254333341
 22
0.0010480502999997
 32
0.0
 13
0.0033772365032405
 23
0.00202077169563
 33
0.0
 11
6.187931147926891
 21
5.7847966969766418
 31
0.0
 11
6.1993117242268934
 21
5.7879408478766408
 31
0.0
  0
SPLINE
  5
414
100
AcDbEntity
  8
0
370
     0
390
0
  6
Continuous
 62
     7
100
AcDbSpline
210
0.0
220
0.0
230
1.0
 70
     0
 71
     2
 72
     0
 73
     0
 74
     2
 44
0.000001
 12
0.0038039819385922
 22
0.0022761151091508
 32
0.0
 13
0.0025040097574447
 23
0.0036579931265486
 33
0.0
 11
6.1993117242268934
 21
5.7879408478766408
 31
0.0
 11
6.2087848897268945
 21
5.7972745471766416
 31
0.0
  0
SPLINE
  5
415
100
AcDbEntity
  8
0
370
     0
390
0
  6
Continuous
 62
     7
100
AcDbSpline
210
0.0
220
0.0
230
1.0
 70
     0
 71
     2
 72
     0
 73
     0
 74
     2
 44
0.000001
 12
0.0031457706864657
 22
0.0045955122637267
 32
0.0
 13
0.0018345385173753
 23
0.0052582387361326
 33
0.0
 11
6.2087848897268945
 21
5.7972745471766416
 31
0.0
 11
6.2160121251268929
 21
5.8123376983766413
 31
0.0
  0
SPLINE
  5
416
100
AcDbEntity
  8
0
370
     0
390
0
  6
Continuous
 62
     7
100
AcDbSpline
210
0.0
220
0.0
230
1.0
 70
     0
 71
     2
 72
     0
 73
     0
 74
     2
 44
0.000001
 12
0.002227606628324
 22
0.0063848686473396
 32
0.0
 13
0.001200705276112
 23
0.0066548543015035
 33
0.0
 11
6.2160121251268929
 21
5.8123376983766413
 31
0.0
 11
6.2209088428268924
 21
5.832024779576642
 31
0.0
  0
SPLINE
  5
417
100
AcDbEntity
  8
0
370
     0
390
0
  6
Continuous
 62
     7
100
AcDbSpline
210
0.0
220
0.0
230
1.0
 70
     0
 71
     2
 72
     0
 73
     0
 74
     2
 44
0.000001
 12
0.0013529916285826
 22
0.0074988944735139
 32
0.0
 13
0.0005888459485526
 23
0.0075971879745573
 33
0.0
 11
6.2209088428268924
 21
5.832024779576642
 31
0.0
 11
6.2236587380268933
 21
5.8547187020766422
 31
0.0
  0
SPLINE
  5
418
100
AcDbEntity
  8
0
370
     0
390
0
  6
Continuous
 62
     7
100
AcDbSpline
210
0.0
220
0.0
230
1.0
 70
     0
 71
     2
 72
     0
 73
     0
 74
     2
 44
0.000001
 12
0.0006206318119197
 22
0.0080072836532885
 32
0.0
 13
0.0002917738666639
 23
0.0080259979666675
 33
0.0
 11
6.2236587380268933
 21
5.8547187020766422
 31
0.0
 11
6.2245340596268921
 21
5.8787966959766429
 31
0.0
  0
SPLINE
  5
419
100
AcDbEntity
  8
0
370
     0
390
0
  6
Continuous
 62
     7
100
AcDbSpline
210
0.0
220
0.0
230
1.0
 70
     0
 71
     2
 72
     0
 73
     0
 74
     2
 44
0.000001
 12
-0.0002923092666656
 22
0.0080331313333328
 32
0.0
 13
-0.0006215253194952
 23
0.0080143839440847
 33
0.0
 11
6.2245340596268921
 21
5.8787966959766429
 31
0.0
 11
6.2236571318268918
 21
5.9028960899766432
 31
0.0
  0
SPLINE
  5
41A
100
AcDbEntity
  8
0
370
     0
390
0
  6
Continuous
 62
     7
100
AcDbSpline
210
0.0
220
0.0
230
1.0
 70
     0
 71
     2
 72
     0
 73
     0
 74
     2
 44
0.000001
 12
-0.0005891489262062
 22
0.0075968999922686
 32
0.0
 13
-0.001353952320617
 23
0.0074984531113635
 33
0.0
 11
6.2236571318268918
 21
5.9028960899766432
 31
0.0
 11
6.2209052608268944
 21
5.9255889760766429
 31
0.0
  0
SPLINE
  5
41B
100
AcDbEntity
  8
0
370
     0
390
0
  6
Continuous
 62
     7
100
AcDbSpline
210
0.0
220
0.0
230
1.0
 70
     0
 71
     2
 72
     0
 73
     0
 74
     2
 44
0.000001
 12
-0.0012017635934853
 22
0.0066556021356483
 32
0.0
 13
-0.0022295709492397
 23
0.0063851616193329
 33
0.0
 11
6.2209052608268944
 21
5.9255889760766429
 31
0.0
 11
6.216004492426892
 21
5.945277905676642
 31
0.0
  0
SPLINE
  5
41C
100
AcDbEntity
  8
0
370
     0
390
0
  6
Continuous
 62
     7
100
AcDbSpline
210
0.0
220
0.0
230
1.0
 70
     0
 71
     2
 72
     0
 73
     0
 74
     2
 44
0.000001
 12
-0.0018359579035518
 22
0.0052579120410954
 32
0.0
 13
-0.0031480216229234
 23
0.00459416372337
 33
0.0
 11
6.216004492426892
 21
5.945277905676642
 31
0.0
 11
6.2087713355268921
 21
5.9603387444766422
 31
0.0
  0
SPLINE
  5
41D
100
AcDbEntity
  8
0
370
     0
390
0
  6
Continuous
 62
     7
100
AcDbSpline
210
0.0
220
0.0
230
1.0
 70
     0
 71
     2
 72
     0
 73
     0
 74
     2
 44
0.000001
 12
-0.002504623056975
 22
0.0036551999215266
 32
0.0
 13
-0.0038032563642929
 23
0.0022735136136234
 33
0.0
 11
6.2087713355268921
 21
5.9603387444766422
 31
0.0
 11
6.1992960398268924
 21
5.9696619080766418
 31
0.0
  0
SPLINE
  5
41E
100
AcDbEntity
  8
0
370
     0
390
0
  6
Continuous
 62
     7
100
AcDbSpline
210
0.0
220
0.0
230
1.0
 70
     0
 71
     2
 72
     0
 73
     0
 74
     2
 44
0.000001
 12
-0.0033730587093004
 22
0.0020163497173513
 32
0.0
 13
-0.0037883175333313
 23
0.0010449122000011
 33
0.0
 11
6.1992960398268924
 21
5.9696619080766418
 31
0.0
 11
6.1879310872268949
 21
5.9727966446766416
 31
0.0
  0
SPLINE
  5
41F
100
AcDbEntity
  8
0
370
     0
390
0
  6
Continuous
 62
     7
100
AcDbSpline
210
0.0
220
0.0
230
1.0
 70
     0
 71
     2
 72
     0
 73
     0
 74
     2
 44
0.000001
 12
0.0037697471999998
 22
0.0010430409999991
 32
0.0
 13
0.0033503295977013
 23
0.0020184697338212
 33
0.0
 11
6.1671465669268937
 21
4.2177966717766431
 31
0.0
 11
6.178455808526893
 21
4.2209257947766421
 31
0.0
  0
SPLINE
  5
420
100
AcDbEntity
  8
0
370
     0
390
0
  6
Continuous
 62
     7
100
AcDbSpline
210
0.0
220
0.0
230
1.0
 70
     0
 71
     2
 72
     0
 73
     0
 74
     2
 44
0.000001
 12
0.0037674434678152
 22
0.0022697679114589
 32
0.0
 13
0.0024545323102529
 23
0.0036497599637517
 33
0.0
 11
6.178455808526893
 21
4.2209257947766421
 31
0.0
 11
6.1878015404268911
 21
4.2302406530766419
 31
0.0
  0
SPLINE
  5
421
100
AcDbEntity
  8
0
370
     0
390
0
  6
Continuous
 62
     7
100
AcDbSpline
210
0.0
220
0.0
230
1.0
 70
     0
 71
     2
 72
     0
 73
     0
 74
     2
 44
0.000001
 12
0.0030974188670498
 22
0.0046056983339291
 32
0.0
 13
0.0017790371318966
 23
0.0052575172528879
 33
0.0
 11
6.1878015404268911
 21
4.2302406530766419
 31
0.0
 11
6.1948618837268921
 21
4.2453207624766414
 31
0.0
  0
SPLINE
  5
422
100
AcDbEntity
  8
0
370
     0
390
0
  6
Continuous
 62
     7
100
AcDbSpline
210
0.0
220
0.0
230
1.0
 70
     0
 71
     2
 72
     0
 73
     0
 74
     2
 44
0.000001
 12
0.0021668953399612
 22
0.0064037390961502
 32
0.0
 13
0.0011503112877094
 23
0.0066618386176209
 33
0.0
 11
6.1948618837268921
 21
4.2453207624766414
 31
0.0
 11
6.1995789154268923
 21
4.2650458581766415
 31
0.0
  0
SPLINE
  5
423
100
AcDbEntity
  8
0
370
     0
390
0
  6
Continuous
 62
     7
100
AcDbSpline
210
0.0
220
0.0
230
1.0
 70
     0
 71
     2
 72
     0
 73
     0
 74
     2
 44
0.000001
 12
0.0012961344181228
 22
0.0075063492921466
 32
0.0
 13
0.0005575906409234
 23
0.0075969952482993
 33
0.0
 11
6.1995789154268923
 21
4.2650458581766415
 31
0.0
 11
6.2021879930268913
 21
4.2877487194766424
 31
0.0
  0
SPLINE
  5
424
100
AcDbEntity
  8
0
370
     0
390
0
  6
Continuous
 62
     7
100
AcDbSpline
210
0.0
220
0.0
230
1.0
 70
     0
 71
     2
 72
     0
 73
     0
 74
     2
 44
0.000001
 12
0.0005871079938515
 22
0.0079991597995779
 32
0.0
 13
0.0002740855333343
 23
0.0080159921666674
 33
0.0
 11
6.2021879930268913
 21
4.2877487194766424
 31
0.0
 11
6.2030102496268942
 21
4.3117966959766427
 31
0.0
  0
SPLINE
  5
425
100
AcDbEntity
  8
0
370
     0
390
0
  6
Continuous
 62
     7
100
AcDbSpline
210
0.0
220
0.0
230
1.0
 70
     0
 71
     2
 72
     0
 73
     0
 74
     2
 44
0.000001
 12
-0.0002743463666661
 22
0.0080196804333319
 32
0.0
 13
-0.0005874248388089
 23
0.0080028415103914
 33
0.0
 11
6.2030102496268942
 21
4.3117966959766427
 31
0.0
 11
6.2021872105268923
 21
4.335855737276642
 31
0.0
  0
SPLINE
  5
426
100
AcDbEntity
  8
0
370
     0
390
0
  6
Continuous
 62
     7
100
AcDbSpline
210
0.0
220
0.0
230
1.0
 70
     0
 71
     2
 72
     0
 73
     0
 74
     2
 44
0.000001
 12
-0.0005574355950344
 22
0.0075942800246427
 32
0.0
 13
-0.0012958773928489
 23
0.0075036341407362
 33
0.0
 11
6.2021872105268923
 21
4.335855737276642
 31
0.0
 11
6.1995784311268931
 21
4.358550421276643
 31
0.0
  0
SPLINE
  5
427
100
AcDbEntity
  8
0
370
     0
390
0
  6
Continuous
 62
     7
100
AcDbSpline
210
0.0
220
0.0
230
1.0
 70
     0
 71
     2
 72
     0
 73
     0
 74
     2
 44
0.000001
 12
-0.0011503539777991
 22
0.0066609969657421
 32
0.0
 13
-0.0021667309528048
 23
0.0064029268174792
 33
0.0
 11
6.1995784311268931
 21
4.358550421276643
 31
0.0
 11
6.1948617397268944
 21
4.3782730624766408
 31
0.0
  0
SPLINE
  5
428
100
AcDbEntity
  8
0
370
     0
390
0
  6
Continuous
 62
     7
100
AcDbSpline
210
0.0
220
0.0
230
1.0
 70
     0
 71
     2
 72
     0
 73
     0
 74
     2
 44
0.000001
 12
-0.0017791115200119
 22
0.0052574690217142
 32
0.0
 13
-0.0030976016249511
 23
0.004605549097338
 33
0.0
 11
6.1948617397268944
 21
4.3782730624766408
 31
0.0
 11
6.1878013224268944
 21
4.3933530648766421
 31
0.0
  0
SPLINE
  5
429
100
AcDbEntity
  8
0
370
     0
390
0
  6
Continuous
 62
     7
100
AcDbSpline
210
0.0
220
0.0
230
1.0
 70
     0
 71
     2
 72
     0
 73
     0
 74
     2
 44
0.000001
 12
-0.0024550934894805
 22
0.0036502607414981
 32
0.0
 13
-0.003768090442545
 23
0.0022701061516628
 33
0.0
 11
6.1878013224268944
 21
4.3933530648766421
 31
0.0
 11
6.1784535386268917
 21
4.4026689612766425
 31
0.0
  0
SPLINE
  5
42A
100
AcDbEntity
  8
0
370
     0
390
0
  6
Continuous
 62
     7
100
AcDbSpline
210
0.0
220
0.0
230
1.0
 70
     0
 71
     2
 72
     0
 73
     0
 74
     2
 44
0.000001
 12
-0.0033496336808625
 22
0.0020180046473648
 32
0.0
 13
-0.003769010300001
 23
0.0010425688999991
 33
0.0
 11
6.1784535386268917
 21
4.4026689612766425
 31
0.0
 11
6.1671465077268923
 21
4.4057966679766416
 31
0.0
  0
SPLINE
  5
42B
100
AcDbEntity
  8
0
370
     0
390
0
  6
Continuous
 62
     7
100
AcDbSpline
210
0.0
220
0.0
230
1.0
 70
     0
 71
     2
 72
     0
 73
     0
 74
     2
 44
0.000001
 12
0.0037863217333332
 22
0.001053018066667
 32
0.0
 13
0.0033606845785741
 23
0.0020373704818653
 33
0.0
 11
6.1671465394268932
 21
4.9877966959766411
 31
0.0
 11
6.1785055046268926
 21
4.9909557501766422
 31
0.0
  0
SPLINE
  5
42C
100
AcDbEntity
  8
0
370
     0
390
0
  6
Continuous
 62
     7
100
AcDbSpline
210
0.0
220
0.0
230
1.0
 70
     0
 71
     2
 72
     0
 73
     0
 74
     2
 44
0.000001
 12
0.0037889741813544
 22
0.0022970153768256
 32
0.0
 13
0.0024666982208146
 23
0.003680761453257
 33
0.0
 11
6.1785055046268926
 21
4.9909557501766422
 31
0.0
 11
6.1878885495268943
 21
5.0003712646766409
 31
0.0
  0
SPLINE
  5
42D
100
AcDbEntity
  8
0
370
     0
390
0
  6
Continuous
 62
     7
100
AcDbSpline
210
0.0
220
0.0
230
1.0
 70
     0
 71
     2
 72
     0
 73
     0
 74
     2
 44
0.000001
 12
0.0030771754810992
 22
0.0045917043277441
 32
0.0
 13
0.0017683338907304
 23
0.0052369602658242
 33
0.0
 11
6.1878885495268943
 21
5.0003712646766409
 31
0.0
 11
6.1948893140268932
 21
5.0154033674766421
 31
0.0
  0
SPLINE
  5
42E
100
AcDbEntity
  8
0
370
     0
390
0
  6
Continuous
 62
     7
100
AcDbSpline
210
0.0
220
0.0
230
1.0
 70
     0
 71
     2
 72
     0
 73
     0
 74
     2
 44
0.000001
 12
0.0021420889901371
 22
0.006343844330539
 32
0.0
 13
0.0011399520067421
 23
0.006597985719452
 33
0.0
 11
6.1948893140268932
 21
5.0154033674766421
 31
0.0
 11
6.199561092226892
 21
5.034939760276643
 31
0.0
  0
SPLINE
  5
42F
100
AcDbEntity
  8
0
370
     0
390
0
  6
Continuous
 62
     7
100
AcDbSpline
210
0.0
220
0.0
230
1.0
 70
     0
 71
     2
 72
     0
 73
     0
 74
     2
 44
0.000001
 12
0.0012932272524928
 22
0.0074851352455703
 32
0.0
 13
0.0005575913849754
 23
0.007575538147119
 33
0.0
 11
6.199561092226892
 21
5.034939760276643
 31
0.0
 11
6.2021758276268937
 21
5.0575773470766414
 31
0.0
  0
SPLINE
  5
430
100
AcDbEntity
  8
0
370
     0
390
0
  6
Continuous
 62
     7
100
AcDbSpline
210
0.0
220
0.0
230
1.0
 70
     0
 71
     2
 72
     0
 73
     0
 74
     2
 44
0.000001
 12
0.0005930601808153
 22
0.0080574236696798
 32
0.0
 13
-0.0000000706780625
 23
0.0080792200468736
 33
0.0
 11
6.2021758276268937
 21
5.0575773470766414
 31
0.0
 11
6.2030102495268924
 21
5.0818006397766418
 31
0.0
  0
SPLINE
  5
431
100
AcDbEntity
  8
0
370
     0
390
0
  6
Continuous
 62
     7
100
AcDbSpline
210
0.0
220
0.0
230
1.0
 70
     0
 71
     2
 72
     0
 73
     0
 74
     2
 44
0.000001
 12
-0.0000000706724421
 22
0.0080785780955104
 32
0.0
 13
-0.0005931795686074
 23
0.0080567711925816
 33
0.0
 11
6.2030102495268924
 21
5.0818006397766418
 31
0.0
 11
6.2021754038268941
 21
5.1060219908766413
 31
0.0
  0
SPLINE
  5
432
100
AcDbEntity
  8
0
370
     0
390
0
  6
Continuous
 62
     7
100
AcDbSpline
210
0.0
220
0.0
230
1.0
 70
     0
 71
     2
 72
     0
 73
     0
 74
     2
 44
0.000001
 12
-0.0005577050710066
 22
0.00757494422907
 32
0.0
 13
-0.0012933621765399
 23
0.0074845193098838
 33
0.0
 11
6.2021754038268941
 21
5.1060219908766413
 31
0.0
 11
6.199560393626891
 21
5.1286577823766422
 31
0.0
  0
SPLINE
  5
433
100
AcDbEntity
  8
0
370
     0
390
0
  6
Continuous
 62
     7
100
AcDbSpline
210
0.0
220
0.0
230
1.0
 70
     0
 71
     2
 72
     0
 73
     0
 74
     2
 44
0.000001
 12
-0.0011402039920299
 22
0.0065982127437891
 32
0.0
 13
-0.0021425353341549
 23
0.0063439750076455
 33
0.0
 11
6.199560393626891
 21
5.1286577823766422
 31
0.0
 11
6.194887734826894
 21
5.1481947869766422
 31
0.0
  0
SPLINE
  5
434
100
AcDbEntity
  8
0
370
     0
390
0
  6
Continuous
 62
     7
100
AcDbSpline
210
0.0
220
0.0
230
1.0
 70
     0
 71
     2
 72
     0
 73
     0
 74
     2
 44
0.000001
 12
-0.0017686784376743
 22
0.0052369973210258
 32
0.0
 13
-0.0030777311150487
 23
0.004591506892055
 33
0.0
 11
6.194887734826894
 21
5.1481947869766422
 31
0.0
 11
6.1878855185268922
 21
5.1632266945766432
 31
0.0
  0
SPLINE
  5
435
100
AcDbEntity
  8
0
370
     0
390
0
  6
Continuous
 62
     7
100
AcDbSpline
210
0.0
220
0.0
230
1.0
 70
     0
 71
     2
 72
     0
 73
     0
 74
     2
 44
0.000001
 12
-0.002466806436356
 22
0.0036801001551154
 32
0.0
 13
-0.0037887770180873
 23
0.002296397146262
 33
0.0
 11
6.1878855185268922
 21
5.1632266945766432
 31
0.0
 11
6.1785020589268935
 21
5.1726397241766424
 31
0.0
  0
SPLINE
  5
436
100
AcDbEntity
  8
0
370
     0
390
0
  6
Continuous
 62
     7
100
AcDbSpline
210
0.0
220
0.0
230
1.0
 70
     0
 71
     2
 72
     0
 73
     0
 74
     2
 44
0.000001
 12
-0.0033597753189341
 22
0.0020363770202501
 32
0.0
 13
-0.0037851731666656
 23
0.0010523239333331
 33
0.0
 11
6.1785020589268935
 21
5.1726397241766424
 31
0.0
 11
6.1671465394268932
 21
5.1757966959766417
 31
0.0
  0
SPLINE
  5
437
100
AcDbEntity
  8
0
370
     0
390
0
  6
Continuous
 62
     7
100
AcDbSpline
210
0.0
220
0.0
230
1.0
 70
     0
 71
     2
 72
     0
 73
     0
 74
     2
 44
0.000001
 12
0.003490144533334
 22
-0.0009600123666651
 32
0.0
 13
0.0031123166932083
 23
-0.0018483012224451
 33
0.0
 11
6.1879311491268911
 21
6.9177966959766408
 31
0.0
 11
6.198401582726893
 21
6.914916658876642
 31
0.0
  0
SPLINE
  5
438
100
AcDbEntity
  8
0
370
     0
390
0
  6
Continuous
 62
     7
100
AcDbSpline
210
0.0
220
0.0
230
1.0
 70
     0
 71
     2
 72
     0
 73
     0
 74
     2
 44
0.000001
 12
0.0035346159712226
 22
-0.0020990906981755
 32
0.0
 13
0.0023584577891604
 23
-0.0033671009310581
 33
0.0
 11
6.198401582726893
 21
6.914916658876642
 31
0.0
 11
6.2072488095268934
 21
6.9063245808766425
 31
0.0
  0
SPLINE
  5
439
100
AcDbEntity
  8
0
370
     0
390
0
  6
Continuous
 62
     7
100
AcDbSpline
210
0.0
220
0.0
230
1.0
 70
     0
 71
     2
 72
     0
 73
     0
 74
     2
 44
0.000001
 12
0.0029252707406577
 22
-0.0041763231378322
 32
0.0
 13
0.0017375647721956
 23
-0.004793720112831
 33
0.0
 11
6.2072488095268934
 21
6.9063245808766425
 31
0.0
 11
6.2140255006268941
 21
6.8926108500766432
 31
0.0
  0
SPLINE
  5
43A
100
AcDbEntity
  8
0
370
     0
390
0
  6
Continuous
 62
     7
100
AcDbSpline
210
0.0
220
0.0
230
1.0
 70
     0
 71
     2
 72
     0
 73
     0
 74
     2
 44
0.000001
 12
0.0020957423785823
 22
-0.0057818865531267
 32
0.0
 13
0.0011511563461433
 23
-0.0060412902013844
 33
0.0
 11
6.2140255006268941
 21
6.8926108500766432
 31
0.0
 11
6.2186898452268924
 21
6.8747602191766433
 31
0.0
  0
SPLINE
  5
43B
100
AcDbEntity
  8
0
370
     0
390
0
  6
Continuous
 62
     7
100
AcDbSpline
210
0.0
220
0.0
230
1.0
 70
     0
 71
     2
 72
     0
 73
     0
 74
     2
 44
0.000001
 12
0.0013045731364087
 22
-0.0068464244082769
 32
0.0
 13
0.000575961745799
 23
-0.0069457689505104
 33
0.0
 11
6.2186898452268924
 21
6.8747602191766433
 31
0.0
 11
6.2213779773268936
 21
6.8540249137766409
 31
0.0
  0
SPLINE
  5
43C
100
AcDbEntity
  8
0
370
     0
390
0
  6
Continuous
 62
     7
100
AcDbSpline
210
0.0
220
0.0
230
1.0
 70
     0
 71
     2
 72
     0
 73
     0
 74
     2
 44
0.000001
 12
0.0006125685723042
 22
-0.0073872263229582
 32
0.0
 13
0.0000002140012469
 23
-0.0074125807217591
 33
0.0
 11
6.2213779773268936
 21
6.8540249137766409
 31
0.0
 11
6.2222518609268942
 21
6.8318043488766413
 31
0.0
  0
SPLINE
  5
43D
100
AcDbEntity
  8
0
370
     0
390
0
  6
Continuous
 62
     7
100
AcDbSpline
210
0.0
220
0.0
230
1.0
 70
     0
 71
     2
 72
     0
 73
     0
 74
     2
 44
0.000001
 12
0.0000002139955448
 22
-0.0074123831672512
 32
0.0
 13
-0.0006121851129812
 23
-0.0073870598786936
 33
0.0
 11
6.2222518609268942
 21
6.8318043488766413
 31
0.0
 11
6.2213792603268931
 21
6.8095843266766423
 31
0.0
  0
SPLINE
  5
43E
100
AcDbEntity
  8
0
370
     0
390
0
  6
Continuous
 62
     7
100
AcDbSpline
210
0.0
220
0.0
230
1.0
 70
     0
 71
     2
 72
     0
 73
     0
 74
     2
 44
0.000001
 12
-0.0005758166793015
 22
-0.0069482125568747
 32
0.0
 13
-0.0013049032206283
 23
-0.0068488283792529
 33
0.0
 11
6.2213792603268931
 21
6.8095843266766423
 31
0.0
 11
6.218691429026892
 21
6.7888416516766412
 31
0.0
  0
SPLINE
  5
43F
100
AcDbEntity
  8
0
370
     0
390
0
  6
Continuous
 62
     7
100
AcDbSpline
210
0.0
220
0.0
230
1.0
 70
     0
 71
     2
 72
     0
 73
     0
 74
     2
 44
0.000001
 12
-0.0011519859105107
 22
-0.0060462367413088
 32
0.0
 13
-0.0020979602800963
 23
-0.0057864162426409
 33
0.0
 11
6.218691429026892
 21
6.7888416516766412
 31
0.0
 11
6.2140233253268935
 21
6.7709764547766422
 31
0.0
  0
SPLINE
  5
440
100
AcDbEntity
  8
0
370
     0
390
0
  6
Continuous
 62
     7
100
AcDbSpline
210
0.0
220
0.0
230
1.0
 70
     0
 71
     2
 72
     0
 73
     0
 74
     2
 44
0.000001
 12
-0.0017391643843041
 22
-0.0047968158107832
 32
0.0
 13
-0.0029285911362571
 23
-0.0041782159631634
 33
0.0
 11
6.2140233253268935
 21
6.7709764547766422
 31
0.0
 11
6.2072391233268949
 21
6.7572548726766417
 31
0.0
  0
SPLINE
  5
441
100
AcDbEntity
  8
0
370
     0
390
0
  6
Continuous
 62
     7
100
AcDbSpline
210
0.0
220
0.0
230
1.0
 70
     0
 71
     2
 72
     0
 73
     0
 74
     2
 44
0.000001
 12
-0.0023595051581324
 22
-0.0033663019718961
 32
0.0
 13
-0.0035352280042531
 23
-0.0020979553177298
 33
0.0
 11
6.2072391233268949
 21
6.7572548726766417
 31
0.0
 11
6.1983869727268921
 21
6.7486680972766422
 31
0.0
  0
SPLINE
  5
442
100
AcDbEntity
  8
0
370
     0
390
0
  6
Continuous
 62
     7
100
AcDbSpline
210
0.0
220
0.0
230
1.0
 70
     0
 71
     2
 72
     0
 73
     0
 74
     2
 44
0.000001
 12
-0.0031082016083523
 22
-0.0018445396124314
 32
0.0
 13
-0.003485274533336
 23
-0.0009571337666667
 33
0.0
 11
6.1983869727268921
 21
6.7486680972766422
 31
0.0
 11
6.1879311491268911
 21
6.745796695976642
 31
0.0
  0
LINE
  5
443
100
AcDbEntity
  8
0
370
     0
390
0
  6
Continuous
 62
     7
100
AcDbLine
 10
5.864038
 20
7.128797
 30
0.0
 11
6.301538
 21
7.128797
 31
0.0
  0
LINE
  5
444
100
AcDbEntity
  8
0
370
     0
390
0
  6
Continuous
 62
     7
100
AcDbLine
 10
5.864038
 20
5.750797
 30
0.0
 11
6.289538
 21
5.750797
 31
0.0
  0
LINE
  5
445
100
AcDbEntity
  8
0
370
     0
390
0
  6
Continuous
 62
     7
100
AcDbLine
 10
5.864038
 20
5.675797
 30
0.0
 11
6.289538
 21
5.675797
 31
0.0
  0
LINE
  5
446
100
AcDbEntity
  8
0
370
     0
390
0
  6
Continuous
 62
     7
100
AcDbLine
 10
5.864038
 20
5.477797
 30
0.0
 11
6.289538
 21
5.477797
 31
0.0
  0
LINE
  5
447
100
AcDbEntity
  8
0
370
     0
390
0
  6
Continuous
 62
     7
100
AcDbLine
 10
5.864038
 20
5.402797
 30
0.0
 11
6.289538
 21
5.402797
 31
0.0
  0
LINE
  5
448
100
AcDbEntity
  8
0
370
     0
390
0
  6
Continuous
 62
     7
100
AcDbLine
 10
5.864038
 20
3.846797
 30
0.0
 11
6.248038
 21
3.846797
 31
0.0
  0
LINE
  5
449
100
AcDbEntity
  8
0
370
     0
390
0
  6
Continuous
 62
     7
100
AcDbLine
 10
5.864038
 20
3.769797
 30
0.0
 11
6.248038
 21
3.769797
 31
0.0
  0
LINE
  5
44A
100
AcDbEntity
  8
0
370
     0
390
0
  6
Continuous
 62
     7
100
AcDbLine
 10
5.864038
 20
3.571797
 30
0.0
 11
6.248038
 21
3.571797
 31
0.0
  0
LINE
  5
44B
100
AcDbEntity
  8
0
370
     0
390
0
  6
Continuous
 62
     7
100
AcDbLine
 10
5.864038
 20
3.471797
 30
0.0
 11
6.236038
 21
3.471797
 31
0.0
  0
LINE
  5
44C
100
AcDbEntity
  8
0
370
     0
390
0
  6
Continuous
 62
     7
100
AcDbLine
 10
5.864038
 20
3.483797
 30
0.0
 11
6.248038
 21
3.483797
 31
0.0
  0
ARC
  5
44D
100
AcDbEntity
  8
0
370
     0
390
0
  6
Continuous
 62
     7
100
AcDbCircle
 10
5.864038
 20
5.878797
 30
0.0
 40
0.094
100
AcDbArc
 50
270.0
 51
450.0
  0
ARC
  5
44E
100
AcDbEntity
  8
0
370
     0
390
0
  6
Continuous
 62
     7
100
AcDbCircle
 10
5.864038
 20
6.831797
 30
0.0
 40
0.086
100
AcDbArc
 50
270.0
 51
450.0
  0
ARC
  5
44F
100
AcDbEntity
  8
0
370
     0
390
0
  6
Continuous
 62
     7
100
AcDbCircle
 10
5.864038
 20
4.311797
 30
0.0
 40
0.094
100
AcDbArc
 50
270.0
 51
450.0
  0
ARC
  5
450
100
AcDbEntity
  8
0
370
     0
390
0
  6
Continuous
 62
     7
100
AcDbCircle
 10
5.864038
 20
5.081797
 30
0.0
 40
0.094
100
AcDbArc
 50
270.0
 51
450.0
  0
LINE
  5
451
100
AcDbEntity
  8
CENTRE_LINES
370
     0
390
0
  6
Continuous
 62
     7
100
AcDbLine
 10
6.193538
 20
3.588125
 30
0.0
 11
6.246537
 21
3.588125
 31
0.0
  0
LINE
  5
452
100
AcDbEntity
  8
CENTRE_LINES
370
     0
390
0
  6
Continuous
 62
     7
100
AcDbLine
 10
6.246537
 20
3.588125
 30
0.0
 11
6.246537
 21
3.627124
 31
0.0
  0
ARC
  5
453
100
AcDbEntity
  8
CENTRE_LINES
370
     0
390
0
  6
Continuous
 62
     7
100
AcDbCircle
 10
6.236538
 20
3.627125
 30
0.0
 40
0.009999
100
AcDbArc
 50
359.994808
 51
450.0
  0
ARC
  5
454
100
AcDbEntity
  8
CENTRE_LINES
370
     0
390
0
  6
Continuous
 62
     7
100
AcDbCircle
 10
6.203537
 20
3.627125
 30
0.0
 40
0.009999
100
AcDbArc
 50
90.0
 51
180.005192
  0
LINE
  5
455
100
AcDbEntity
  8
CENTRE_LINES
370
     0
390
0
  6
Continuous
 62
     7
100
AcDbLine
 10
6.193538
 20
3.588125
 30
0.0
 11
6.193538
 21
3.627124
 31
0.0
  0
ARC
  5
456
100
AcDbEntity
  8
CENTRE_LINES
370
     0
390
0
  6
Continuous
 62
     7
100
AcDbCircle
 10
6.220037
 20
3.669156
 30
0.0
 40
0.036032
100
AcDbArc
 50
242.747148
 51
297.252852
  0
LINE
  5
457
100
AcDbEntity
  8
CENTRE_LINES
370
     0
390
0
  6
Continuous
 62
     7
100
AcDbLine
 10
6.193538
 20
3.753617
 30
0.0
 11
6.246537
 21
3.753617
 31
0.0
  0
LINE
  5
458
100
AcDbEntity
  8
CENTRE_LINES
370
     0
390
0
  6
Continuous
 62
     7
100
AcDbLine
 10
6.246537
 20
3.753617
 30
0.0
 11
6.246537
 21
3.714617
 31
0.0
  0
ARC
  5
459
100
AcDbEntity
  8
CENTRE_LINES
370
     0
390
0
  6
Continuous
 62
     7
100
AcDbCircle
 10
6.236538
 20
3.714616
 30
0.0
 40
0.009999
100
AcDbArc
 50
270.0
 51
360.005192
  0
ARC
  5
45A
100
AcDbEntity
  8
CENTRE_LINES
370
     0
390
0
  6
Continuous
 62
     7
100
AcDbCircle
 10
6.203537
 20
3.714616
 30
0.0
 40
0.009999
100
AcDbArc
 50
179.994808
 51
270.0
  0
LINE
  5
45B
100
AcDbEntity
  8
CENTRE_LINES
370
     0
390
0
  6
Continuous
 62
     7
100
AcDbLine
 10
6.193538
 20
3.753617
 30
0.0
 11
6.193538
 21
3.714617
 31
0.0
  0
ARC
  5
45C
100
AcDbEntity
  8
CENTRE_LINES
370
     0
390
0
  6
Continuous
 62
     7
100
AcDbCircle
 10
6.220037
 20
3.672585
 30
0.0
 40
0.036032
100
AcDbArc
 50
62.747148
 51
117.252852
  0
ELLIPSE
  5
45D
100
AcDbEntity
  8
HEX_BODY
370
     0
390
0
  6
Continuous
 62
     7
100
AcDbEllipse
 10
6.221011
 20
3.67091
 30
0.0
 11
-0.0001554489135742
 21
0.0376055240631104
 31
0.0
210
0.0
220
0.0
230
1.0
 40
0.731787
 41
0.0
 42
6.2831853071795862
  0
LINE
  5
45E
100
AcDbEntity
  8
CENTRE_LINES
370
     0
390
0
  6
Continuous
 62
     7
100
AcDbLine
 10
6.234538
 20
5.485553
 30
0.0
 11
6.287537
 21
5.485553
 31
0.0
  0
LINE
  5
45F
100
AcDbEntity
  8
CENTRE_LINES
370
     0
390
0
  6
Continuous
 62
     7
100
AcDbLine
 10
6.287537
 20
5.485553
 30
0.0
 11
6.287537
 21
5.528452
 31
0.0
  0
ELLIPSE
  5
460
100
AcDbEntity
  8
CENTRE_LINES
370
     0
390
0
  6
Continuous
 62
     7
100
AcDbEllipse
 10
6.277538
 20
5.528453
 30
0.0
 11
0.0
 21
-0.0109992551772136
 31
0.0
210
0.0
220
0.0
230
1.0
 40
0.909091
 41
1.5707057172085281
 42
3.1415926535897931
  0
ELLIPSE
  5
461
100
AcDbEntity
  8
CENTRE_LINES
370
     0
390
0
  6
Continuous
 62
     7
100
AcDbEllipse
 10
6.244537
 20
5.528453
 30
0.0
 11
0.0
 21
-0.0109992551772136
 31
0.0
210
0.0
220
0.0
230
1.0
 40
0.909091
 41
-3.1415926535897931
 42
-1.5707057172086896
  0
LINE
  5
462
100
AcDbEntity
  8
CENTRE_LINES
370
     0
390
0
  6
Continuous
 62
     7
100
AcDbLine
 10
6.234538
 20
5.485553
 30
0.0
 11
6.234538
 21
5.528452
 31
0.0
  0
ELLIPSE
  5
463
100
AcDbEntity
  8
CENTRE_LINES
370
     0
390
0
  6
Continuous
 62
     7
100
AcDbEllipse
 10
6.261037
 20
5.574688
 30
0.0
 11
0.0
 21
-0.0396347478735581
 31
0.0
210
0.0
220
0.0
230
1.0
 40
0.909091
 41
-0.4756520033056798
 42
0.4756520033056798
  0
LINE
  5
464
100
AcDbEntity
  8
CENTRE_LINES
370
     0
390
0
  6
Continuous
 62
     7
100
AcDbLine
 10
6.234538
 20
5.667594
 30
0.0
 11
6.287537
 21
5.667594
 31
0.0
  0
LINE
  5
465
100
AcDbEntity
  8
CENTRE_LINES
370
     0
390
0
  6
Continuous
 62
     7
100
AcDbLine
 10
6.287537
 20
5.667594
 30
0.0
 11
6.287537
 21
5.624694
 31
0.0
  0
ELLIPSE
  5
466
100
AcDbEntity
  8
CENTRE_LINES
370
     0
390
0
  6
Continuous
 62
     7
100
AcDbEllipse
 10
6.277538
 20
5.624693
 30
0.0
 11
0.0
 21
-0.0109992551772127
 31
0.0
210
0.0
220
0.0
230
1.0
 40
0.909091
 41
0.0
 42
1.5708869363810229
  0
ELLIPSE
  5
467
100
AcDbEntity
  8
CENTRE_LINES
370
     0
390
0
  6
Continuous
 62
     7
100
AcDbEllipse
 10
6.244537
 20
5.624693
 30
0.0
 11
0.0
 21
-0.0109992551772127
 31
0.0
210
0.0
220
0.0
230
1.0
 40
0.909091
 41
-1.5708869363810229
 42
0.0
  0
LINE
  5
468
100
AcDbEntity
  8
CENTRE_LINES
370
     0
390
0
  6
Continuous
 62
     7
100
AcDbLine
 10
6.234538
 20
5.667594
 30
0.0
 11
6.234538
 21
5.624694
 31
0.0
  0
ELLIPSE
  5
469
100
AcDbEntity
  8
CENTRE_LINES
370
     0
390
0
  6
Continuous
 62
     7
100
AcDbEllipse
 10
6.261037
 20
5.578459
 30
0.0
 11
0.0
 21
-0.0396347478735555
 31
0.0
210
0.0
220
0.0
230
1.0
 40
0.909091
 41
2.665940650284091
 42
-2.6659406502840906
  0
ELLIPSE
  5
46A
100
AcDbEntity
  8
HEX_BODY
370
     0
390
0
  6
Continuous
 62
     7
100
AcDbEllipse
 10
6.262011
 20
5.576617
 30
0.0
 11
-0.0001554489135742
 21
0.0413660764694219
 31
0.0
210
0.0
220
0.0
230
1.0
 40
0.665263
 41
0.0
 42
6.2831853071795862
  0
LINE
  5
46B
100
AcDbEntity
  8
0
370
     0
390
0
  6
Continuous
 62
     7
100
AcDbLine
 10
5.864038
 20
6.896
 30
0.0
 11
5.864038
 21
6.276844
 31
0.0
  0
LINE
  5
46C
100
AcDbEntity
  8
0
370
     0
390
0
  6
Continuous
 62
     7
100
AcDbLine
 10
5.864038
 20
7.228798
 30
0.0
 11
6.316038
 21
7.228798
 31
0.0
  0
LINE
  5
46D
100
AcDbEntity
  8
0
370
     0
390
0
  6
Continuous
 62
     7
100
AcDbLine
 10
6.238038
 20
7.057012
 30
0.0
 11
5.864038
 21
7.057012
 31
0.0
  0
LINE
  5
46E
100
AcDbEntity
  8
0
370
     0
390
0
  6
Continuous
 62
     7
100
AcDbLine
 10
6.301538
 20
7.128797
 30
0.0
 11
6.301538
 21
7.214298
 31
0.0
  0
LINE
  5
46F
100
AcDbEntity
  8
0
370
     0
390
0
  6
Continuous
 62
     7
100
AcDbLine
 10
6.301538
 20
7.214298
 30
0.0
 11
6.316038
 21
7.228798
 31
0.0
  0
LINE
  5
470
100
AcDbEntity
  8
0
370
     0
390
0
  6
Continuous
 62
     7
100
AcDbLine
 10
6.301538
 20
7.214298
 30
0.0
 11
5.864038
 21
7.214298
 31
0.0
  0
INSERT
  5
471
100
AcDbEntity
  8
SEAL_RETAINER
370
     0
390
0
  6
Continuous
 62
     1
100
AcDbBlockReference
  2
ARROW
 10
6.898025
 20
5.806776
 30
0.0
 41
0.5
 42
0.5
 50
270.0
  0
TEXT
  5
472
100
AcDbEntity
  8
SEAL_RETAINER
370
     0
390
0
  6
Continuous
 62
     7
100
AcDbText
 10
6.462329
 20
6.669745
 30
0.0
 40
0.071
  1
PORT
  7
Vcadd_SIMP
 72
     1
 11
6.619825
 21
6.669745
 31
0.0
100
AcDbText
  0
TEXT
  5
473
100
AcDbEntity
  8
SEAL_RETAINER
370
     0
390
0
  6
Continuous
 62
     7
100
AcDbText
 10
6.588099
 20
6.563245
 30
0.0
 40
0.071
  1
3
  7
Vcadd_SIMP
 72
     1
 11
6.619825
 21
6.563245
 31
0.0
100
AcDbText
  0
SPLINE
  5
474
100
AcDbEntity
  8
0
370
     0
390
0
  6
Continuous
 62
     1
100
AcDbSpline
210
0.0
220
0.0
230
1.0
 70
     0
 71
     2
 72
     0
 73
     0
 74
     2
 44
0.000001
 11
6.6296165425038485
 21
7.1446959184187824
 31
0.0
 11
6.6296165425038485
 21
7.1446959184187824
 31
0.0
  0
SPLINE
  5
475
100
AcDbEntity
  8
0
370
     0
390
0
  6
Continuous
 62
     1
100
AcDbSpline
210
0.0
220
0.0
230
1.0
 70
     0
 71
     2
 72
     0
 73
     0
 74
     2
 44
0.000001
 12
-0.0062070271956314
 22
0.0367262226194116
 32
0.0
 13
-0.0002839574350419
 23
0.0430082494509945
 33
0.0
 11
6.6296165425038485
 21
7.1446959184187824
 31
0.0
 11
6.6081147695702569
 21
7.2719192855125954
 31
0.0
  0
SPLINE
  5
476
100
AcDbEntity
  8
0
370
     0
390
0
  6
Continuous
 62
     1
100
AcDbSpline
210
0.0
220
0.0
230
1.0
 70
     0
 71
     2
 72
     0
 73
     0
 74
     2
 44
0.000001
 12
-0.0001847886289239
 22
0.0279881224004237
 32
0.0
 13
0.0031467965481982
 23
0.0278112713449552
 33
0.0
 11
6.6081147695702569
 21
7.2719192855125954
 31
0.0
 11
6.6282383423433062
 21
7.3534383881811962
 31
0.0
  0
SPLINE
  5
477
100
AcDbEntity
  8
0
370
     0
390
0
  6
Continuous
 62
     1
100
AcDbSpline
210
0.0
220
0.0
230
1.0
 70
     0
 71
     2
 72
     0
 73
     0
 74
     2
 44
0.000001
 12
0.0036102398566396
 22
0.0319071661403934
 32
0.0
 13
-0.0022110642583835
 23
0.0320345481906399
 33
0.0
 11
6.6282383423433062
 21
7.3534383881811962
 31
0.0
 11
6.6282383423433062
 21
7.4497706763632907
 31
0.0
  0
SPLINE
  5
478
100
AcDbEntity
  8
0
370
     0
390
0
  6
Continuous
 62
     1
100
AcDbSpline
210
0.0
220
0.0
230
1.0
 70
     0
 71
     2
 72
     0
 73
     0
 74
     2
 44
0.000001
 12
-0.0008499455625843
 22
0.0123142608727038
 32
0.0
 13
-0.0030420148339676
 23
0.0119628413869899
 33
0.0
 11
6.6282383423433062
 21
7.4497706763632907
 31
0.0
 11
6.6191122978414034
 21
7.4856592005242613
 31
0.0
  0
SPLINE
  5
479
100
AcDbEntity
  8
0
370
     0
390
0
  6
Continuous
 62
     1
100
AcDbSpline
210
0.0
220
0.0
230
1.0
 70
     0
 71
     2
 72
     0
 73
     0
 74
     2
 44
0.000001
 12
-0.002513065770426
 22
0.0591329773968363
 32
0.0
 13
0.0033209747406433
 23
0.059184514127911
 33
0.0
 11
6.6191122978414034
 21
7.4856592005242613
 31
0.0
 11
6.6286005142217554
 21
7.6633588175895637
 31
0.0
  0
SPLINE
  5
47A
100
AcDbEntity
  8
0
370
     0
390
0
  6
Continuous
 62
     1
100
AcDbSpline
210
0.0
220
0.0
230
1.0
 70
     0
 71
     2
 72
     0
 73
     0
 74
     2
 44
0.000001
 12
0.0042302177502744
 22
0.0753885234781215
 32
0.0
 13
0.0037429883672946
 23
0.0754142841410577
 33
0.0
 11
6.6286005142217554
 21
7.6633588175895637
 31
0.0
 11
6.6437804341517523
 21
7.8893709587695264
 31
0.0
  0
SPLINE
  5
47B
100
AcDbEntity
  8
0
370
     0
390
0
  6
Continuous
 62
     1
100
AcDbSpline
210
0.0
220
0.0
230
1.0
 70
     0
 71
     2
 72
     0
 73
     0
 74
     2
 44
0.000001
 12
0.000760549841246
 22
0.0153236708754836
 32
0.0
 13
0.0002842152316536
 23
0.0153513616596586
 33
0.0
 11
6.6437804341517523
 21
7.8893709587695264
 31
0.0
 11
6.6452689169718395
 21
7.9353884497837575
 31
0.0
  0
TEXT
  5
47C
100
AcDbEntity
  8
SEAL_RETAINER
370
     0
390
0
  6
Continuous
 62
     7
100
AcDbText
 10
6.509257
 20
8.07578
 30
0.0
 40
0.071
  1
PORT
  7
Vcadd_SIMP
 72
     1
 11
6.666753
 21
8.07578
 31
0.0
100
AcDbText
  0
TEXT
  5
47D
100
AcDbEntity
  8
SEAL_RETAINER
370
     0
390
0
  6
Continuous
 62
     7
100
AcDbText
 10
6.635027
 20
7.96928
 30
0.0
 40
0.071
  1
4
  7
Vcadd_SIMP
 72
     1
 11
6.666753
 21
7.96928
 31
0.0
100
AcDbText
  0
SPLINE
  5
47E
100
AcDbEntity
  8
0
370
     0
390
0
  6
Continuous
 62
     1
100
AcDbSpline
210
0.0
220
0.0
230
1.0
 70
     0
 71
     2
 72
     0
 73
     0
 74
     2
 44
0.000001
 12
0.0018686241354988
 22
0.0231382789646819
 32
0.0
 13
-0.0009186346402821
 23
0.0232076119649527
 33
0.0
 11
6.6326531184347619
 21
6.197038559958191
 31
0.0
 11
6.6344409698878088
 21
6.2665513442547667
 31
0.0
  0
SPLINE
  5
47F
100
AcDbEntity
  8
0
370
     0
390
0
  6
Continuous
 62
     1
100
AcDbSpline
210
0.0
220
0.0
230
1.0
 70
     0
 71
     2
 72
     0
 73
     0
 74
     2
 44
0.000001
 12
-0.0023142879892912
 22
0.0584662228873718
 32
0.0
 13
-0.006539868960882
 23
0.0581453803976526
 33
0.0
 11
6.6344409698878088
 21
6.2665513442547667
 31
0.0
 11
6.595647841177815
 21
6.4377471079097379
 31
0.0
  0
SPLINE
  5
480
100
AcDbEntity
  8
0
370
     0
390
0
  6
Continuous
 62
     1
100
AcDbSpline
210
0.0
220
0.0
230
1.0
 70
     0
 71
     2
 72
     0
 73
     0
 74
     2
 44
0.000001
 12
-0.003727854225847
 22
0.0331440130261642
 32
0.0
 13
-0.001532885831601
 23
0.0333726307339726
 33
0.0
 11
6.595647841177815
 21
6.4377471079097379
 31
0.0
 11
6.5877348933526303
 21
6.5375788300312987
 31
0.0
  0
SPLINE
  5
481
100
AcDbEntity
  8
0
370
     0
390
0
  6
Continuous
 62
     1
100
AcDbSpline
210
0.0
220
0.0
230
1.0
 70
     0
 71
     2
 72
     0
 73
     0
 74
     2
 44
0.000001
 12
0.0066320305387659
 22
0.04691374857416
 32
0.0
 13
0.007507790508452
 23
0.0467715057350784
 33
0.0
 11
6.5958527439704673
 21
6.7561770534449401
 31
0.0
 11
6.6192610499578102
 21
6.8965180213496593
 31
0.0
  0
SPLINE
  5
482
100
AcDbEntity
  8
0
370
     0
390
0
  6
Continuous
 62
     1
100
AcDbSpline
210
0.0
220
0.0
230
1.0
 70
     0
 71
     2
 72
     0
 73
     0
 74
     2
 44
0.000001
 12
0.013188180697302
 22
0.0821588013710226
 32
0.0
 13
-0.0466321139298014
 23
0.0865715950048136
 33
0.0
 11
6.6192610499578102
 21
6.8965180213496593
 31
0.0
 11
6.6296165425038485
 21
7.1446959184187824
 31
0.0
  0
LINE
  5
483
100
AcDbEntity
  8
SEAL_RETAINER
370
     0
390
0
  6
Continuous
 62
     1
100
AcDbLine
 10
6.898025
 20
6.321202
 30
0.0
 11
6.898025
 21
5.806776
 31
0.0
  0
TEXT
  5
484
100
AcDbEntity
  8
SEAL_RETAINER
370
     0
390
0
  6
Continuous
 62
     7
100
AcDbText
 10
6.40878
 20
4.757533
 30
0.0
 40
0.071
  1
PORT
  7
Vcadd_SIMP
 72
     1
 11
6.566276
 21
4.757533
 31
0.0
100
AcDbText
  0
TEXT
  5
485
100
AcDbEntity
  8
SEAL_RETAINER
370
     0
390
0
  6
Continuous
 62
     7
100
AcDbText
 10
6.53455
 20
4.651033
 30
0.0
 40
0.071
  1
2
  7
Vcadd_SIMP
 72
     1
 11
6.566276
 21
4.651033
 31
0.0
100
AcDbText
  0
SPLINE
  5
486
100
AcDbEntity
  8
0
370
     0
390
0
  6
Continuous
 62
     1
100
AcDbSpline
210
0.0
220
0.0
230
1.0
 70
     0
 71
     2
 72
     0
 73
     0
 74
     2
 44
0.000001
 12
-0.0095838290467141
 22
0.0452588745383773
 32
0.0
 13
-0.0035648132109198
 23
0.0461249131213108
 33
0.0
 11
6.5349535657395874
 21
4.2795914032810707
 31
0.0
 11
6.5062020785994452
 21
4.4153680268962026
 31
0.0
  0
SPLINE
  5
487
100
AcDbEntity
  8
0
370
     0
390
0
  6
Continuous
 62
     1
100
AcDbSpline
210
0.0
220
0.0
230
1.0
 70
     0
 71
     2
 72
     0
 73
     0
 74
     2
 44
0.000001
 12
-0.003571780548044
 22
0.0462150630956568
 32
0.0
 13
0.008017251166315
 23
0.0456542808174119
 33
0.0
 11
6.5062020785994452
 21
4.4153680268962026
 31
0.0
 11
6.5137283808600737
 21
4.5542228497625761
 31
0.0
  0
SPLINE
  5
488
100
AcDbEntity
  8
0
370
     0
390
0
  6
Continuous
 62
     1
100
AcDbSpline
210
0.0
220
0.0
230
1.0
 70
     0
 71
     2
 72
     0
 73
     0
 74
     2
 44
0.000001
 12
0.0031527919201677
 22
0.0179535909124269
 32
0.0
 13
0.0056690973315332
 23
0.0173575181747117
 33
0.0
 11
6.5137283808600737
 21
4.5542228497625761
 31
0.0
 11
6.5276133537431571
 21
4.6070320657759627
 31
0.0
  0
SPLINE
  5
489
100
AcDbEntity
  8
0
370
     0
390
0
  6
Continuous
 62
     1
100
AcDbSpline
210
0.0
220
0.0
230
1.0
 70
     0
 71
     2
 72
     0
 73
     0
 74
     2
 44
0.000001
 12
-0.0001401368937337
 22
0.0505638679905847
 32
0.0
 13
-0.0016612800992233
 23
0.0506051476378095
 33
0.0
 11
6.5782683457058626
 21
4.8614719529616455
 31
0.0
 11
6.5632492681981205
 21
5.0126728265947573
 31
0.0
  0
SPLINE
  5
48A
100
AcDbEntity
  8
0
370
     0
390
0
  6
Continuous
 62
     1
100
AcDbSpline
210
0.0
220
0.0
230
1.0
 70
     0
 71
     2
 72
     0
 73
     0
 74
     2
 44
0.000001
 12
-0.0015732775356154
 22
0.0479244541618131
 32
0.0
 13
0.0051398110402046
 23
0.0476740060345549
 33
0.0
 11
6.5632492681981205
 21
5.0126728265947573
 31
0.0
 11
6.5682668030385392
 21
5.1564361074571927
 31
0.0
  0
SPLINE
  5
48B
100
AcDbEntity
  8
0
370
     0
390
0
  6
Continuous
 62
     1
100
AcDbSpline
210
0.0
220
0.0
230
1.0
 70
     0
 71
     2
 72
     0
 73
     0
 74
     2
 44
0.000001
 12
0.0075532645568783
 22
0.0700598479688148
 32
0.0
 13
0.0109978744506618
 23
0.0696023049937793
 33
0.0
 11
6.5682668030385392
 21
5.1564361074571927
 31
0.0
 11
6.6012604263905237
 21
5.3652430224385306
 31
0.0
  0
LINE
  5
48C
100
AcDbEntity
  8
TEXT
370
     0
390
0
  6
Continuous
 62
     1
100
AcDbLine
 10
6.547128
 20
3.884605
 30
0.0
 11
6.900866
 21
3.884605
 31
0.0
  0
INSERT
  5
48D
100
AcDbEntity
  8
SEAL_RETAINER
370
     0
390
0
  6
Continuous
 62
     1
100
AcDbBlockReference
  2
ARROW
 10
6.843474
 20
3.884605
 30
0.0
 41
0.5
 42
0.5
 50
270.0
  0
TEXT
  5
48E
100
AcDbEntity
  8
SEAL_RETAINER
370
     0
390
0
  6
Continuous
 62
     7
100
AcDbText
 10
6.66113
 20
4.469308
 30
0.0
 40
0.071
  1
1.531
  7
Vcadd_SIMP
100
AcDbText
  0
LINE
  5
48F
100
AcDbEntity
  8
SEAL_RETAINER
370
     0
390
0
  6
Continuous
 62
     1
100
AcDbLine
 10
6.843474
 20
5.415607
 30
0.0
 11
6.843474
 21
4.578983
 31
0.0
  0
LINE
  5
490
100
AcDbEntity
  8
SEAL_RETAINER
370
     0
390
0
  6
Continuous
 62
     1
100
AcDbLine
 10
6.843474
 20
4.430312
 30
0.0
 11
6.843474
 21
3.884605
 31
0.0
  0
LINE
  5
491
100
AcDbEntity
  8
0
370
     0
390
0
  6
Continuous
 62
     1
100
AcDbLine
 10
7.729544
 20
4.649798
 30
0.0
 11
6.627678
 21
4.649798
 31
0.0
  0
LINE
  5
492
100
AcDbEntity
  8
0
370
     0
390
0
  6
Continuous
 62
     1
100
AcDbLine
 10
6.496509
 20
4.649798
 30
0.0
 11
6.171472
 21
4.649798
 31
0.0
  0
TEXT
  5
493
100
AcDbEntity
  8
SEAL_RETAINER
370
     0
390
0
  6
Continuous
 62
     7
100
AcDbText
 10
7.744125
 20
4.618827
 30
0.0
 40
0.071
  1
3.188
  7
Vcadd_SIMP
100
AcDbText
  0
TEXT
  5
494
100
AcDbEntity
  8
0
370
     0
390
0
  6
Continuous
 62
     7
100
AcDbText
 10
3.748642
 20
2.730964
 30
0.0
 40
0.075
  1
T-52AD INCH
 50
270.0
  7
Vcadd_SIMP
100
AcDbText
  0
TEXT
  5
495
100
AcDbEntity
  8
0
370
     0
390
0
  6
Continuous
 62
     7
100
AcDbText
 10
8.068417
 20
2.725524
 30
0.0
 40
0.075
  1
T-52AD INCH
 50
270.0
  7
Vcadd_SIMP
100
AcDbText
  0
TEXT
  5
496
100
AcDbEntity
  8
SEAL_RETAINER
370
     0
390
0
  6
Continuous
 62
     7
100
AcDbText
 10
3.491819
 20
9.745802
 30
0.0
 40
0.071
  1
T-52AD CAVITY DETAILS
  7
Vcadd_SIMP
100
AcDbText
  0
LINE
  5
497
100
AcDbEntity
  8
SEAL_RETAINER
370
     0
390
0
  6
Continuous
 62
     1
100
AcDbLine
 10
3.482639
 20
9.718204
 30
0.0
 11
4.969965
 21
9.718204
 31
0.0
  0
TEXT
  5
498
100
AcDbEntity
  8
0
370
     0
390
0
  6
Continuous
 62
     7
100
AcDbText
 10
3.752868
 20
4.485408
 30
0.0
 40
0.071
  1
T-52AD CAVITY
 50
270.0
  7
Vcadd_SIMP
100
AcDbText
  0
TEXT
  5
499
100
AcDbEntity
  8
0
370
     0
390
0
  6
Continuous
 62
     7
100
AcDbText
 10
3.308385
 20
4.443413
 30
0.0
 40
0.062
  1
CL
 50
270.0
 41
1.25
  7
Vcadd_SIMP
100
AcDbText
  0
TEXT
  5
49A
100
AcDbEntity
  8
0
370
     0
390
0
  6
Continuous
 62
     7
100
AcDbText
 10
3.178474
 20
4.745687
 30
0.0
 40
0.03
  1
02APR12
 50
270.0
  7
Vcadd_SIMP
100
AcDbText
  0
TEXT
  5
49B
100
AcDbEntity
  8
0
370
     0
390
0
  6
Continuous
 62
     7
100
AcDbText
 10
3.257488
 20
7.057446
 30
0.0
 40
0.031
  1
RELEASED
 50
270.0
 41
1.25
  7
Vcadd_SIMP
100
AcDbText
  0
TEXT
  5
49C
100
AcDbEntity
  8
0
370
     0
390
0
  6
Continuous
 62
     7
100
AcDbText
 10
3.257488
 20
5.639119
 30
0.0
 40
0.031
  1
DAS
 50
270.0
 41
1.25
  7
Vcadd_SIMP
100
AcDbText
  0
TEXT
  5
49D
100
AcDbEntity
  8
0
370
     0
390
0
  6
Continuous
 62
     7
100
AcDbText
 10
3.661622
 20
3.166199
 30
0.0
 40
0.094
  1
A
 50
270.0
 41
1.25
  7
Vcadd_SIMP
100
AcDbText
  0
TEXT
  5
49E
100
AcDbEntity
  8
0
370
     0
390
0
  6
Continuous
 62
     7
100
AcDbText
 10
8.008204
 20
3.166199
 30
0.0
 40
0.094
  1
A
 50
270.0
 41
1.25
  7
Vcadd_SIMP
100
AcDbText
  0
LINE
  5
49F
100
AcDbEntity
  8
TEXT
370
     0
390
0
  6
Continuous
 62
     1
100
AcDbLine
 10
6.674574
 20
7.337776
 30
0.0
 11
6.95613
 21
7.337776
 31
0.0
  0
INSERT
  5
4A0
100
AcDbEntity
  8
SEAL_RETAINER
370
     0
390
0
  6
Continuous
 62
     1
100
AcDbBlockReference
  2
ARROW
 10
6.898025
 20
7.337776
 30
0.0
 41
0.5
 42
0.5
 50
90.0
  0
LINE
  5
4A1
100
AcDbEntity
  8
SEAL_RETAINER
370
     0
390
0
  6
Continuous
 62
     1
100
AcDbLine
 10
6.898025
 20
7.337776
 30
0.0
 11
6.898025
 21
6.509302
 31
0.0
  0
LINE
  5
4A2
100
AcDbEntity
  8
HEX_BODY
370
     0
390
0
  6
Continuous
 62
     1
100
AcDbLine
 10
6.628214
 20
7.450105
 30
0.0
 11
6.51572
 21
7.337776
 31
0.0
  0
LINE
  5
4A3
100
AcDbEntity
  8
HEX_BODY
370
     0
390
0
  6
Continuous
 62
     1
100
AcDbLine
 10
6.619415
 20
7.5387
 30
0.0
 11
6.418491
 21
7.337776
 31
0.0
  0
LINE
  5
4A4
100
AcDbEntity
  8
HEX_BODY
370
     0
390
0
  6
Continuous
 62
     1
100
AcDbLine
 10
6.626952
 20
7.630188
 30
0.0
 11
6.360038
 21
7.363273
 31
0.0
  0
LINE
  5
4A5
100
AcDbEntity
  8
0
370
     0
390
0
  6
Continuous
 62
     1
100
AcDbLine
 10
6.626038
 20
7.337776
 30
0.0
 11
6.331538
 21
7.337776
 31
0.0
  0
LINE
  5
4A6
100
AcDbEntity
  8
HEX_BODY
370
     0
390
0
  6
Continuous
 62
     1
100
AcDbLine
 10
6.628186
 20
7.352991
 30
0.0
 11
6.612949
 21
7.337776
 31
0.0
  0
TEXT
  5
4A7
100
AcDbEntity
  8
SEAL_RETAINER
370
     0
390
0
  6
Continuous
 62
     7
100
AcDbText
 10
6.716007
 20
6.384656
 30
0.0
 40
0.071
  1
1.531
  7
Vcadd_SIMP
100
AcDbText
  0
LINE
  5
4A8
100
AcDbEntity
  8
TEXT
370
     0
390
0
  6
Continuous
 62
     1
100
AcDbLine
 10
6.630544
 20
5.806776
 30
0.0
 11
6.95613
 21
5.806776
 31
0.0
  0
LINE
  5
4A9
100
AcDbEntity
  8
0
370
     0
390
0
  6
Continuous
 62
     1
100
AcDbLine
 10
7.729544
 20
6.572276
 30
0.0
 11
6.690127
 21
6.572276
 31
0.0
  0
LINE
  5
4AA
100
AcDbEntity
  8
0
370
     0
390
0
  6
Continuous
 62
     1
100
AcDbLine
 10
6.507795
 20
6.572276
 30
0.0
 11
6.194295
 21
6.572276
 31
0.0
  0
TEXT
  5
4AB
100
AcDbEntity
  8
SEAL_RETAINER
370
     0
390
0
  6
Continuous
 62
     7
100
AcDbText
 10
7.742718
 20
6.536879
 30
0.0
 40
0.071
  1
1.266
  7
Vcadd_SIMP
100
AcDbText
  0
TEXT
  5
4AC
100
AcDbEntity
  8
0
370
     0
390
0
  6
Continuous
 62
     7
100
AcDbText
 10
3.259462
 20
5.882902
 30
0.0
 40
0.031
  1
16APR12
 50
270.0
  7
Vcadd_SIMP
100
AcDbText
  0
TEXT
  5
4AD
100
AcDbEntity
  8
0
370
     0
390
0
  6
Continuous
 62
     7
100
AcDbText
 10
3.178474
 20
4.474687
 30
0.0
 40
0.03
  1
11APR12
 50
270.0
  7
Vcadd_SIMP
100
AcDbText
  0
TEXT
  5
4AE
100
AcDbEntity
  8
0
370
     0
390
0
  6
Continuous
 62
     7
100
AcDbText
 10
3.231289
 20
5.332456
 30
0.0
 40
0.025
  1
ECR
 50
270.0
  7
Vcadd_SIMP
 72
     1
 11
3.278312
 21
5.332456
 31
0.0
100
AcDbText
  0
TEXT
  5
4AF
100
AcDbEntity
  8
0
370
     0
390
0
  6
Continuous
 62
     7
100
AcDbText
 10
3.162064
 20
5.332456
 30
0.0
 40
0.025
  1
10996
 50
270.0
  7
Vcadd_SIMP
 72
     1
 11
3.240812
 21
5.332456
 31
0.0
100
AcDbText
  0
LINE
  5
4B0
100
AcDbEntity
  8
SEAL_RETAINER
370
     0
390
0
  6
Continuous
 62
     1
100
AcDbLine
 10
5.06905
 20
9.091081
 30
0.0
 11
5.207536
 21
9.091081
 31
0.0
  0
LINE
  5
4B1
100
AcDbEntity
  8
SEAL_RETAINER
370
     0
390
0
  6
Continuous
 62
     1
100
AcDbLine
 10
5.166735
 20
8.642298
 30
0.0
 11
5.06905
 21
8.642298
 31
0.0
  0
TEXT
  5
4B2
100
AcDbEntity
  8
SEAL_RETAINER
370
     0
390
0
  6
Continuous
 62
     7
100
AcDbText
 10
4.759752
 20
8.60896
 30
0.0
 40
0.071
  1
.805
  7
Vcadd_SIMP
100
AcDbText
  0
LINE
  5
4B3
100
AcDbEntity
  8
SEAL_RETAINER
370
     0
390
0
  6
Continuous
 62
     7
100
AcDbLine
 10
4.958347
 20
9.050363
 30
0.0
 11
4.998362
 21
9.13453
 31
0.0
  0
TEXT
  5
4B4
100
AcDbEntity
  8
SEAL_RETAINER
370
     0
390
0
  6
Continuous
 62
     7
100
AcDbText
 10
4.948238
 20
9.053845
 30
0.0
 40
0.081375
  1
O
  7
Vcadd_SIMP
100
AcDbText
  0
TEXT
  5
4B5
100
AcDbEntity
  8
SEAL_RETAINER
370
     0
390
0
  6
Continuous
 62
     7
100
AcDbText
 10
4.580955
 20
9.057742
 30
0.0
 40
0.071
  1
1.312
  7
Vcadd_SIMP
100
AcDbText
  0
TEXT
  5
4B6
100
AcDbEntity
  8
SEAL_RETAINER
370
     0
390
0
  6
Continuous
 62
     7
100
AcDbText
 10
3.365592
 20
9.099395
 30
0.0
 40
0.045
  1
THIS DRAWING DESCRIBES 
  7
Vcadd_SIMP
100
AcDbText
  0
TEXT
  5
4B7
100
AcDbEntity
  8
SEAL_RETAINER
370
     0
390
0
  6
Continuous
 62
     7
100
AcDbText
 10
3.416137
 20
9.043144
 30
0.0
 40
0.045
  1
PROPRIETARY PRODUCT OF
  7
Vcadd_SIMP
100
AcDbText
  0
TEXT
  5
4B8
100
AcDbEntity
  8
SEAL_RETAINER
370
     0
390
0
  6
Continuous
 62
     7
100
AcDbText
 10
3.325157
 20
8.986892
 30
0.0
 40
0.045
  1
SUN HYDRAULICS CORPORATION
  7
Vcadd_SIMP
100
AcDbText
  0
TEXT
  5
4B9
100
AcDbEntity
  8
SEAL_RETAINER
370
     0
390
0
  6
Continuous
 62
     7
100
AcDbText
 10
3.284725
 20
8.930645
 30
0.0
 40
0.045
  1
AND MAY NOT BE REPRODUCED
  7
Vcadd_SIMP
100
AcDbText
  0
TEXT
  5
4BA
100
AcDbEntity
  8
SEAL_RETAINER
370
     0
390
0
  6
Continuous
 62
     7
100
AcDbText
 10
3.241134
 20
8.874393
 30
0.0
 40
0.045
  1
GIVEN TO A THIRD PARTY
  7
Vcadd_SIMP
100
AcDbText
  0
TEXT
  5
4BB
100
AcDbEntity
  8
SEAL_RETAINER
370
     0
390
0
  6
Continuous
 62
     7
100
AcDbText
 10
3.408855
 20
8.818145
 30
0.0
 40
0.045
  1
WRITTEN PERMISSION
  7
Vcadd_SIMP
100
AcDbText
  0
TEXT
  5
4BC
100
AcDbEntity
  8
SEAL_RETAINER
370
     0
390
0
  6
Continuous
 62
     7
100
AcDbText
 10
3.337875
 20
8.761894
 30
0.0
 40
0.045
  1
SUN HYDRAULICS CORPORATION
  7
Vcadd_SIMP
100
AcDbText
  0
TEXT
  5
4BD
100
AcDbEntity
  8
SEAL_RETAINER
370
     0
390
0
  6
Continuous
 62
     7
100
AcDbText
 10
3.462791
 20
9.179149
 30
0.0
 40
0.05
  1
PROPRIETARY NOTICE
  7
Vcadd_SIMP
100
AcDbText
  0
TEXT
  5
4BE
100
AcDbEntity
  8
SEAL_RETAINER
370
     0
390
0
  6
Continuous
 62
     7
100
AcDbText
 10
4.400597
 20
9.099395
 30
0.0
 40
0.045
  1
A
  7
Vcadd_SIMP
100
AcDbText
  0
TEXT
  5
4BF
100
AcDbEntity
  8
SEAL_RETAINER
370
     0
390
0
  6
Continuous
 62
     7
100
AcDbText
 10
4.454727
 20
8.930645
 30
0.0
 40
0.045
  1
OR
  7
Vcadd_SIMP
100
AcDbText
  0
TEXT
  5
4C0
100
AcDbEntity
  8
SEAL_RETAINER
370
     0
390
0
  6
Continuous
 62
     7
100
AcDbText
 10
4.276138
 20
8.874393
 30
0.0
 40
0.045
  1
WITHOUT
  7
Vcadd_SIMP
100
AcDbText
  0
TEXT
  5
4C1
100
AcDbEntity
  8
SEAL_RETAINER
370
     0
390
0
  6
Continuous
 62
     7
100
AcDbText
 10
4.260487
 20
8.818145
 30
0.0
 40
0.045
  1
FROM
  7
Vcadd_SIMP
100
AcDbText
  0
CIRCLE
  5
4C2
100
AcDbEntity
  8
SEAL_RETAINER
370
     0
390
0
  6
Continuous
 62
     1
100
AcDbCircle
 10
3.238376
 20
8.71885
 30
0.0
 40
0.034254
  0
TEXT
  5
4C3
100
AcDbEntity
  8
SEAL_RETAINER
370
     0
390
0
  6
Continuous
 62
     7
100
AcDbText
 10
3.221073
 20
8.699132
 30
0.0
 40
0.045
  1
C
  7
Vcadd_SIMP
100
AcDbText
  0
TEXT
  5
4C4
100
AcDbEntity
  8
SEAL_RETAINER
370
     0
390
0
  6
Continuous
 62
     7
100
AcDbText
 10
3.312049
 20
8.695665
 30
0.0
 40
0.05
  1
SUN HYDRAULICS CORP.
  7
Vcadd_SIMP
100
AcDbText
  0
TEXT
  5
4C5
100
AcDbEntity
  8
SEAL_RETAINER
370
     0
390
0
  6
Continuous
 62
     7
100
AcDbText
 10
4.013776
 20
2.333339
 30
0.0
 40
0.042528
  1
RECOMMENDED MAXIMUM L.S. DEPTH
  7
Vcadd_SIMP
100
AcDbText
  0
TEXT
  5
4C6
100
AcDbEntity
  8
SEAL_RETAINER
370
     0
390
0
  6
Continuous
 62
     7
100
AcDbText
 10
3.928719
 20
2.28018
 30
0.0
 40
0.04224
  1
     WITHOUT SOCKET CLEARANCE: 1.719
  7
Vcadd_SIMP
100
AcDbText
  0
TEXT
  5
4C7
100
AcDbEntity
  8
SEAL_RETAINER
370
     0
390
0
  6
Continuous
 62
     7
100
AcDbText
 10
4.004321
 20
2.219151
 30
0.0
 40
0.042528
  1
MINIMUM CENTERLINE-TO-EDGE DISTANCE: .766
  7
Vcadd_SIMP
100
AcDbText
  0
TEXT
  5
4C8
100
AcDbEntity
  8
SEAL_RETAINER
370
     0
390
0
  6
Continuous
 62
     7
100
AcDbText
 10
3.870278
 20
1.990051
 30
0.0
 40
0.04544
  1
**
  7
Vcadd_SIMP
100
AcDbText
  0
TEXT
  5
4C9
100
AcDbEntity
  8
SEAL_RETAINER
370
     0
390
0
  6
Continuous
 62
     7
100
AcDbText
 10
3.998874
 20
1.990051
 30
0.0
 40
0.04544
  1
ALL O-RING "LEAD IN's" TO BE SMOOTH AND
  7
Vcadd_SIMP
100
AcDbText
  0
TEXT
  5
4CA
100
AcDbEntity
  8
SEAL_RETAINER
370
     0
390
0
  6
Continuous
 62
     7
100
AcDbText
 10
3.998874
 20
1.921891
 30
0.0
 40
0.04544
  1
FREE OF NICKS AND SHARP EDGES.
  7
Vcadd_SIMP
100
AcDbText
  0
LINE
  5
4CB
100
AcDbEntity
  8
SEAL_RETAINER
370
     0
390
0
  6
Continuous
 62
     7
100
AcDbLine
 10
4.027067
 20
2.445646
 30
0.0
 11
4.144656
 21
2.445646
 31
0.0
  0
LINE
  5
4CC
100
AcDbEntity
  8
SEAL_RETAINER
370
     0
390
0
  6
Continuous
 62
     7
100
AcDbLine
 10
4.144656
 20
2.445646
 30
0.0
 11
4.144656
 21
2.551754
 31
0.0
  0
LINE
  5
4CD
100
AcDbEntity
  8
SEAL_RETAINER
370
     0
390
0
  6
Continuous
 62
     7
100
AcDbLine
 10
4.144656
 20
2.551754
 30
0.0
 11
4.027067
 21
2.551754
 31
0.0
  0
LINE
  5
4CE
100
AcDbEntity
  8
SEAL_RETAINER
370
     0
390
0
  6
Continuous
 62
     7
100
AcDbLine
 10
4.027067
 20
2.551754
 30
0.0
 11
4.027067
 21
2.445646
 31
0.0
  0
LINE
  5
4CF
100
AcDbEntity
  8
SEAL_RETAINER
370
     0
390
0
  6
Continuous
 62
     7
100
AcDbLine
 10
4.144656
 20
2.551754
 30
0.0
 11
4.459403
 21
2.551754
 31
0.0
  0
LINE
  5
4D0
100
AcDbEntity
  8
SEAL_RETAINER
370
     0
390
0
  6
Continuous
 62
     7
100
AcDbLine
 10
4.144656
 20
2.445646
 30
0.0
 11
4.459403
 21
2.445646
 31
0.0
  0
LINE
  5
4D1
100
AcDbEntity
  8
SEAL_RETAINER
370
     0
390
0
  6
Continuous
 62
     7
100
AcDbLine
 10
4.459403
 20
2.551754
 30
0.0
 11
4.459403
 21
2.445646
 31
0.0
  0
LINE
  5
4D2
100
AcDbEntity
  8
SEAL_RETAINER
370
     0
390
0
  6
Continuous
 62
     7
100
AcDbLine
 10
4.459403
 20
2.445646
 30
0.0
 11
4.576992
 21
2.445646
 31
0.0
  0
LINE
  5
4D3
100
AcDbEntity
  8
SEAL_RETAINER
370
     0
390
0
  6
Continuous
 62
     7
100
AcDbLine
 10
4.576992
 20
2.445646
 30
0.0
 11
4.576992
 21
2.551754
 31
0.0
  0
LINE
  5
4D4
100
AcDbEntity
  8
SEAL_RETAINER
370
     0
390
0
  6
Continuous
 62
     7
100
AcDbLine
 10
4.576992
 20
2.551754
 30
0.0
 11
4.459403
 21
2.551754
 31
0.0
  0
TEXT
  5
4D5
100
AcDbEntity
  8
SEAL_RETAINER
370
     0
390
0
  6
Continuous
 62
     7
100
AcDbText
 10
4.479388
 20
2.457872
 30
0.0
 40
0.0768
  1
A
  7
Vcadd_SIMP
 72
     1
 11
4.518479
 21
2.457872
 31
0.0
100
AcDbText
  0
TEXT
  5
4D6
100
AcDbEntity
  8
SEAL_RETAINER
370
     0
390
0
  6
Continuous
 62
     7
100
AcDbText
 10
4.183595
 20
2.460641
 30
0.0
 40
0.0768
  1
.002
  7
Vcadd_SIMP
 72
     1
 11
4.293502
 21
2.460641
 31
0.0
100
AcDbText
  0
TEXT
  5
4D7
100
AcDbEntity
  8
SEAL_RETAINER
370
     0
390
0
  6
Continuous
 62
     7
100
AcDbText
 10
4.617403
 20
2.507111
 30
0.0
 40
0.048
  1
THREAD AND
  7
Vcadd_SIMP
100
AcDbText
  0
TEXT
  5
4D8
100
AcDbEntity
  8
SEAL_RETAINER
370
     0
390
0
  6
Continuous
 62
     7
100
AcDbText
 10
4.617403
 20
2.444711
 30
0.0
 40
0.048
  1
ALL DIAMETERS
  7
Vcadd_SIMP
100
AcDbText
  0
LINE
  5
4D9
100
AcDbEntity
  8
SEAL_RETAINER
370
     0
390
0
  6
Continuous
 62
     7
100
AcDbLine
 10
4.043882
 20
2.458158
 30
0.0
 11
4.131493
 21
2.540146
 31
0.0
  0
INSERT
  5
4DA
100
AcDbEntity
  8
SEAL_RETAINER
370
     0
390
0
  6
Continuous
 62
     7
100
AcDbBlockReference
  2
ARROW
 10
4.131493
 20
2.540146
 30
0.0
 41
0.4
 42
0.4
 50
43.101453
  0
TEXT
  5
4DB
100
AcDbEntity
  8
SEAL_RETAINER
370
     0
390
0
  6
Continuous
 62
     7
100
AcDbText
 10
3.928719
 20
2.3865
 30
0.0
 40
0.04224
  1
* SOCKET WRENCH CLEARANCE DIAMETER.
  7
Vcadd_SIMP
100
AcDbText
  0
TEXT
  5
4DC
100
AcDbEntity
  8
SEAL_RETAINER
370
     0
390
0
  6
Continuous
 62
     7
100
AcDbText
 10
4.004321
 20
2.102141
 30
0.0
 40
0.04256
  1
NBOM CALLOUT: SUN STD T-52AD CAVITY
  7
Vcadd_SIMP
100
AcDbText
  0
TEXT
  5
4DD
100
AcDbEntity
  8
SEAL_RETAINER
370
     0
390
0
  6
Continuous
 62
     7
100
AcDbText
 10
4.004321
 20
2.048982
 30
0.0
 40
0.04256
  1
NBOM CODE:    T52AD
  7
Vcadd_SIMP
100
AcDbText
  0
TEXT
  5
4DE
100
AcDbEntity
  8
SEAL_RETAINER
370
     0
390
0
  6
Continuous
 62
     7
100
AcDbText
 10
4.004321
 20
2.159252
 30
0.0
 40
0.042528
  1
MINIMUM CENTERLINE-TO-CENTERLINE DISTANCE:1.375
  7
Vcadd_SIMP
100
AcDbText
  0
LINE
  5
4DF
100
AcDbEntity
  8
SEAL_RETAINER
370
     0
390
0
  6
Continuous
 62
     1
100
AcDbLine
 10
5.567038
 20
2.796285
 30
0.0
 11
6.161038
 21
2.796285
 31
0.0
  0
LINE
  5
4E0
100
AcDbEntity
  8
SEAL_RETAINER
370
     0
390
0
  6
Continuous
 62
     7
100
AcDbLine
 10
5.983623
 20
2.808431
 30
0.0
 11
6.023637
 21
2.892599
 31
0.0
  0
TEXT
  5
4E1
100
AcDbEntity
  8
SEAL_RETAINER
370
     0
390
0
  6
Continuous
 62
     7
100
AcDbText
 10
5.973514
 20
2.811914
 30
0.0
 40
0.081375
  1
O
  7
Vcadd_SIMP
100
AcDbText
  0
TEXT
  5
4E2
100
AcDbEntity
  8
SEAL_RETAINER
370
     0
390
0
  6
Continuous
 62
     7
100
AcDbText
 10
5.669805
 20
2.817361
 30
0.0
 40
0.071
  1
.594
  7
Vcadd_SIMP
100
AcDbText
  0
INSERT
  5
4E3
100
AcDbEntity
  8
SEAL_RETAINER
370
     0
390
0
  6
Continuous
 62
     1
100
AcDbBlockReference
  2
ARROW
 10
6.161038
 20
2.796285
 30
0.0
 41
0.5
 42
0.5
  0
INSERT
  5
4E4
100
AcDbEntity
  8
SEAL_RETAINER
370
     0
390
0
  6
Continuous
 62
     1
100
AcDbBlockReference
  2
ARROW
 10
5.567038
 20
2.796285
 30
0.0
 41
0.5
 42
0.5
 50
180.0
  0
LINE
  5
4E5
100
AcDbEntity
  8
0
370
     0
390
0
  6
Continuous
 62
     1
100
AcDbLine
 10
6.161038
 20
3.037482
 30
0.0
 11
6.161038
 21
2.750689
 31
0.0
  0
LINE
  5
4E6
100
AcDbEntity
  8
0
370
     0
390
0
  6
Continuous
 62
     1
100
AcDbLine
 10
5.567038
 20
3.037482
 30
0.0
 11
5.567038
 21
2.750689
 31
0.0
  0
TEXT
  5
4E7
100
AcDbEntity
  8
SEAL_RETAINER
370
     0
390
0
  6
Continuous
 62
     7
100
AcDbText
 10
6.105848
 20
2.680365
 30
0.0
 40
0.0528
  1
THE PORT 2 AND 3 AREAS ARE SHOWN ON
  7
Vcadd_SIMP
100
AcDbText
  0
TEXT
  5
4E8
100
AcDbEntity
  8
SEAL_RETAINER
370
     0
390
0
  6
Continuous
 62
     7
100
AcDbText
 10
6.105848
 20
2.611725
 30
0.0
 40
0.0528
  1
THE SAME FACE ONLY FOR DIMENSIONAL 
  7
Vcadd_SIMP
100
AcDbText
  0
TEXT
  5
4E9
100
AcDbEntity
  8
SEAL_RETAINER
370
     0
390
0
  6
Continuous
 62
     7
100
AcDbText
 10
6.105848
 20
2.543085
 30
0.0
 40
0.0528
  1
PURPOSES. THESE PORTS SHOULD BE 
  7
Vcadd_SIMP
100
AcDbText
  0
TEXT
  5
4EA
100
AcDbEntity
  8
SEAL_RETAINER
370
     0
390
0
  6
Continuous
 62
     7
100
AcDbText
 10
6.105848
 20
2.474445
 30
0.0
 40
0.0528
  1
MACHINED ON EITHER ADJACENT OR 
  7
Vcadd_SIMP
100
AcDbText
  0
TEXT
  5
4EB
100
AcDbEntity
  8
SEAL_RETAINER
370
     0
390
0
  6
Continuous
 62
     7
100
AcDbText
 10
6.105848
 20
2.405805
 30
0.0
 40
0.0528
  1
OPPOSITE FACES, DUE TO THE LIMITED 
  7
Vcadd_SIMP
100
AcDbText
  0
TEXT
  5
4EC
100
AcDbEntity
  8
SEAL_RETAINER
370
     0
390
0
  6
Continuous
 62
     7
100
AcDbText
 10
6.105848
 20
2.337165
 30
0.0
 40
0.0528
  1
DISTANCE BETWEEN THE PORTS AND 
  7
Vcadd_SIMP
100
AcDbText
  0
TEXT
  5
4ED
100
AcDbEntity
  8
SEAL_RETAINER
370
     0
390
0
  6
Continuous
 62
     7
100
AcDbText
 10
6.105848
 20
2.268525
 30
0.0
 40
0.0528
  1
THE SIZE OF THE PORT AREAS. IF
  7
Vcadd_SIMP
100
AcDbText
  0
TEXT
  5
4EE
100
AcDbEntity
  8
SEAL_RETAINER
370
     0
390
0
  6
Continuous
 62
     7
100
AcDbText
 10
6.105848
 20
2.199885
 30
0.0
 40
0.0528
  1
MACHINING ON OPPOSITE FACES, 
  7
Vcadd_SIMP
100
AcDbText
  0
TEXT
  5
4EF
100
AcDbEntity
  8
SEAL_RETAINER
370
     0
390
0
  6
Continuous
 62
     7
100
AcDbText
 10
6.105848
 20
2.131245
 30
0.0
 40
0.0528
  1
THE PREDRILLINGS SHOULD NOT EXTEND 
  7
Vcadd_SIMP
100
AcDbText
  0
TEXT
  5
4F0
100
AcDbEntity
  8
SEAL_RETAINER
370
     0
390
0
  6
Continuous
 62
     7
100
AcDbText
 10
6.105848
 20
2.062605
 30
0.0
 40
0.0528
  1
PAST THE CAVITY. SAE 4-BOLT FLANGE 
  7
Vcadd_SIMP
100
AcDbText
  0
TEXT
  5
4F1
100
AcDbEntity
  8
SEAL_RETAINER
370
     0
390
0
  6
Continuous
 62
     7
100
AcDbText
 10
6.105848
 20
1.993965
 30
0.0
 40
0.0528
  1
PORTS ARE HIGHLY RECOMMENDED 
  7
Vcadd_SIMP
100
AcDbText
  0
TEXT
  5
4F2
100
AcDbEntity
  8
SEAL_RETAINER
370
     0
390
0
  6
Continuous
 62
     7
100
AcDbText
 10
6.105848
 20
1.925325
 30
0.0
 40
0.0528
  1
OVER SAE THREADED PORTS.
  7
Vcadd_SIMP
100
AcDbText
  0
INSERT
  5
500
100
AcDbEntity
  8
0
370
     0
390
0
  6
Continuous
 62
     1
100
AcDbBlockReference
  2
STAR
 10
7.126737
 20
6.317226
 30
0.0
 41
0.5
 42
0.5
  0
INSERT
  5
501
100
AcDbEntity
  8
0
370
     0
390
0
  6
Continuous
 62
     1
100
AcDbBlockReference
  2
STAR
 10
7.073405
 20
4.399611
 30
0.0
 41
0.5
 42
0.5
  0
INSERT
  5
502
100
AcDbEntity
  8
0
370
     0
390
0
  6
Continuous
 62
     1
100
AcDbBlockReference
  2
STAR
 10
6.001193
 20
2.608586
 30
0.0
 41
0.5
 42
0.5
  0
ENDSEC
  0
SECTION
  2
OBJECTS
  0
DICTIONARY
  5
19
100
AcDbDictionary
280
     0
281
     1
  3
ACAD_GROUP
350
1A
  3
ACAD_MLINESTYLE
350
1B
  3
ACAD_LAYOUT
350
1E
  3
ACAD_PLOTSETTINGS
350
22
  3
ACAD_PLOTSTYLENAME
350
1F
  3
ACAD_WIPEOUT_VARS
350
23
  0
DICTIONARY
  5
1A
102
{ACAD_REACTORS
330
19
102
}
100
AcDbDictionary
280
     0
281
     1
  0
DICTIONARY
  5
1B
102
{ACAD_REACTORS
330
19
102
}
100
AcDbDictionary
280
     0
281
     1
  3
Standard
350
1C
  0
MLINESTYLE
  5
1C
102
{ACAD_REACTORS
330
1B
102
}
100
AcDbMlineStyle
  2
Standard
 70
     0
  3

 62
     0
 51
90.0
 52
90.0
 71
     2
 49
0.5
 62
   256
  6
ByLayer
 49
-0.5
 62
   256
  6
ByLayer
  0
ACDBDICTIONARYWDFLT
  5
1F
102
{ACAD_REACTORS
330
19
102
}
100
AcDbDictionary
281
     1
  3
Normal
350
1D
100
AcDbDictionaryWithDefault
340
1D
  0
ACDBPLACEHOLDER
  5
1D
102
{ACAD_REACTORS
330
1F
102
}
  0
LAYOUT
  5
20
102
{ACAD_REACTORS
330
1E
102
}
100
AcDbPlotSettings
  1

  2

  4

  6

 40
0.0
 41
0.0
 42
0.0
 43
0.0
 44
0.0
 45
0.0
 46
0.0
 47
0.0
 48
0.0
 49
0.0
140
0.0
141
0.0
142
1.0
143
1.0
 70
  1024
 72
     0
 73
     0
 74
     0
  7

 75
     0
147
1.0
148
0.0
149
0.0
100
AcDbLayout
  1
Model
 70
     0
 71
     0
 10
0.0
 20
0.0
 11
0.0
 21
0.0
 12
0.0
 22
0.0
 32
0.0
 14
0.0
 24
0.0
 34
0.0
 15
0.0
 25
0.0
 35
0.0
146
0.0
 13
0.0
 23
0.0
 33
0.0
 16
0.0
 26
0.0
 36
0.0
 17
0.0
 27
0.0
 37
0.0
 76
     0
330
A
331
0
345
0
346
0
  0
LAYOUT
  5
21
102
{ACAD_REACTORS
330
1E
102
}
100
AcDbPlotSettings
  1

  2

  4

  6

 40
0.0
 41
0.0
 42
0.0
 43
0.0
 44
0.0
 45
0.0
 46
0.0
 47
0.0
 48
0.0
 49
0.0
140
0.0
141
0.0
142
1.0
143
1.0
 70
     0
 72
     0
 73
     0
 74
     0
  7

 75
     0
147
1.0
148
0.0
149
0.0
100
AcDbLayout
  1
Layout1
 70
     0
 71
     0
 10
0.0
 20
0.0
 11
0.0
 21
0.0
 12
0.0
 22
0.0
 32
0.0
 14
0.0
 24
0.0
 34
0.0
 15
0.0
 25
0.0
 35
0.0
146
0.0
 13
0.0
 23
0.0
 33
0.0
 16
0.0
 26
0.0
 36
0.0
 17
0.0
 27
0.0
 37
0.0
 76
     0
330
B
331
0
345
0
346
0
  0
DICTIONARY
  5
1E
102
{ACAD_REACTORS
330
19
102
}
100
AcDbDictionary
280
     0
281
     1
  3
Layout1
350
21
  3
Model
350
20
  0
DICTIONARY
  5
22
102
{ACAD_REACTORS
330
19
102
}
100
AcDbDictionary
280
     0
281
     1
  0
WIPEOUTVARIABLES
  5
23
100
AcDbWipeoutVariables
 70
     1
  0
ENDSEC
  0
EOF
