  0
SECTION
  2
HEADER
  9
$ACADVER
  1
AC1015
  9
$ACADMAINTVER
 70
     6
  9
$DWGCODEPAGE
  3
ANSI_1253
  9
$INSBASE
 10
0.0
 20
0.0
 30
0.0
  9
$EXTMIN
 10
19.465992
 20
11.429572
 30
0.0
  9
$EXTMAX
 10
29.481012
 20
27.433277
 30
0.0
  9
$LIMMIN
 10
0.0
 20
0.0
  9
$LIMMAX
 10
0.0
 20
0.0
  9
$ORTHOMODE
 70
     0
  9
$REGENMODE
 70
     1
  9
$FILLMODE
 70
     1
  9
$QTEXTMODE
 70
     0
  9
$MIRRTEXT
 70
     1
  9
$LTSCALE
 40
1.0
  9
$ATTMODE
 70
     1
  9
$TEXTSIZE
 40
0.2
  9
$TRACEWID
 40
0.05
  9
$TEXTSTYLE
  7
Standard
  9
$CLAYER
  8
0
  9
$CELTYPE
  6
Continuous
  9
$CECOLOR
 62
   256
  9
$CELTSCALE
 40
1.0
  9
$DISPSILH
 70
     0
  9
$DIMSCALE
 40
1.0
  9
$DIMASZ
 40
0.18
  9
$DIMEXO
 40
0.0625
  9
$DIMDLI
 40
0.38
  9
$DIMRND
 40
0.0
  9
$DIMDLE
 40
0.0
  9
$DIMEXE
 40
0.18
  9
$DIMTP
 40
0.0
  9
$DIMTM
 40
0.0
  9
$DIMTXT
 40
0.18
  9
$DIMCEN
 40
0.09
  9
$DIMTSZ
 40
0.0
  9
$DIMTOL
 70
     0
  9
$DIMLIM
 70
     0
  9
$DIMTIH
 70
     1
  9
$DIMTOH
 70
     1
  9
$DIMSE1
 70
     0
  9
$DIMSE2
 70
     0
  9
$DIMTAD
 70
     0
  9
$DIMZIN
 70
     0
  9
$DIMBLK
  1

  9
$DIMASO
 70
     1
  9
$DIMSHO
 70
     1
  9
$DIMPOST
  1

  9
$DIMAPOST
  1

  9
$DIMALT
 70
     0
  9
$DIMALTD
 70
     2
  9
$DIMALTF
 40
25.4
  9
$DIMLFAC
 40
1.0
  9
$DIMTOFL
 70
     0
  9
$DIMTVP
 40
0.0
  9
$DIMTIX
 70
     0
  9
$DIMSOXD
 70
     0
  9
$DIMSAH
 70
     0
  9
$DIMBLK1
  1

  9
$DIMBLK2
  1

  9
$DIMSTYLE
  2
Standard
  9
$DIMCLRD
 70
     0
  9
$DIMCLRE
 70
     0
  9
$DIMCLRT
 70
     0
  9
$DIMTFAC
 40
1.0
  9
$DIMGAP
 40
0.09
  9
$DIMJUST
 70
     0
  9
$DIMSD1
 70
     0
  9
$DIMSD2
 70
     0
  9
$DIMTOLJ
 70
     1
  9
$DIMTZIN
 70
     0
  9
$DIMALTZ
 70
     0
  9
$DIMALTTZ
 70
     0
  9
$DIMUPT
 70
     0
  9
$DIMDEC
 70
     4
  9
$DIMTDEC
 70
     4
  9
$DIMALTU
 70
     2
  9
$DIMALTTD
 70
     2
  9
$DIMTXSTY
  7
Standard
  9
$DIMAUNIT
 70
     0
  9
$DIMADEC
 70
     0
  9
$DIMALTRND
 40
0.0
  9
$DIMAZIN
 70
     0
  9
$DIMDSEP
 70
     0
  9
$DIMATFIT
 70
     3
  9
$DIMFRAC
 70
     0
  9
$DIMLDRBLK
  1

  9
$DIMLUNIT
 70
     2
  9
$DIMLWD
 70
     0
  9
$DIMLWE
 70
     0
  9
$DIMTMOVE
 70
     0
  9
$LUNITS
 70
     2
  9
$LUPREC
 70
     4
  9
$SKETCHINC
 40
0.1
  9
$FILLETRAD
 40
0.0
  9
$AUNITS
 70
     0
  9
$AUPREC
 70
     0
  9
$MENU
  1
acad
  9
$ELEVATION
 40
0.0
  9
$PELEVATION
 40
0.0
  9
$THICKNESS
 40
0.0
  9
$LIMCHECK
 70
     0
  9
$CHAMFERA
 40
0.0
  9
$CHAMFERB
 40
0.0
  9
$CHAMFERC
 40
0.0
  9
$CHAMFERD
 40
0.0
  9
$SKPOLY
 70
     0
  9
$TDCREATE
 40
0.000000000
  9
$TDUCREATE
 40
0.000000000
  9
$TDUPDATE
 40
0.000000000
  9
$TDUUPDATE
 40
0.000000000
  9
$TDINDWG
 40
0.0000000000
  9
$TDUSRTIMER
 40
0.0000000000
  9
$USRTIMER
 70
     1
  9
$ANGBASE
 50
0.0
  9
$ANGDIR
 70
     0
  9
$PDMODE
 70
     2
  9
$PDSIZE
 40
-1.0
  9
$PLINEWID
 40
0.0
  9
$SPLFRAME
 70
     0
  9
$SPLINETYPE
 70
     6
  9
$SPLINESEGS
 70
     8
  9
$HANDSEED
  5
34A
  9
$SURFTAB1
 70
     6
  9
$SURFTAB2
 70
     6
  9
$SURFTYPE
 70
     6
  9
$SURFU
 70
     6
  9
$SURFV
 70
     6
  9
$UCSBASE
  2

  9
$UCSNAME
  2

  9
$UCSORG
 10
0.0
 20
0.0
 30
0.0
  9
$UCSXDIR
 10
1.0
 20
0.0
 30
0.0
  9
$UCSYDIR
 10
0.0
 20
1.0
 30
0.0
  9
$UCSORTHOREF
  2

  9
$UCSORTHOVIEW
 70
     0
  9
$UCSORGTOP
 10
0.0
 20
0.0
 30
0.0
  9
$UCSORGBOTTOM
 10
0.0
 20
0.0
 30
0.0
  9
$UCSORGLEFT
 10
0.0
 20
0.0
 30
0.0
  9
$UCSORGRIGHT
 10
0.0
 20
0.0
 30
0.0
  9
$UCSORGFRONT
 10
0.0
 20
0.0
 30
0.0
  9
$UCSORGBACK
 10
0.0
 20
0.0
 30
0.0
  9
$PUCSBASE
  2

  9
$PUCSNAME
  2

  9
$PUCSORG
 10
0.0
 20
0.0
 30
0.0
  9
$PUCSXDIR
 10
1.0
 20
0.0
 30
0.0
  9
$PUCSYDIR
 10
0.0
 20
1.0
 30
0.0
  9
$PUCSORTHOREF
  2

  9
$PUCSORTHOVIEW
 70
     0
  9
$PUCSORGTOP
 10
0.0
 20
0.0
 30
0.0
  9
$PUCSORGBOTTOM
 10
0.0
 20
0.0
 30
0.0
  9
$PUCSORGLEFT
 10
0.0
 20
0.0
 30
0.0
  9
$PUCSORGRIGHT
 10
0.0
 20
0.0
 30
0.0
  9
$PUCSORGFRONT
 10
0.0
 20
0.0
 30
0.0
  9
$PUCSORGBACK
 10
0.0
 20
0.0
 30
0.0
  9
$USERI1
 70
     0
  9
$USERI2
 70
     0
  9
$USERI3
 70
     0
  9
$USERI4
 70
     0
  9
$USERI5
 70
     0
  9
$USERR1
 40
0.0
  9
$USERR2
 40
0.0
  9
$USERR3
 40
0.0
  9
$USERR4
 40
0.0
  9
$USERR5
 40
0.0
  9
$WORLDVIEW
 70
     1
  9
$SHADEDGE
 70
     3
  9
$SHADEDIF
 70
    70
  9
$TILEMODE
 70
     1
  9
$MAXACTVP
 70
    16
  9
$PINSBASE
 10
0.0
 20
0.0
 30
0.0
  9
$PLIMCHECK
 70
     0
  9
$PEXTMIN
 10
1.000000E+20
 20
1.000000E+20
 30
1.000000E+20
  9
$PEXTMAX
 10
-1.000000E+20
 20
-1.000000E+20
 30
-1.000000E+20
  9
$PLIMMIN
 10
0.0
 20
0.0
  9
$PLIMMAX
 10
12.0
 20
9.0
  9
$UNITMODE
 70
     0
  9
$VISRETAIN
 70
     0
  9
$PLINEGEN
 70
     1
  9
$PSLTSCALE
 70
     0
  9
$TREEDEPTH
 70
  3020
  9
$CMLSTYLE
  2
Standard
  9
$CMLJUST
 70
     0
  9
$CMLSCALE
 40
1.0
  9
$PROXYGRAPHICS
 70
     0
  9
$MEASUREMENT
 70
     0
  9
$CELWEIGHT
370
     0
  9
$ENDCAPS
280
     0
  9
$JOINSTYLE
280
     0
  9
$LWDISPLAY
290
     1
  9
$INSUNITS
 70
     0
  9
$HYPERLINKBASE
  1

  9
$STYLESHEET
  1

  9
$XEDIT
290
     1
  9
$CEPSNTYPE
380
     0
  9
$PSTYLEMODE
290
     1
  9
$FINGERPRINTGUID
  2

  9
$VERSIONGUID
  2

  9
$EXTNAMES
290
     1
  9
$PSVPSCALE
 40
0.0
  0
ENDSEC
  0
SECTION
  2
CLASSES
  0
CLASS
  1
LWPOLYLINE
  2
AcDbPolyline
  3
AutoCAD 2000
 90
        0
280
     0
281
     1
  0
CLASS
  1
IMAGE
  2
AcDbRasterImage
  3
ISM
 90
      127
280
     0
281
     1
  0
CLASS
  1
OLE2FRAME
  2
AcDbOle2Frame
  3
AutoCAD 2000
 90
        0
280
     0
281
     1
  0
CLASS
  1
HATCH
  2
AcDbHatch
  3
AutoCAD 2000
 90
        0
280
     0
281
     1
  0
CLASS
  1
DICTIONARYVAR
  2
AcDbDictionaryVar
  3
AutoCAD 2000
 90
        0
280
     0
281
     0
  0
CLASS
  1
RASTERVARIABLES
  2
AcDbRasterVariables
  3
ISM
 90
        0
280
     0
281
     0
  0
CLASS
  1
IMAGEDEF
  2
AcDbRasterImageDef
  3
ISM
 90
        0
280
     0
281
     0
  0
CLASS
  1
IMAGEDEF_REACTOR
  2
AcDbRasterImageDefReactor
  3
ISM
 90
        1
280
     0
281
     0
  0
CLASS
  1
IDBUFFER
  2
AcDbIdBuffer
  3
AutoCAD 2000
 90
        0
280
     0
281
     0
  0
CLASS
  1
SPATIAL_FILTER
  2
AcDbSpatialFilter
  3
AutoCAD 2000
 90
        0
280
     0
281
     0
  0
CLASS
  1
XRECORD
  2
AcDbXrecord
  3
AutoCAD 2000
 90
        0
280
     0
281
     0
  0
CLASS
  1
SORTENTSTABLE
  2
AcDbSortentsTable
  3
AutoCAD 2000
 90
        0
280
     0
281
     0
  0
CLASS
  1
LAYER_INDEX
  2
AcDbLayerIndex
  3
AutoCAD 2000
 90
        0
280
     0
281
     0
  0
CLASS
  1
SPATIAL_INDEX
  2
AcDbSpatialIndex
  3
AutoCAD 2000
 90
        0
280
     0
281
     0
  0
CLASS
  1
OBJECT_PTR
  2
CAseDLPNTableRecord
  3
"ASE-LPNTableRecord"
 90
        1
280
     0
281
     0
  0
CLASS
  1
LAYOUT
  2
AcDbLayout
  3
AutoCAD 2000
 90
        0
280
     0
281
     0
  0
CLASS
  1
PLOTSETTINGS
  2
AcDbPlotSettings
  3
AutoCAD 2000
 90
        0
280
     0
281
     0
  0
CLASS
  1
ACDBDICTIONARYWDFLT
  2
AcDbDictionaryWithDefault
  3
AutoCAD 2000
 90
        0
280
     0
281
     0
  0
CLASS
  1
ACDBPLACEHOLDER
  2
AcDbPlaceHolder
  3
AutoCAD 2000
 90
        0
280
     0
281
     0
  0
CLASS
  1
VBA_PROJECT
  2
AcDbVbaProject
  3
acadvba
 90
        0
280
     0
281
     0
  0
CLASS
  1
WIPEOUT
  2
AcDbWipeout
  3
WipeOut|AutoCAD Express Tool|expresstools@autodesk.com
 90
      127
280
     0
281
     1
  0
CLASS
  1
WIPEOUTVARIABLES
  2
AcDbWipeoutVariables
  3
WipeOut|AutoCAD Express Tool|expresstools@autodesk.com
 90
        0
280
     0
281
     0
  0
CLASS
  1
RTEXT
  2
RText
  3
RText|AutoCAD Express Tool|expresstools@autodesk.com
 90
        0
280
     0
281
     1
  0
CLASS
  1
ARCALIGNEDTEXT
  2
AcDbArcAlignedText
  3
ATEXT|AutoCAD Express Tool|expresstools@autodesk.com
 90
        0
280
     0
281
     1
  0
ENDSEC
  0
SECTION
  2
TABLES
  0
TABLE
  2
VPORT
  5
7
100
AcDbSymbolTable
 70
     2
  0
VPORT
  5
15
100
AcDbSymbolTableRecord
100
AcDbViewportTableRecord
  2
*ACTIVE
 70
     0
 10
0.0
 20
0.0
 11
1.0
 21
1.0
 12
6.591288
 22
4.579184
 13
0.0
 23
0.0
 14
1.0
 24
1.0
 15
0.0
 25
0.0
 16
0.0
 26
0.0
 36
1.0
 17
0.0
 27
0.0
 37
0.0
 40
9.158369
 41
0.688564
 42
50.0
 43
0.0
 44
0.0
 50
0.0
 51
0.0
 71
     0
 72
   100
 73
     1
 74
     1
 75
     0
 76
     0
 77
     0
 78
     0
281
     0
 65
     0
110
0.0
120
0.0
130
0.0
111
1.0
121
0.0
131
0.0
112
0.0
122
1.0
132
0.0
345
0
346
0
 79
     0
146
0.0
  0
VPORT
  5
349
100
AcDbSymbolTableRecord
100
AcDbViewportTableRecord
  2
MYVPORT
 70
     0
 10
0.0
 20
0.0
 11
1.0
 21
1.0
 12
6.21
 22
9.02
 13
0.0
 23
0.0
 14
1.0
 24
1.0
 15
0.0
 25
0.0
 16
0.0
 26
0.0
 36
1.0
 17
0.0
 27
0.0
 37
0.0
 40
18.04
 41
0.688564
 42
50.0
 43
0.0
 44
0.0
 50
0.0
 51
0.0
 71
     0
 72
   100
 73
     1
 74
     1
 75
     0
 76
     0
 77
     0
 78
     0
281
     0
 65
     0
110
0.0
120
0.0
130
0.0
111
1.0
121
0.0
131
0.0
112
0.0
122
1.0
132
0.0
345
0
346
0
 79
     0
146
0.0
  0
ENDTAB
  0
TABLE
  2
LTYPE
  5
4
100
AcDbSymbolTable
 70
     7
  0
LTYPE
  5
11
100
AcDbSymbolTableRecord
100
AcDbLinetypeTableRecord
  2
ByBlock
 70
    64
  3

 72
    65
 73
     0
 40
0.0
  0
LTYPE
  5
12
100
AcDbSymbolTableRecord
100
AcDbLinetypeTableRecord
  2
ByLayer
 70
    64
  3

 72
    65
 73
     0
 40
0.0
  0
LTYPE
  5
13
100
AcDbSymbolTableRecord
100
AcDbLinetypeTableRecord
  2
Continuous
 70
    64
  3
Solid line
 72
    65
 73
     0
 40
0.0
  0
LTYPE
  5
5B
100
AcDbSymbolTableRecord
100
AcDbLinetypeTableRecord
  2
DIVIDE
 70
    64
  3
Visual CADD Translation
 72
    65
 73
     6
 40
1.0
 49
0.6
 74
     0
 49
-0.133
 74
     0
 49
0.0
 74
     0
 49
-0.134
 74
     0
 49
0.0
 74
     0
 49
-0.133
 74
     0
  0
LTYPE
  5
76
100
AcDbSymbolTableRecord
100
AcDbLinetypeTableRecord
  2
CL____X1
 70
    64
  3
Visual CADD Translation
 72
    65
 73
     4
 40
1.33
 49
0.05
 74
     0
 49
-0.05
 74
     0
 49
1.18
 74
     0
 49
-0.05
 74
     0
  0
LTYPE
  5
1A6
100
AcDbSymbolTableRecord
100
AcDbLinetypeTableRecord
  2
TYPE___8
 70
    64
  3
Visual CADD Translation
 72
    65
 73
     6
 40
1.0
 49
0.6
 74
     0
 49
-0.08
 74
     0
 49
0.08
 74
     0
 49
-0.08
 74
     0
 49
0.08
 74
     0
 49
-0.08
 74
     0
  0
LTYPE
  5
1B8
100
AcDbSymbolTableRecord
100
AcDbLinetypeTableRecord
  2
PHANTOM
 70
    64
  3
Visual CADD Translation
 72
    65
 73
     6
 40
1.37
 49
0.99
 74
     0
 49
-0.05
 74
     0
 49
0.115
 74
     0
 49
-0.05
 74
     0
 49
0.115
 74
     0
 49
-0.05
 74
     0
  0
ENDTAB
  0
TABLE
  2
LAYER
  5
2
100
AcDbSymbolTable
 70
     8
  0
LAYER
  5
14
100
AcDbSymbolTableRecord
100
AcDbLayerTableRecord
  2
0
 70
     0
 62
     7
  6
Continuous
290
     1
370
    -3
390
1D
  0
LAYER
  5
24
100
AcDbSymbolTableRecord
100
AcDbLayerTableRecord
  2
1
 70
     0
 62
     7
  6
Continuous
290
     1
370
    -3
390
1D
  0
LAYER
  5
25
100
AcDbSymbolTableRecord
100
AcDbLayerTableRecord
  2
2
 70
     0
 62
     7
  6
Continuous
290
     1
370
    -3
390
1D
  0
LAYER
  5
26
100
AcDbSymbolTableRecord
100
AcDbLayerTableRecord
  2
3
 70
     0
 62
     7
  6
Continuous
290
     1
370
    -3
390
1D
  0
LAYER
  5
27
100
AcDbSymbolTableRecord
100
AcDbLayerTableRecord
  2
4
 70
     0
 62
     7
  6
Continuous
290
     1
370
    -3
390
1D
  0
LAYER
  5
28
100
AcDbSymbolTableRecord
100
AcDbLayerTableRecord
  2
14
 70
     0
 62
     7
  6
Continuous
290
     1
370
    -3
390
1D
  0
LAYER
  5
29
100
AcDbSymbolTableRecord
100
AcDbLayerTableRecord
  2
100
 70
     0
 62
     7
  6
Continuous
290
     1
370
    -3
390
1D
  0
LAYER
  5
22C
100
AcDbSymbolTableRecord
100
AcDbLayerTableRecord
  2
9
 70
     0
 62
     7
  6
Continuous
290
     1
370
    -3
390
1D
  0
ENDTAB
  0
TABLE
  2
STYLE
  5
3
100
AcDbSymbolTable
 70
     3
  0
STYLE
  5
17
100
AcDbSymbolTableRecord
100
AcDbTextStyleTableRecord
  2
Standard
 70
     0
 40
0.0
 41
1.0
 50
0.0
 71
     0
 42
0.0
  3
txt
  4

  0
STYLE
  5
31
100
AcDbSymbolTableRecord
100
AcDbTextStyleTableRecord
  2
Vcadd_Main
 70
     0
 40
0.0
 41
1.0
 50
0.0
 71
     0
 42
0.0
  3
Main
  4

  0
STYLE
  5
13D
100
AcDbSymbolTableRecord
100
AcDbTextStyleTableRecord
  2
Vcadd_SIMP
 70
     0
 40
0.0
 41
1.0
 50
0.0
 71
     0
 42
0.0
  3
SIMP
  4

  0
ENDTAB
  0
TABLE
  2
VIEW
  5
5
100
AcDbSymbolTable
 70
     0
  0
ENDTAB
  0
TABLE
  2
UCS
  5
6
100
AcDbSymbolTable
 70
     1
  0
UCS
  5
348
100
AcDbSymbolTableRecord
100
AcDbUCSTableRecord
  2
MYUCS
 70
     0
 10
0.0
 20
0.0
 30
0.0
 11
0.0
 21
1.0
 31
0.0
 12
0.0
 22
0.0
 32
1.0
 79
     0
146
0.0
  0
ENDTAB
  0
TABLE
  2
APPID
  5
8
100
AcDbSymbolTable
 70
     1
  0
APPID
  5
16
100
AcDbSymbolTableRecord
100
AcDbRegAppTableRecord
  2
ACAD
 70
     0
  0
ENDTAB
  0
TABLE
  2
DIMSTYLE
  5
9
100
AcDbSymbolTable
 70
     2
100
AcDbDimStyleTable
 71
     0
  0
DIMSTYLE
105
18
100
AcDbSymbolTableRecord
100
AcDbDimStyleTableRecord
  2
Standard
 70
     0
  3

  4

 40
1.0
 41
0.18
 42
0.0625
 43
0.38
 44
0.18
 45
0.0
 46
0.0
 47
0.0
 48
0.0
 71
     0
 72
     0
 73
     1
 74
     1
 75
     0
 76
     0
 77
     0
 78
     0
 79
     0
140
0.18
141
0.09
142
0.0
143
25.4
144
1.0
145
0.0
146
1.0
147
0.09
148
0.0
170
     0
171
     2
172
     0
173
     0
174
     0
175
     0
176
     0
177
     0
178
     0
179
     0
271
     4
272
     4
273
     2
274
     2
275
     0
276
     0
277
     2
278
    46
279
     0
280
     0
281
     0
282
     0
283
     1
284
     0
285
     0
286
     0
288
     0
289
     3
340
17
341
0
342
0
343
0
344
0
371
    -2
372
    -2
  0
DIMSTYLE
105
32
100
AcDbSymbolTableRecord
100
AcDbDimStyleTableRecord
  2
VCADD_DIMSTYLE
 70
     0
  3

  4

 40
1.0
 41
2.5
 42
0.1
 43
0.0
 44
0.1
 45
0.0
 46
0.0
 47
0.003
 48
0.002
 71
     0
 72
     0
 73
     1
 74
     1
 75
     0
 76
     0
 77
     0
 78
     3
 79
     1
140
0.1
141
0.0
142
0.0
143
1.0
144
1.0
145
0.0
146
1.0
147
0.2
148
0.0
170
     0
171
     3
172
     0
173
     0
174
     1
175
     0
176
     0
177
     0
178
     0
179
     3
271
     3
272
     4
273
     2
274
     2
275
     0
276
     0
277
     2
278
    46
279
     0
280
     0
281
     0
282
     0
283
     1
284
     0
285
     0
286
     0
288
     0
289
     3
340
31
341
0
342
0
343
0
344
0
371
    -2
372
    -2
  0
ENDTAB
  0
TABLE
  2
BLOCK_RECORD
  5
1
100
AcDbSymbolTable
 70
     5
  0
BLOCK_RECORD
  5
A
100
AcDbSymbolTableRecord
100
AcDbBlockTableRecord
  2
*MODEL_SPACE
340
20
  0
BLOCK_RECORD
  5
B
100
AcDbSymbolTableRecord
100
AcDbBlockTableRecord
  2
*PAPER_SPACE
340
21
  0
BLOCK_RECORD
  5
2A
100
AcDbSymbolTableRecord
100
AcDbBlockTableRecord
  2
_CLOSED
340
0
  0
BLOCK_RECORD
  5
17E
100
AcDbSymbolTableRecord
100
AcDbBlockTableRecord
  2
MAU
340
0
102
{BLKREFS
331
18B
331
19C
102
}
  0
BLOCK_RECORD
  5
18D
100
AcDbSymbolTableRecord
100
AcDbBlockTableRecord
  2
MAL
340
0
102
{BLKREFS
331
19A
102
}
  0
BLOCK_RECORD
  5
22A
100
AcDbSymbolTableRecord
100
AcDbBlockTableRecord
  2
ARROW
340
0
102
{BLKREFS
331
232
331
233
331
234
331
235
331
236
331
237
331
238
331
239
331
23A
331
23B
331
23C
331
23D
331
23E
331
23F
331
240
331
241
331
242
331
243
331
246
331
26A
331
26B
102
}
  0
BLOCK_RECORD
  5
326
100
AcDbSymbolTableRecord
100
AcDbBlockTableRecord
  2
METRIC_TOL
340
0
102
{BLKREFS
331
33D
102
}
  0
ENDTAB
  0
ENDSEC
  0
SECTION
  2
BLOCKS
  0
BLOCK
  5
D
100
AcDbEntity
  8
0
390
0
100
AcDbBlockBegin
  2
*MODEL_SPACE
 70
     0
 10
0.0
 20
0.0
 30
0.0
  3
*MODEL_SPACE
  1

  0
ENDBLK
  5
E
100
AcDbEntity
  8
0
390
0
100
AcDbBlockEnd
  0
BLOCK
  5
F
100
AcDbEntity
 67
     1
  8
0
390
0
100
AcDbBlockBegin
  2
*PAPER_SPACE
 70
     0
 10
0.0
 20
0.0
 30
0.0
  3
*PAPER_SPACE
  1

  0
ENDBLK
  5
10
100
AcDbEntity
 67
     1
  8
0
390
0
100
AcDbBlockEnd
  0
BLOCK
  5
2B
100
AcDbEntity
  8
0
390
0
100
AcDbBlockBegin
  2
_CLOSED
 70
     0
 10
0.0
 20
0.0
 30
0.0
  3
_CLOSED
  1

  0
LINE
  5
2C
100
AcDbEntity
  8
0
370
    -2
390
0
  6
ByBlock
 62
     0
100
AcDbLine
 10
-1.0
 20
0.166667
 30
0.0
 11
0.0
 21
0.0
 31
0.0
  0
LINE
  5
2D
100
AcDbEntity
  8
0
370
    -2
390
0
  6
ByBlock
 62
     0
100
AcDbLine
 10
0.0
 20
0.0
 30
0.0
 11
-1.0
 21
-0.166667
 31
0.0
  0
LINE
  5
2E
100
AcDbEntity
  8
0
370
    -2
390
0
  6
ByBlock
 62
     0
100
AcDbLine
 10
-1.0
 20
0.166667
 30
0.0
 11
-1.0
 21
-0.166667
 31
0.0
  0
LINE
  5
2F
100
AcDbEntity
  8
0
370
    -2
390
0
  6
ByBlock
 62
     0
100
AcDbLine
 10
0.0
 20
0.0
 30
0.0
 11
-1.0
 21
0.0
 31
0.0
  0
ENDBLK
  5
30
100
AcDbEntity
  8
0
390
0
100
AcDbBlockEnd
  0
BLOCK
  5
17F
100
AcDbEntity
  8
0
390
0
100
AcDbBlockBegin
  2
MAU
 70
     0
 10
0.0
 20
0.0
 30
0.0
  3
MAU
  1

  0
LINE
  5
180
100
AcDbEntity
  8
0
370
     0
390
0
  6
Continuous
 62
     2
100
AcDbLine
 10
0.0
 20
0.0
 30
0.0
 11
-0.024965
 21
-0.169856
 31
0.0
  0
LINE
  5
181
100
AcDbEntity
  8
0
370
     0
390
0
  6
Continuous
 62
     2
100
AcDbLine
 10
0.0
 20
0.0
 30
0.0
 11
0.022192
 21
-0.169856
 31
0.0
  0
LINE
  5
182
100
AcDbEntity
  8
0
370
     0
390
0
  6
Continuous
 62
     2
100
AcDbLine
 10
0.022192
 20
-0.169856
 30
0.0
 11
-0.024965
 21
-0.169856
 31
0.0
  0
LINE
  5
183
100
AcDbEntity
  8
0
370
     0
390
0
  6
Continuous
 62
     7
100
AcDbLine
 10
-0.015773
 20
-0.160825
 30
0.0
 11
0.013481
 21
-0.160825
 31
0.0
  0
LINE
  5
184
100
AcDbEntity
  8
0
370
     0
390
0
  6
Continuous
 62
     7
100
AcDbLine
 10
0.013481
 20
-0.160825
 30
0.0
 11
-0.000196
 21
-0.036413
 31
0.0
  0
LINE
  5
185
100
AcDbEntity
  8
0
370
     0
390
0
  6
Continuous
 62
     7
100
AcDbLine
 10
-0.015773
 20
-0.160825
 30
0.0
 11
-0.000196
 21
-0.036413
 31
0.0
  0
LINE
  5
186
100
AcDbEntity
  8
0
370
     0
390
0
  6
Continuous
 62
     7
100
AcDbLine
 10
-0.006656
 20
-0.149436
 30
0.0
 11
-0.000576
 21
-0.078031
 31
0.0
  0
LINE
  5
187
100
AcDbEntity
  8
0
370
     0
390
0
  6
Continuous
 62
     7
100
AcDbLine
 10
-0.006656
 20
-0.149436
 30
0.0
 11
0.005122
 21
-0.149436
 31
0.0
  0
LINE
  5
188
100
AcDbEntity
  8
0
370
     0
390
0
  6
Continuous
 62
     7
100
AcDbLine
 10
0.005122
 20
-0.149436
 30
0.0
 11
-0.000576
 21
-0.078031
 31
0.0
  0
LINE
  5
189
100
AcDbEntity
  8
0
370
     0
390
0
  6
Continuous
 62
     7
100
AcDbLine
 10
-0.000957
 20
-0.142427
 30
0.0
 11
-0.000957
 21
-0.119647
 31
0.0
  0
ENDBLK
  5
18A
100
AcDbEntity
  8
0
390
0
100
AcDbBlockEnd
  0
BLOCK
  5
18E
100
AcDbEntity
  8
0
390
0
100
AcDbBlockBegin
  2
MAL
 70
     0
 10
0.0
 20
0.0
 30
0.0
  3
MAL
  1

  0
LINE
  5
18F
100
AcDbEntity
  8
0
370
     0
390
0
  6
Continuous
 62
     2
100
AcDbLine
 10
0.0
 20
0.0
 30
0.0
 11
0.169856
 21
0.024965
 31
0.0
  0
LINE
  5
190
100
AcDbEntity
  8
0
370
     0
390
0
  6
Continuous
 62
     2
100
AcDbLine
 10
0.0
 20
0.0
 30
0.0
 11
0.169856
 21
-0.022192
 31
0.0
  0
LINE
  5
191
100
AcDbEntity
  8
0
370
     0
390
0
  6
Continuous
 62
     2
100
AcDbLine
 10
0.169856
 20
-0.022192
 30
0.0
 11
0.169856
 21
0.024965
 31
0.0
  0
LINE
  5
192
100
AcDbEntity
  8
0
370
     0
390
0
  6
Continuous
 62
     7
100
AcDbLine
 10
0.160825
 20
0.015773
 30
0.0
 11
0.160825
 21
-0.013481
 31
0.0
  0
LINE
  5
193
100
AcDbEntity
  8
0
370
     0
390
0
  6
Continuous
 62
     7
100
AcDbLine
 10
0.160825
 20
-0.013481
 30
0.0
 11
0.036413
 21
0.000196
 31
0.0
  0
LINE
  5
194
100
AcDbEntity
  8
0
370
     0
390
0
  6
Continuous
 62
     7
100
AcDbLine
 10
0.160825
 20
0.015773
 30
0.0
 11
0.036413
 21
0.000196
 31
0.0
  0
LINE
  5
195
100
AcDbEntity
  8
0
370
     0
390
0
  6
Continuous
 62
     7
100
AcDbLine
 10
0.149436
 20
0.006656
 30
0.0
 11
0.078031
 21
0.000576
 31
0.0
  0
LINE
  5
196
100
AcDbEntity
  8
0
370
     0
390
0
  6
Continuous
 62
     7
100
AcDbLine
 10
0.149436
 20
0.006656
 30
0.0
 11
0.149436
 21
-0.005122
 31
0.0
  0
LINE
  5
197
100
AcDbEntity
  8
0
370
     0
390
0
  6
Continuous
 62
     7
100
AcDbLine
 10
0.149436
 20
-0.005122
 30
0.0
 11
0.078031
 21
0.000576
 31
0.0
  0
LINE
  5
198
100
AcDbEntity
  8
0
370
     0
390
0
  6
Continuous
 62
     7
100
AcDbLine
 10
0.142427
 20
0.000957
 30
0.0
 11
0.119647
 21
0.000957
 31
0.0
  0
ENDBLK
  5
199
100
AcDbEntity
  8
0
390
0
100
AcDbBlockEnd
  0
BLOCK
  5
22B
100
AcDbEntity
  8
0
390
0
100
AcDbBlockBegin
  2
ARROW
 70
     0
 10
0.0
 20
0.0
 30
0.0
  3
ARROW
  1

  0
LINE
  5
22D
100
AcDbEntity
  8
9
370
     0
390
0
  6
Continuous
 62
     5
100
AcDbLine
 10
0.0
 20
0.0
 30
0.0
 11
-0.160849
 21
0.031523
 31
0.0
  0
LINE
  5
22E
100
AcDbEntity
  8
9
370
     0
390
0
  6
Continuous
 62
     5
100
AcDbLine
 10
-0.160849
 20
0.031523
 30
0.0
 11
-0.160849
 21
-0.035463
 31
0.0
  0
LINE
  5
22F
100
AcDbEntity
  8
9
370
     0
390
0
  6
Continuous
 62
     5
100
AcDbLine
 10
0.0
 20
0.0
 30
0.0
 11
-0.160849
 21
-0.035463
 31
0.0
  0
HATCH
  5
230
100
AcDbEntity
  8
9
370
     0
390
0
  6
Continuous
 62
     5
100
AcDbHatch
 10
0.0
 20
0.0
 30
0.0
210
0.0
220
0.0
230
1.0
  2
SOLID
 70
     1
 71
     0
 91
        1
 92
        1
 93
        3
 72
     1
 10
0.0
 20
0.0
 11
-0.1608486175537109
 21
0.0315227508544922
 72
     1
 10
-0.1608486175537109
 20
0.0315227508544922
 11
-0.1608486175537109
 21
-0.0354633331298828
 72
     1
 10
-0.1608486175537109
 20
-0.0354633331298828
 11
0.0
 21
0.0
 97
        0
 75
     0
 76
     1
 98
        1
 10
0.0
 20
0.0
  0
ENDBLK
  5
231
100
AcDbEntity
  8
0
390
0
100
AcDbBlockEnd
  0
BLOCK
  5
327
100
AcDbEntity
  8
0
390
0
100
AcDbBlockBegin
  2
METRIC_TOL
 70
     0
 10
0.0
 20
0.0
 30
0.0
  3
METRIC_TOL
  1

  0
TEXT
  5
328
100
AcDbEntity
  8
0
370
     0
390
0
  6
Continuous
 62
     7
100
AcDbText
 10
-0.831272
 20
-0.141553
 30
0.0
 40
0.062
  1
REMOVE ALL
 50
270.0
 41
1.25
  7
Vcadd_SIMP
100
AcDbText
  0
TEXT
  5
329
100
AcDbEntity
  8
0
370
     0
390
0
  6
Continuous
 62
     7
100
AcDbText
 10
-0.93572
 20
-0.305461
 30
0.0
 40
0.062
  1
BURRS
 50
270.0
 41
1.25
  7
Vcadd_SIMP
100
AcDbText
  0
TEXT
  5
32A
100
AcDbEntity
  8
0
370
     0
390
0
  6
Continuous
 62
     7
100
AcDbText
 10
-0.598068
 20
-0.501283
 30
0.0
 40
0.055
  1
DIM. TOLERANCE
 50
270.0
 41
1.1725
  7
Vcadd_SIMP
 72
     1
 11
-0.078944
 21
-0.501283
 31
0.0
100
AcDbText
  0
TEXT
  5
32B
100
AcDbEntity
  8
0
370
     0
390
0
  6
Continuous
 62
     7
100
AcDbText
 10
-0.558327
 20
-0.501283
 30
0.0
 40
0.055
  1
+\- 0,13 mm
 50
270.0
 41
1.1725
  7
Vcadd_SIMP
 72
     1
 11
-0.150444
 21
-0.501283
 31
0.0
100
AcDbText
  0
TEXT
  5
32C
100
AcDbEntity
  8
0
370
     0
390
0
  6
Continuous
 62
     7
100
AcDbText
 10
-0.444426
 20
-0.501283
 30
0.0
 40
0.055
  1
UNLESS
 50
270.0
 41
1.1725
  7
Vcadd_SIMP
 72
     1
 11
-0.221944
 21
-0.501283
 31
0.0
100
AcDbText
  0
TEXT
  5
32D
100
AcDbEntity
  8
0
370
     0
390
0
  6
Continuous
 62
     7
100
AcDbText
 10
-0.627166
 20
-0.501283
 30
0.0
 40
0.055
  1
SPECIFIED
 50
270.0
 41
1.1725
  7
Vcadd_SIMP
 72
     1
 11
-0.293444
 21
-0.501283
 31
0.0
100
AcDbText
  0
LINE
  5
32E
100
AcDbEntity
  8
0
370
     0
390
0
  6
Continuous
 62
     7
100
AcDbLine
 10
-0.437408
 20
-0.783706
 30
0.0
 11
-0.437408
 21
-0.836281
 31
0.0
  0
LINE
  5
32F
100
AcDbEntity
  8
0
370
     0
390
0
  6
Continuous
 62
     7
100
AcDbLine
 10
-0.402232
 20
-0.783706
 30
0.0
 11
-0.402232
 21
-0.836281
 31
0.0
  0
LINE
  5
330
100
AcDbEntity
  8
0
370
     0
390
0
  6
Continuous
 62
     7
100
AcDbLine
 10
-0.386598
 20
-0.809994
 30
0.0
 11
-0.417865
 21
-0.809994
 31
0.0
  0
LINE
  5
331
100
AcDbEntity
  8
0
370
     0
390
0
  6
Continuous
 62
     7
100
AcDbLine
 10
-0.370965
 20
-0.930164
 30
0.0
 11
-0.437408
 21
-0.885099
 31
0.0
  0
TEXT
  5
332
100
AcDbEntity
  8
0
370
     0
390
0
  6
Continuous
 62
     7
100
AcDbText
 10
-0.437875
 20
-0.068704
 30
0.0
 40
0.062
  1
ANGLE TOL
 50
270.0
 41
1.25
  7
Vcadd_SIMP
100
AcDbText
  0
TEXT
  5
333
100
AcDbEntity
  8
0
370
     0
390
0
  6
Continuous
 62
     7
100
AcDbText
 10
-0.402232
 20
-0.873835
 30
0.0
 40
0.031961
  1
1 
 50
270.0
 41
1.25
  7
Vcadd_SIMP
100
AcDbText
  0
TEXT
  5
334
100
AcDbEntity
  8
0
370
     0
390
0
  6
Continuous
 62
     7
100
AcDbText
 10
-0.442184
 20
-0.913786
 30
0.0
 40
0.031961
  1
2
 50
270.0
 41
1.25
  7
Vcadd_SIMP
100
AcDbText
  0
LINE
  5
335
100
AcDbEntity
  8
0
370
    15
390
0
  6
Continuous
 62
     7
100
AcDbLine
 10
-0.505208
 20
-0.810778
 30
0.0
 11
-0.499383
 21
-0.821351
 31
0.0
  0
LINE
  5
336
100
AcDbEntity
  8
0
370
    15
390
0
  6
Continuous
 62
     7
100
AcDbLine
 10
-0.499383
 20
-0.821351
 30
0.0
 11
-0.540808
 21
-0.854313
 31
0.0
  0
LINE
  5
337
100
AcDbEntity
  8
0
370
    15
390
0
  6
Continuous
 62
     7
100
AcDbLine
 10
-0.540808
 20
-0.854313
 30
0.0
 11
-0.479964
 21
-0.920238
 31
0.0
  0
TEXT
  5
338
100
AcDbEntity
  8
0
370
     0
390
0
  6
Continuous
 62
     7
100
AcDbText
 10
-0.541989
 20
-0.101485
 30
0.0
 40
0.062
  1
FINISH
 50
270.0
 41
1.25
  7
Vcadd_SIMP
100
AcDbText
  0
TEXT
  5
339
100
AcDbEntity
  8
0
370
     0
390
0
  6
Continuous
 62
     7
100
AcDbText
 10
-0.896829
 20
-0.504694
 30
0.0
 40
0.062
  1
UNLESS
 50
270.0
 41
1.25
  7
Vcadd_SIMP
 72
     1
 11
-0.629454
 21
-0.504694
 31
0.0
100
AcDbText
  0
TEXT
  5
33A
100
AcDbEntity
  8
0
370
     0
390
0
  6
Continuous
 62
     7
100
AcDbText
 10
-1.111116
 20
-0.504694
 30
0.0
 40
0.062
  1
SPECIFIED
 50
270.0
 41
1.25
  7
Vcadd_SIMP
 72
     1
 11
-0.710054
 21
-0.504694
 31
0.0
100
AcDbText
  0
TEXT
  5
33B
100
AcDbEntity
  8
0
370
     0
390
0
  6
Continuous
 62
     7
100
AcDbText
 10
-0.541989
 20
-0.629662
 30
0.0
 40
0.062
  1
2,0
 50
270.0
 41
1.25
  7
Vcadd_SIMP
100
AcDbText
  0
ENDBLK
  5
33C
100
AcDbEntity
  8
0
390
0
100
AcDbBlockEnd
  0
ENDSEC
  0
SECTION
  2
ENTITIES
  0
VIEWPORT
  5
33
100
AcDbEntity
 67
     1
  8
0
390
0
  6
Continuous
 62
     0
100
AcDbViewport
 10
4.5
 20
3.259162
 30
0.0
 40
12.857143
 41
9.311892
 68
     1
 69
     1
 12
762.9316
 22
546.5183
 13
1169.457242
 23
377.488
 14
0.5
 24
0.5
 15
12.0
 25
12.0
 16
0.0
 26
0.0
 36
1.0
 17
0.0
 27
0.0
 37
0.0
 42
50.0
 43
-55.0
 44
-55.0
 45
1084.5
 50
0.0
 51
0.0
 72
   500
 90
        0
340
0
  1

281
     0
 71
     1
 74
     0
110
0.0
120
0.0
130
0.0
111
1.0
121
0.0
131
0.0
112
0.0
122
1.0
132
0.0
345
0
346
0
 79
     0
146
0.0
  0
LINE
  5
34
100
AcDbEntity
  8
0
370
    15
390
0
  6
Continuous
 62
     6
100
AcDbLine
 10
29.471154
 20
27.433277
 30
0.0
 11
29.471154
 21
11.429572
 31
0.0
  0
LINE
  5
35
100
AcDbEntity
  8
0
370
    15
390
0
  6
Continuous
 62
     6
100
AcDbLine
 10
19.465993
 20
11.429572
 30
0.0
 11
19.465993
 21
27.433277
 31
0.0
  0
LINE
  5
36
100
AcDbEntity
  8
0
370
    15
390
0
  6
Continuous
 62
     6
100
AcDbLine
 10
29.471154
 20
11.429572
 30
0.0
 11
19.465993
 21
11.429572
 31
0.0
  0
LINE
  5
37
100
AcDbEntity
  8
0
370
    15
390
0
  6
Continuous
 62
     6
100
AcDbLine
 10
29.471154
 20
27.433277
 30
0.0
 11
19.465993
 21
27.433277
 31
0.0
  0
LINE
  5
38
100
AcDbEntity
  8
0
370
    15
390
0
  6
Continuous
 62
     2
100
AcDbLine
 10
20.840993
 20
11.429572
 30
0.0
 11
20.840993
 21
22.054572
 31
0.0
  0
LINE
  5
39
100
AcDbEntity
  8
0
370
    15
390
0
  6
Continuous
 62
     2
100
AcDbLine
 10
20.840993
 20
22.054572
 30
0.0
 11
19.465993
 21
22.054572
 31
0.0
  0
LINE
  5
3A
100
AcDbEntity
  8
0
370
    15
390
0
  6
Continuous
 62
     7
100
AcDbLine
 10
20.840993
 20
14.179572
 30
0.0
 11
19.465993
 21
14.179572
 31
0.0
  0
LINE
  5
3B
100
AcDbEntity
  8
0
370
    15
390
0
  6
Continuous
 62
     7
100
AcDbLine
 10
20.840993
 20
17.179572
 30
0.0
 11
19.465993
 21
17.179572
 31
0.0
  0
LINE
  5
3C
100
AcDbEntity
  8
0
370
    15
390
0
  6
Continuous
 62
     7
100
AcDbLine
 10
20.840993
 20
18.179572
 30
0.0
 11
19.465993
 21
18.179572
 31
0.0
  0
LINE
  5
3D
100
AcDbEntity
  8
0
370
    15
390
0
  6
Continuous
 62
     7
100
AcDbLine
 10
19.621991
 20
22.054572
 30
0.0
 11
19.621991
 21
18.179572
 31
0.0
  0
LINE
  5
3E
100
AcDbEntity
  8
0
370
    15
390
0
  6
Continuous
 62
     7
100
AcDbLine
 10
19.777993
 20
21.804572
 30
0.0
 11
19.777993
 21
19.429572
 31
0.0
  0
LINE
  5
3F
100
AcDbEntity
  8
0
370
    15
390
0
  6
Continuous
 62
     7
100
AcDbLine
 10
20.465993
 20
17.179572
 30
0.0
 11
20.465993
 21
18.179572
 31
0.0
  0
LINE
  5
40
100
AcDbEntity
  8
0
370
    15
390
0
  6
Continuous
 62
     7
100
AcDbLine
 10
19.746991
 20
17.179572
 30
0.0
 11
19.746991
 21
15.554572
 31
0.0
  0
LINE
  5
41
100
AcDbEntity
  8
0
370
    15
390
0
  6
Continuous
 62
     7
100
AcDbLine
 10
20.027993
 20
17.179572
 30
0.0
 11
20.027993
 21
15.554572
 31
0.0
  0
LINE
  5
42
100
AcDbEntity
  8
0
370
    15
390
0
  6
Continuous
 62
     7
100
AcDbLine
 10
20.027993
 20
15.554572
 30
0.0
 11
20.027993
 21
14.179572
 31
0.0
  0
LINE
  5
43
100
AcDbEntity
  8
0
370
    15
390
0
  6
Continuous
 62
     7
100
AcDbLine
 10
20.402993
 20
17.179572
 30
0.0
 11
20.402993
 21
14.179572
 31
0.0
  0
LINE
  5
44
100
AcDbEntity
  8
0
370
    15
390
0
  6
Continuous
 62
     7
100
AcDbLine
 10
20.027993
 20
15.554571
 30
0.0
 11
19.465993
 21
15.554572
 31
0.0
  0
LINE
  5
45
100
AcDbEntity
  8
0
370
    15
390
0
  6
Continuous
 62
     7
100
AcDbLine
 10
20.027993
 20
15.554571
 30
0.0
 11
20.402993
 21
15.554571
 31
0.0
  0
LINE
  5
46
100
AcDbEntity
  8
0
370
    15
390
0
  6
Continuous
 62
     7
100
AcDbLine
 10
20.402993
 20
16.804572
 30
0.0
 11
20.027993
 21
16.804572
 31
0.0
  0
LINE
  5
47
100
AcDbEntity
  8
0
370
    15
390
0
  6
Continuous
 62
     7
100
AcDbLine
 10
19.465993
 20
16.637572
 30
0.0
 11
19.746991
 21
16.637572
 31
0.0
  0
LINE
  5
48
100
AcDbEntity
  8
0
370
    15
390
0
  6
Continuous
 62
     7
100
AcDbLine
 10
19.465993
 20
16.095572
 30
0.0
 11
19.746991
 21
16.095572
 31
0.0
  0
LINE
  5
49
100
AcDbEntity
  8
0
370
    15
390
0
  6
Continuous
 62
     7
100
AcDbLine
 10
19.746991
 20
16.095572
 30
0.0
 11
20.027993
 21
16.095572
 31
0.0
  0
LINE
  5
4A
100
AcDbEntity
  8
0
370
    15
390
0
  6
Continuous
 62
     7
100
AcDbLine
 10
19.746991
 20
16.637572
 30
0.0
 11
20.027993
 21
16.637572
 31
0.0
  0
LINE
  5
4B
100
AcDbEntity
  8
0
370
    15
390
0
  6
Continuous
 62
     7
100
AcDbLine
 10
20.402993
 20
14.179572
 30
0.0
 11
20.402993
 21
11.429572
 31
0.0
  0
LINE
  5
4C
100
AcDbEntity
  8
0
370
    15
390
0
  6
Continuous
 62
     7
100
AcDbLine
 10
20.840993
 20
13.617572
 30
0.0
 11
20.402993
 21
13.617572
 31
0.0
  0
LINE
  5
4D
100
AcDbEntity
  8
0
370
    15
390
0
  6
Continuous
 62
     7
100
AcDbLine
 10
29.096154
 20
14.179572
 30
0.0
 11
29.096154
 21
11.429572
 31
0.0
  0
LINE
  5
4E
100
AcDbEntity
  8
0
370
    15
390
0
  6
Continuous
 62
     7
100
AcDbLine
 10
29.096154
 20
13.617572
 30
0.0
 11
29.468343
 21
13.617572
 31
0.0
  0
LINE
  5
4F
100
AcDbEntity
  8
0
370
    15
390
0
  6
Continuous
 62
     7
100
AcDbLine
 10
29.096154
 20
14.179572
 30
0.0
 11
29.471154
 21
14.179572
 31
0.0
  0
LINE
  5
50
100
AcDbEntity
  8
0
370
    15
390
0
  6
Continuous
 62
     7
100
AcDbLine
 10
19.763661
 20
15.04577
 30
0.0
 11
19.639931
 21
14.758269
 31
0.0
  0
ARC
  5
51
100
AcDbEntity
  8
0
370
    15
390
0
  6
Continuous
 62
     7
100
AcDbCircle
 10
19.940154
 20
14.629065
 30
0.0
 40
0.326842
100
AcDbArc
 50
156.690317
 51
236.832422
  0
ARC
  5
52
100
AcDbEntity
  8
0
370
    15
390
0
  6
Continuous
 62
     7
100
AcDbCircle
 10
19.454759
 20
15.148373
 30
0.0
 40
0.325497
100
AcDbArc
 50
341.621816
 51
418.31416
  0
LINE
  5
53
100
AcDbEntity
  8
0
370
    15
390
0
  6
Continuous
 62
     7
100
AcDbLine
 10
19.760918
 20
14.918268
 30
0.0
 11
19.666226
 21
14.967646
 31
0.0
  0
LINE
  5
54
100
AcDbEntity
  8
0
370
    15
390
0
  6
Continuous
 62
     7
100
AcDbLine
 10
19.733506
 20
14.859403
 30
0.0
 11
19.642396
 21
14.910767
 31
0.0
  0
LINE
  5
55
100
AcDbEntity
  8
4
370
    15
390
0
  6
Continuous
 62
     7
100
AcDbLine
 10
20.840993
 20
11.429572
 30
0.0
 11
20.840993
 21
11.429572
 31
0.0
  0
LINE
  5
56
100
AcDbEntity
  8
0
370
    15
390
0
  6
Continuous
 62
     7
100
AcDbLine
 10
20.840993
 20
18.429572
 30
0.0
 11
19.465993
 21
18.429572
 31
0.0
  0
LINE
  5
57
100
AcDbEntity
  8
0
370
    15
390
0
  6
Continuous
 62
     7
100
AcDbLine
 10
20.840993
 20
18.679572
 30
0.0
 11
19.465993
 21
18.679572
 31
0.0
  0
LINE
  5
58
100
AcDbEntity
  8
0
370
    15
390
0
  6
Continuous
 62
     7
100
AcDbLine
 10
20.840993
 20
18.929572
 30
0.0
 11
19.465993
 21
18.929572
 31
0.0
  0
LINE
  5
59
100
AcDbEntity
  8
0
370
    15
390
0
  6
Continuous
 62
     7
100
AcDbLine
 10
20.840993
 20
19.429572
 30
0.0
 11
19.465993
 21
19.429572
 31
0.0
  0
LINE
  5
5A
100
AcDbEntity
  8
0
370
    15
390
0
  6
Continuous
 62
     7
100
AcDbLine
 10
20.840993
 20
21.804572
 30
0.0
 11
19.465993
 21
21.804572
 31
0.0
  0
CIRCLE
  5
5C
100
AcDbEntity
  8
1
370
    15
390
0
  6
DIVIDE
 62
     1
100
AcDbCircle
 10
24.204064
 20
20.556363
 30
0.0
 40
0.153886
  0
LINE
  5
5D
100
AcDbEntity
  8
1
370
    15
390
0
  6
Continuous
 62
     1
100
AcDbLine
 10
24.137425
 20
20.241271
 30
0.0
 11
23.829209
 21
20.241271
 31
0.0
  0
LINE
  5
5E
100
AcDbEntity
  8
3
370
    15
390
0
  6
Continuous
 62
     1
100
AcDbLine
 10
23.556523
 20
20.176332
 30
0.0
 11
23.713715
 21
20.321623
 31
0.0
  0
LINE
  5
5F
100
AcDbEntity
  8
3
370
    15
390
0
  6
Continuous
 62
     1
100
AcDbLine
 10
23.713715
 20
20.321623
 30
0.0
 11
24.187424
 21
20.321623
 31
0.0
  0
LINE
  5
60
100
AcDbEntity
  8
3
370
    15
390
0
  6
Continuous
 62
     1
100
AcDbLine
 10
24.139424
 20
21.22823
 30
0.0
 11
23.317929
 21
21.22823
 31
0.0
  0
LINE
  5
61
100
AcDbEntity
  8
4
370
    15
390
0
  6
Continuous
 62
     7
100
AcDbLine
 10
23.17735
 20
21.148522
 30
0.0
 11
23.257378
 21
21.316857
 31
0.0
  0
LINE
  5
62
100
AcDbEntity
  8
3
370
    15
390
0
  6
Continuous
 62
     1
100
AcDbLine
 10
23.317929
 20
20.176332
 30
0.0
 11
23.556523
 21
20.176332
 31
0.0
  0
LINE
  5
63
100
AcDbEntity
  8
3
370
    15
390
0
  6
Continuous
 62
     1
100
AcDbLine
 10
24.293423
 20
20.588713
 30
0.0
 11
24.678967
 21
20.588713
 31
0.0
  0
LINE
  5
64
100
AcDbEntity
  8
3
370
    15
390
0
  6
Continuous
 62
     1
100
AcDbLine
 10
24.202077
 20
20.553271
 30
0.0
 11
24.829762
 21
20.553271
 31
0.0
  0
LINE
  5
65
100
AcDbEntity
  8
3
370
    15
390
0
  6
Continuous
 62
     1
100
AcDbLine
 10
24.527966
 20
20.553271
 30
0.0
 11
24.527966
 21
20.301431
 31
0.0
  0
LINE
  5
66
100
AcDbEntity
  8
3
370
    15
390
0
  6
Continuous
 62
     1
100
AcDbLine
 10
24.829762
 20
20.553271
 30
0.0
 11
24.829762
 21
23.937383
 31
0.0
  0
LINE
  5
67
100
AcDbEntity
  8
3
370
    15
390
0
  6
Continuous
 62
     1
100
AcDbLine
 10
25.101193
 20
23.937383
 30
0.0
 11
24.829762
 21
23.937383
 31
0.0
  0
LINE
  5
68
100
AcDbEntity
  8
3
370
    15
390
0
  6
Continuous
 62
     1
100
AcDbLine
 10
24.678967
 20
20.588713
 30
0.0
 11
24.678967
 21
24.395512
 31
0.0
  0
LINE
  5
69
100
AcDbEntity
  8
3
370
    15
390
0
  6
Continuous
 62
     1
100
AcDbLine
 10
25.101193
 20
24.395512
 30
0.0
 11
24.678967
 21
24.395512
 31
0.0
  0
LINE
  5
6A
100
AcDbEntity
  8
3
370
    15
390
0
  6
Continuous
 62
     1
100
AcDbLine
 10
24.527966
 20
20.588713
 30
0.0
 11
24.527966
 21
24.853513
 31
0.0
  0
LINE
  5
6B
100
AcDbEntity
  8
3
370
    15
390
0
  6
Continuous
 62
     1
100
AcDbLine
 10
25.101193
 20
24.853513
 30
0.0
 11
24.527966
 21
24.853513
 31
0.0
  0
LINE
  5
6C
100
AcDbEntity
  8
0
370
    15
390
0
  6
Continuous
 62
     7
100
AcDbLine
 10
20.71399
 20
19.429572
 30
0.0
 11
20.71399
 21
21.804572
 31
0.0
  0
LINE
  5
6D
100
AcDbEntity
  8
0
370
    15
390
0
  6
Continuous
 62
     7
100
AcDbLine
 10
20.557992
 20
19.429572
 30
0.0
 11
20.557992
 21
21.804572
 31
0.0
  0
LINE
  5
6E
100
AcDbEntity
  8
0
370
    15
390
0
  6
Continuous
 62
     7
100
AcDbLine
 10
20.089989
 20
19.429572
 30
0.0
 11
20.089989
 21
21.804572
 31
0.0
  0
LINE
  5
6F
100
AcDbEntity
  8
0
370
    15
390
0
  6
Continuous
 62
     7
100
AcDbLine
 10
19.933991
 20
19.429572
 30
0.0
 11
19.933991
 21
21.804572
 31
0.0
  0
LINE
  5
70
100
AcDbEntity
  8
0
370
    15
390
0
  6
Continuous
 62
     7
100
AcDbLine
 10
19.777993
 20
22.054572
 30
0.0
 11
19.777993
 21
18.179572
 31
0.0
  0
LINE
  5
71
100
AcDbEntity
  8
0
370
    15
390
0
  6
Continuous
 62
     1
100
AcDbLine
 10
26.299428
 20
20.553271
 30
0.0
 11
26.291425
 21
20.553271
 31
0.0
  0
ARC
  5
72
100
AcDbEntity
  8
0
370
    15
390
0
  6
Continuous
 62
     1
100
AcDbCircle
 10
26.291422
 20
20.51328
 30
0.0
 40
0.039991
100
AcDbArc
 50
89.996409
 51
180.01452
  0
LINE
  5
73
100
AcDbEntity
  8
0
370
    15
390
0
  6
Continuous
 62
     1
100
AcDbLine
 10
26.251431
 20
20.241271
 30
0.0
 11
26.251431
 21
20.51327
 31
0.0
  0
LINE
  5
74
100
AcDbEntity
  8
0
370
    15
390
0
  6
Continuous
 62
     1
100
AcDbLine
 10
26.251431
 20
20.241271
 30
0.0
 11
26.153844
 21
20.143691
 31
0.0
  0
LINE
  5
75
100
AcDbEntity
  8
0
370
    15
390
0
  6
Continuous
 62
     1
100
AcDbLine
 10
26.153844
 20
20.143691
 30
0.0
 11
26.153844
 21
17.457927
 31
0.0
  0
LINE
  5
77
100
AcDbEntity
  8
0
370
    15
390
0
  6
CL____X1
 62
     1
100
AcDbLine
 10
26.219426
 20
19.303271
 30
0.0
 11
26.219426
 21
20.199271
 31
0.0
  0
LINE
  5
78
100
AcDbEntity
  8
0
370
    15
390
0
  6
Continuous
 62
     1
100
AcDbLine
 10
26.153844
 20
17.457927
 30
0.0
 11
26.112607
 21
17.41669
 31
0.0
  0
ARC
  5
79
100
AcDbEntity
  8
0
370
    15
390
0
  6
Continuous
 62
     1
100
AcDbCircle
 10
26.156494
 20
17.372832
 30
0.0
 40
0.062045
100
AcDbArc
 50
135.01896
 51
179.982251
  0
LINE
  5
7A
100
AcDbEntity
  8
0
370
    15
390
0
  6
Continuous
 62
     1
100
AcDbLine
 10
26.094449
 20
16.782527
 30
0.0
 11
26.094449
 21
17.372851
 31
0.0
  0
LINE
  5
7B
100
AcDbEntity
  8
0
370
    15
390
0
  6
Continuous
 62
     1
100
AcDbLine
 10
25.907429
 20
16.782573
 30
0.0
 11
26.094449
 21
16.782527
 31
0.0
  0
LINE
  5
7C
100
AcDbEntity
  8
0
370
    15
390
0
  6
Continuous
 62
     7
100
AcDbLine
 10
25.219426
 20
20.667945
 30
0.0
 11
25.219426
 21
20.973582
 31
0.0
  0
LINE
  5
7D
100
AcDbEntity
  8
0
370
    15
390
0
  6
Continuous
 62
     7
100
AcDbLine
 10
25.219426
 20
17.896396
 30
0.0
 11
25.219426
 21
19.263724
 31
0.0
  0
LINE
  5
7E
100
AcDbEntity
  8
0
370
    15
390
0
  6
Continuous
 62
     7
100
AcDbLine
 10
25.219426
 20
20.47491
 30
0.0
 11
25.219426
 21
19.456759
 31
0.0
  0
LINE
  5
7F
100
AcDbEntity
  8
2
370
    15
390
0
  6
Continuous
 62
     7
100
AcDbLine
 10
26.518468
 20
21.883136
 30
0.0
 11
26.329427
 21
21.992274
 31
0.0
  0
ARC
  5
80
100
AcDbEntity
  8
2
370
    15
390
0
  6
Continuous
 62
     7
100
AcDbCircle
 10
26.193707
 20
21.454517
 30
0.0
 40
0.537758
100
AcDbArc
 50
52.849143
 51
127.150857
  0
LINE
  5
81
100
AcDbEntity
  8
2
370
    15
390
0
  6
Continuous
 62
     7
100
AcDbLine
 10
26.518468
 20
21.038413
 30
0.0
 11
26.329427
 21
20.929274
 31
0.0
  0
ARC
  5
82
100
AcDbEntity
  8
2
370
    15
390
0
  6
Continuous
 62
     7
100
AcDbCircle
 10
26.193707
 20
21.467032
 30
0.0
 40
0.537758
100
AcDbArc
 50
232.849143
 51
307.150857
  0
LINE
  5
83
100
AcDbEntity
  8
2
370
    15
390
0
  6
Continuous
 62
     7
100
AcDbLine
 10
25.868947
 20
21.883136
 30
0.0
 11
25.868947
 21
21.038413
 31
0.0
  0
LINE
  5
84
100
AcDbEntity
  8
2
370
    15
390
0
  6
Continuous
 62
     7
100
AcDbLine
 10
26.518468
 20
21.883136
 30
0.0
 11
26.518468
 21
21.038413
 31
0.0
  0
LINE
  5
85
100
AcDbEntity
  8
2
370
    15
390
0
  6
Continuous
 62
     7
100
AcDbLine
 10
26.29543
 20
20.929274
 30
0.0
 11
26.29543
 21
20.553271
 31
0.0
  0
LINE
  5
86
100
AcDbEntity
  8
2
370
    15
390
0
  6
Continuous
 62
     7
100
AcDbLine
 10
26.247426
 20
20.553271
 30
0.0
 11
26.247426
 21
20.459273
 31
0.0
  0
LINE
  5
87
100
AcDbEntity
  8
2
370
    15
390
0
  6
Continuous
 62
     7
100
AcDbLine
 10
26.135426
 20
20.459273
 30
0.0
 11
26.135426
 21
20.209273
 31
0.0
  0
LINE
  5
88
100
AcDbEntity
  8
2
370
    15
390
0
  6
Continuous
 62
     7
100
AcDbLine
 10
26.219426
 20
20.160777
 30
0.0
 11
26.135426
 21
20.209273
 31
0.0
  0
LINE
  5
89
100
AcDbEntity
  8
2
370
    15
390
0
  6
Continuous
 62
     7
100
AcDbLine
 10
26.219426
 20
19.601271
 30
0.0
 11
26.121426
 21
19.503272
 31
0.0
  0
LINE
  5
8A
100
AcDbEntity
  8
2
370
    15
390
0
  6
Continuous
 62
     7
100
AcDbLine
 10
26.219426
 20
20.160777
 30
0.0
 11
26.219426
 21
19.601271
 31
0.0
  0
LINE
  5
8B
100
AcDbEntity
  8
2
370
    15
390
0
  6
CL____X1
 62
     7
100
AcDbLine
 10
26.167432
 20
19.549273
 30
0.0
 11
26.167432
 21
20.190799
 31
0.0
  0
LINE
  5
8C
100
AcDbEntity
  8
2
370
    15
390
0
  6
Continuous
 62
     7
100
AcDbLine
 10
26.121426
 20
19.503272
 30
0.0
 11
26.121426
 21
19.335273
 31
0.0
  0
LINE
  5
8D
100
AcDbEntity
  8
2
370
    15
390
0
  6
Continuous
 62
     7
100
AcDbLine
 10
26.089429
 20
19.303271
 30
0.0
 11
26.121426
 21
19.335273
 31
0.0
  0
LINE
  5
8E
100
AcDbEntity
  8
2
370
    15
390
0
  6
Continuous
 62
     7
100
AcDbLine
 10
26.091931
 20
16.920928
 30
0.0
 11
26.091931
 21
16.805926
 31
0.0
  0
LINE
  5
8F
100
AcDbEntity
  8
2
370
    15
390
0
  6
Continuous
 62
     7
100
AcDbLine
 10
26.091931
 20
17.315928
 30
0.0
 11
26.091931
 21
17.429927
 31
0.0
  0
LINE
  5
90
100
AcDbEntity
  8
2
370
    15
390
0
  6
Continuous
 62
     7
100
AcDbLine
 10
25.983426
 20
16.920928
 30
0.0
 11
25.983426
 21
17.315928
 31
0.0
  0
LINE
  5
91
100
AcDbEntity
  8
2
370
    15
390
0
  6
Continuous
 62
     7
100
AcDbLine
 10
25.219426
 20
17.659549
 30
0.0
 11
25.219426
 21
17.823565
 31
0.0
  0
LINE
  5
92
100
AcDbEntity
  8
2
370
    15
390
0
  6
Continuous
 62
     7
100
AcDbLine
 10
25.396603
 20
17.743926
 30
0.0
 11
25.524052
 21
17.743926
 31
0.0
  0
ARC
  5
93
100
AcDbEntity
  8
2
370
    15
390
0
  6
Continuous
 62
     7
100
AcDbCircle
 10
26.695595
 20
17.743926
 30
0.0
 40
0.769412
100
AcDbArc
 50
161.039064
 51
198.960936
  0
LINE
  5
94
100
AcDbEntity
  8
2
370
    15
390
0
  6
Continuous
 62
     7
100
AcDbLine
 10
25.967931
 20
17.49393
 30
0.0
 11
25.967931
 21
17.429927
 31
0.0
  0
LINE
  5
95
100
AcDbEntity
  8
2
370
    15
390
0
  6
Continuous
 62
     7
100
AcDbLine
 10
25.967931
 20
19.303271
 30
0.0
 11
25.967931
 21
17.993918
 31
0.0
  0
LINE
  5
96
100
AcDbEntity
  8
2
370
    15
390
0
  6
Continuous
 62
     7
100
AcDbLine
 10
25.983426
 20
16.95048
 30
0.0
 11
26.089429
 21
16.95048
 31
0.0
  0
LINE
  5
97
100
AcDbEntity
  8
2
370
    15
390
0
  6
Continuous
 62
     7
100
AcDbLine
 10
26.089429
 20
16.95048
 30
0.0
 11
26.089429
 21
17.028479
 31
0.0
  0
ARC
  5
98
100
AcDbEntity
  8
2
370
    15
390
0
  6
Continuous
 62
     7
100
AcDbCircle
 10
26.06943
 20
17.028481
 30
0.0
 40
0.019999
100
AcDbArc
 50
359.994809
 51
450.016118
  0
ARC
  5
99
100
AcDbEntity
  8
2
370
    15
390
0
  6
Continuous
 62
     7
100
AcDbCircle
 10
26.003424
 20
17.028481
 30
0.0
 40
0.019999
100
AcDbArc
 50
89.983882
 51
180.005191
  0
LINE
  5
9A
100
AcDbEntity
  8
2
370
    15
390
0
  6
Continuous
 62
     7
100
AcDbLine
 10
25.983426
 20
16.95048
 30
0.0
 11
25.983426
 21
17.028479
 31
0.0
  0
ARC
  5
9B
100
AcDbEntity
  8
2
370
    15
390
0
  6
Continuous
 62
     7
100
AcDbCircle
 10
26.036427
 20
17.112536
 30
0.0
 40
0.072055
100
AcDbArc
 50
242.745631
 51
297.254369
  0
LINE
  5
9C
100
AcDbEntity
  8
2
370
    15
390
0
  6
Continuous
 62
     7
100
AcDbLine
 10
25.983426
 20
17.281466
 30
0.0
 11
26.089429
 21
17.281466
 31
0.0
  0
LINE
  5
9D
100
AcDbEntity
  8
2
370
    15
390
0
  6
Continuous
 62
     7
100
AcDbLine
 10
26.089429
 20
17.281466
 30
0.0
 11
26.089429
 21
17.203467
 31
0.0
  0
ARC
  5
9E
100
AcDbEntity
  8
2
370
    15
390
0
  6
Continuous
 62
     7
100
AcDbCircle
 10
26.06943
 20
17.203465
 30
0.0
 40
0.019999
100
AcDbArc
 50
269.983882
 51
360.005191
  0
ARC
  5
9F
100
AcDbEntity
  8
2
370
    15
390
0
  6
Continuous
 62
     7
100
AcDbCircle
 10
26.003424
 20
17.203465
 30
0.0
 40
0.019999
100
AcDbArc
 50
179.994809
 51
270.016118
  0
LINE
  5
A0
100
AcDbEntity
  8
2
370
    15
390
0
  6
Continuous
 62
     7
100
AcDbLine
 10
25.983426
 20
17.281466
 30
0.0
 11
25.983426
 21
17.203467
 31
0.0
  0
ARC
  5
A1
100
AcDbEntity
  8
2
370
    15
390
0
  6
Continuous
 62
     7
100
AcDbCircle
 10
26.036427
 20
17.119411
 30
0.0
 40
0.072055
100
AcDbArc
 50
62.745631
 51
117.254369
  0
LINE
  5
A2
100
AcDbEntity
  8
2
370
    15
390
0
  6
Continuous
 62
     7
100
AcDbLine
 10
26.135426
 20
20.215346
 30
0.0
 11
26.241429
 21
20.215346
 31
0.0
  0
LINE
  5
A3
100
AcDbEntity
  8
2
370
    15
390
0
  6
Continuous
 62
     7
100
AcDbLine
 10
26.241429
 20
20.215346
 30
0.0
 11
26.241429
 21
20.293345
 31
0.0
  0
ARC
  5
A4
100
AcDbEntity
  8
2
370
    15
390
0
  6
Continuous
 62
     7
100
AcDbCircle
 10
26.22143
 20
20.293347
 30
0.0
 40
0.019999
100
AcDbArc
 50
359.994809
 51
450.016118
  0
ARC
  5
A5
100
AcDbEntity
  8
2
370
    15
390
0
  6
Continuous
 62
     7
100
AcDbCircle
 10
26.155425
 20
20.293347
 30
0.0
 40
0.019999
100
AcDbArc
 50
89.983882
 51
180.005191
  0
LINE
  5
A6
100
AcDbEntity
  8
2
370
    15
390
0
  6
Continuous
 62
     7
100
AcDbLine
 10
26.135426
 20
20.215346
 30
0.0
 11
26.135426
 21
20.293345
 31
0.0
  0
ARC
  5
A7
100
AcDbEntity
  8
2
370
    15
390
0
  6
Continuous
 62
     7
100
AcDbCircle
 10
26.188428
 20
20.377402
 30
0.0
 40
0.072055
100
AcDbArc
 50
242.745631
 51
297.254369
  0
LINE
  5
A8
100
AcDbEntity
  8
0
370
    15
390
0
  6
Continuous
 62
     1
100
AcDbLine
 10
27.086667
 20
22.566295
 30
0.0
 11
27.05589
 21
22.412478
 31
0.0
  0
LINE
  5
A9
100
AcDbEntity
  8
0
370
    15
390
0
  6
Continuous
 62
     1
100
AcDbLine
 10
27.05589
 20
22.412478
 30
0.0
 11
27.025113
 21
22.243281
 31
0.0
  0
LINE
  5
AA
100
AcDbEntity
  8
0
370
    15
390
0
  6
Continuous
 62
     1
100
AcDbLine
 10
27.025113
 20
22.243281
 30
0.0
 11
27.040501
 21
21.858737
 31
0.0
  0
LINE
  5
AB
100
AcDbEntity
  8
0
370
    15
390
0
  6
Continuous
 62
     1
100
AcDbLine
 10
27.040501
 20
21.858737
 30
0.0
 11
27.05589
 21
21.612159
 31
0.0
  0
LINE
  5
AC
100
AcDbEntity
  8
0
370
    15
390
0
  6
Continuous
 62
     1
100
AcDbLine
 10
27.05589
 20
21.612159
 30
0.0
 11
27.009724
 21
21.412196
 31
0.0
  0
LINE
  5
AD
100
AcDbEntity
  8
0
370
    15
390
0
  6
Continuous
 62
     1
100
AcDbLine
 10
27.009724
 20
21.412196
 30
0.0
 11
26.886601
 21
21.166091
 31
0.0
  0
LINE
  5
AE
100
AcDbEntity
  8
0
370
    15
390
0
  6
Continuous
 62
     1
100
AcDbLine
 10
26.886601
 20
21.166091
 30
0.0
 11
26.855824
 21
20.904601
 31
0.0
  0
LINE
  5
AF
100
AcDbEntity
  8
0
370
    15
390
0
  6
Continuous
 62
     1
100
AcDbLine
 10
26.763486
 20
20.416236
 30
0.0
 11
26.825047
 21
20.185511
 31
0.0
  0
LINE
  5
B0
100
AcDbEntity
  8
0
370
    15
390
0
  6
Continuous
 62
     1
100
AcDbLine
 10
26.825047
 20
20.185511
 30
0.0
 11
26.825047
 21
19.985549
 31
0.0
  0
LINE
  5
B1
100
AcDbEntity
  8
0
370
    15
390
0
  6
Continuous
 62
     1
100
AcDbLine
 10
26.825047
 20
19.985549
 30
0.0
 11
26.825047
 21
19.73944
 31
0.0
  0
LINE
  5
B2
100
AcDbEntity
  8
0
370
    15
390
0
  6
Continuous
 62
     1
100
AcDbLine
 10
26.825047
 20
19.73944
 30
0.0
 11
26.794263
 21
19.539477
 31
0.0
  0
LINE
  5
B3
100
AcDbEntity
  8
0
370
    15
390
0
  6
Continuous
 62
     1
100
AcDbLine
 10
26.794263
 20
19.539477
 30
0.0
 11
26.71732
 21
19.324138
 31
0.0
  0
LINE
  5
B4
100
AcDbEntity
  8
0
370
    15
390
0
  6
Continuous
 62
     1
100
AcDbLine
 10
26.71732
 20
19.324138
 30
0.0
 11
26.686536
 21
19.093409
 31
0.0
  0
LINE
  5
B5
100
AcDbEntity
  8
0
370
    15
390
0
  6
Continuous
 62
     1
100
AcDbLine
 10
26.686536
 20
19.093409
 30
0.0
 11
26.701924
 21
17.896102
 31
0.0
  0
LINE
  5
B6
100
AcDbEntity
  8
0
370
    15
390
0
  6
Continuous
 62
     1
100
AcDbLine
 10
26.701924
 20
17.896102
 30
0.0
 11
26.71732
 21
17.819194
 31
0.0
  0
LINE
  5
B7
100
AcDbEntity
  8
0
370
    15
390
0
  6
Continuous
 62
     1
100
AcDbLine
 10
26.71732
 20
17.819194
 30
0.0
 11
26.748097
 21
17.60385
 31
0.0
  0
LINE
  5
B8
100
AcDbEntity
  8
0
370
    15
390
0
  6
Continuous
 62
     1
100
AcDbLine
 10
26.748097
 20
17.60385
 30
0.0
 11
26.748097
 21
17.23469
 31
0.0
  0
LINE
  5
B9
100
AcDbEntity
  8
0
370
    15
390
0
  6
Continuous
 62
     1
100
AcDbLine
 10
26.748097
 20
17.23469
 30
0.0
 11
26.671147
 21
16.973201
 31
0.0
  0
LINE
  5
BA
100
AcDbEntity
  8
0
370
    15
390
0
  6
Continuous
 62
     1
100
AcDbLine
 10
26.671147
 20
16.973201
 30
0.0
 11
26.64037
 21
16.880912
 31
0.0
  0
LINE
  5
BB
100
AcDbEntity
  8
0
370
    15
390
0
  6
Continuous
 62
     1
100
AcDbLine
 10
26.64037
 20
16.880912
 30
0.0
 11
26.594197
 21
16.69633
 31
0.0
  0
LINE
  5
BC
100
AcDbEntity
  8
0
370
    15
390
0
  6
Continuous
 62
     1
100
AcDbLine
 10
26.594197
 20
16.69633
 30
0.0
 11
26.578809
 21
16.496371
 31
0.0
  0
LINE
  5
BD
100
AcDbEntity
  8
0
370
    15
390
0
  6
Continuous
 62
     1
100
AcDbLine
 10
26.578809
 20
16.496371
 30
0.0
 11
26.471081
 21
16.2195
 31
0.0
  0
LINE
  5
BE
100
AcDbEntity
  8
0
370
    15
390
0
  6
Continuous
 62
     1
100
AcDbLine
 10
26.471081
 20
16.2195
 30
0.0
 11
26.332577
 21
16.173354
 31
0.0
  0
LINE
  5
BF
100
AcDbEntity
  8
0
370
    15
390
0
  6
Continuous
 62
     1
100
AcDbLine
 10
26.332577
 20
16.173354
 30
0.0
 11
26.209454
 21
16.019538
 31
0.0
  0
LINE
  5
C0
100
AcDbEntity
  8
0
370
    15
390
0
  6
Continuous
 62
     1
100
AcDbLine
 10
26.153844
 20
17.493926
 30
0.0
 11
26.748097
 21
17.493926
 31
0.0
  0
LINE
  5
C1
100
AcDbEntity
  8
0
370
    15
390
0
  6
Continuous
 62
     1
100
AcDbLine
 10
26.153844
 20
19.741271
 30
0.0
 11
26.825047
 21
19.741271
 31
0.0
  0
ELLIPSE
  5
C2
100
AcDbEntity
  8
0
370
    15
390
0
  6
Continuous
 62
     1
100
AcDbEllipse
 10
26.19164
 20
20.382361
 30
0.0
 11
-0.0005645751953125
 21
-0.0764579772949219
 31
0.0
210
0.0
220
0.0
230
1.0
 40
0.748491
 41
0.0
 42
6.2831853071795862
  0
ELLIPSE
  5
C3
100
AcDbEntity
  8
0
370
    15
390
0
  6
Continuous
 62
     1
100
AcDbEllipse
 10
26.03632
 20
17.115689
 30
0.0
 11
-0.0009994506835938
 21
0.0748538970947266
 31
0.0
210
0.0
220
0.0
230
1.0
 40
0.747102
 41
0.0
 42
6.2831853071795862
  0
LINE
  5
C4
100
AcDbEntity
  8
0
370
    15
390
0
  6
CL____X1
 62
     1
100
AcDbLine
 10
26.53249
 20
20.897273
 30
0.0
 11
26.29543
 21
20.897273
 31
0.0
  0
LINE
  5
C5
100
AcDbEntity
  8
0
370
    15
390
0
  6
CL____X1
 62
     1
100
AcDbLine
 10
26.53249
 20
21.320342
 30
0.0
 11
26.719426
 21
21.428271
 31
0.0
  0
LINE
  5
C6
100
AcDbEntity
  8
0
370
    15
390
0
  6
CL____X1
 62
     1
100
AcDbLine
 10
26.53249
 20
21.320342
 30
0.0
 11
26.53249
 21
20.897273
 31
0.0
  0
LINE
  5
C7
100
AcDbEntity
  8
0
370
    15
390
0
  6
CL____X1
 62
     1
100
AcDbLine
 10
26.719426
 20
21.428271
 30
0.0
 11
26.518468
 21
21.428271
 31
0.0
  0
LINE
  5
C8
100
AcDbEntity
  8
0
370
    15
390
0
  6
CL____X1
 62
     1
100
AcDbLine
 10
26.719426
 20
22.549853
 30
0.0
 11
26.719426
 21
21.428271
 31
0.0
  0
LINE
  5
C9
100
AcDbEntity
  8
0
370
    15
390
0
  6
Continuous
 62
     1
100
AcDbLine
 10
27.086667
 20
22.566295
 30
0.0
 11
27.017773
 21
22.560298
 31
0.0
  0
LINE
  5
CA
100
AcDbEntity
  8
0
370
    15
390
0
  6
Continuous
 62
     1
100
AcDbLine
 10
27.017773
 20
22.560298
 30
0.0
 11
26.955075
 21
22.518519
 31
0.0
  0
LINE
  5
CB
100
AcDbEntity
  8
0
370
    15
390
0
  6
Continuous
 62
     1
100
AcDbLine
 10
26.955075
 20
22.518519
 30
0.0
 11
26.861027
 21
22.518519
 31
0.0
  0
LINE
  5
CC
100
AcDbEntity
  8
0
370
    15
390
0
  6
Continuous
 62
     1
100
AcDbLine
 10
26.861027
 20
22.518519
 30
0.0
 11
26.798329
 21
22.570742
 31
0.0
  0
LINE
  5
CD
100
AcDbEntity
  8
0
370
    15
390
0
  6
Continuous
 62
     1
100
AcDbLine
 10
26.798329
 20
22.570742
 30
0.0
 11
26.719426
 21
22.549853
 31
0.0
  0
LINE
  5
CE
100
AcDbEntity
  8
0
370
    15
390
0
  6
Continuous
 62
     1
100
AcDbLine
 10
26.209454
 20
16.019538
 30
0.0
 11
26.176709
 21
15.979911
 31
0.0
  0
LINE
  5
CF
100
AcDbEntity
  8
0
370
    15
390
0
  6
Continuous
 62
     1
100
AcDbLine
 10
26.176709
 20
15.979911
 30
0.0
 11
26.111989
 21
15.936782
 31
0.0
  0
LINE
  5
D0
100
AcDbEntity
  8
0
370
    15
390
0
  6
Continuous
 62
     1
100
AcDbLine
 10
26.111989
 20
15.936782
 30
0.0
 11
26.068837
 21
15.861312
 31
0.0
  0
LINE
  5
D1
100
AcDbEntity
  8
0
370
    15
390
0
  6
Continuous
 62
     1
100
AcDbLine
 10
26.068837
 20
15.861312
 30
0.0
 11
25.993321
 21
15.818183
 31
0.0
  0
LINE
  5
D2
100
AcDbEntity
  8
0
370
    15
390
0
  6
Continuous
 62
     1
100
AcDbLine
 10
25.993321
 20
15.818183
 30
0.0
 11
25.923207
 21
15.807402
 31
0.0
  0
LINE
  5
D3
100
AcDbEntity
  8
0
370
    15
390
0
  6
Continuous
 62
     1
100
AcDbLine
 10
25.923207
 20
15.807402
 30
0.0
 11
25.907429
 21
15.791228
 31
0.0
  0
LINE
  5
D4
100
AcDbEntity
  8
0
370
    15
390
0
  6
Continuous
 62
     1
100
AcDbLine
 10
25.907429
 20
15.791228
 30
0.0
 11
25.907429
 21
16.78274
 31
0.0
  0
LINE
  5
D5
100
AcDbEntity
  8
0
370
    15
390
0
  6
Continuous
 62
     7
100
AcDbLine
 10
25.219426
 20
22.311137
 30
0.0
 11
25.219426
 21
21.166617
 31
0.0
  0
LINE
  5
D6
100
AcDbEntity
  8
0
370
    15
390
0
  6
Continuous
 62
     1
100
AcDbLine
 10
26.742406
 20
19.741271
 30
0.0
 11
26.825047
 21
19.823909
 31
0.0
  0
LINE
  5
D7
100
AcDbEntity
  8
0
370
    15
390
0
  6
Continuous
 62
     1
100
AcDbLine
 10
26.565633
 20
19.741271
 30
0.0
 11
26.825047
 21
20.000686
 31
0.0
  0
LINE
  5
D8
100
AcDbEntity
  8
0
370
    15
390
0
  6
Continuous
 62
     1
100
AcDbLine
 10
26.388852
 20
19.741271
 30
0.0
 11
26.825047
 21
20.177462
 31
0.0
  0
LINE
  5
D9
100
AcDbEntity
  8
0
370
    15
390
0
  6
Continuous
 62
     1
100
AcDbLine
 10
26.212079
 20
19.741271
 30
0.0
 11
26.78951
 21
20.318702
 31
0.0
  0
LINE
  5
DA
100
AcDbEntity
  8
0
370
    15
390
0
  6
Continuous
 62
     1
100
AcDbLine
 10
26.153844
 20
19.85982
 30
0.0
 11
26.757878
 21
20.463855
 31
0.0
  0
LINE
  5
DB
100
AcDbEntity
  8
0
370
    15
390
0
  6
Continuous
 62
     1
100
AcDbLine
 10
26.153844
 20
20.036597
 30
0.0
 11
26.732365
 21
20.615111
 31
0.0
  0
LINE
  5
DC
100
AcDbEntity
  8
0
370
    15
390
0
  6
Continuous
 62
     1
100
AcDbLine
 10
26.251431
 20
20.310954
 30
0.0
 11
26.555653
 21
20.615176
 31
0.0
  0
LINE
  5
DD
100
AcDbEntity
  8
0
370
    15
390
0
  6
Continuous
 62
     1
100
AcDbLine
 10
26.251431
 20
20.487731
 30
0.0
 11
26.378941
 21
20.615241
 31
0.0
  0
LINE
  5
DE
100
AcDbEntity
  8
0
370
    15
390
0
  6
Continuous
 62
     1
100
AcDbLine
 10
26.275998
 20
17.493926
 30
0.0
 11
26.094449
 21
17.312377
 31
0.0
  0
LINE
  5
DF
100
AcDbEntity
  8
0
370
    15
390
0
  6
Continuous
 62
     1
100
AcDbLine
 10
26.452779
 20
17.493926
 30
0.0
 11
26.094449
 21
17.1356
 31
0.0
  0
LINE
  5
E0
100
AcDbEntity
  8
0
370
    15
390
0
  6
Continuous
 62
     1
100
AcDbLine
 10
26.629552
 20
17.493926
 30
0.0
 11
26.094449
 21
16.958823
 31
0.0
  0
LINE
  5
E1
100
AcDbEntity
  8
0
370
    15
390
0
  6
Continuous
 62
     1
100
AcDbLine
 10
25.907429
 20
16.595023
 30
0.0
 11
26.748097
 21
17.435691
 31
0.0
  0
LINE
  5
E2
100
AcDbEntity
  8
0
370
    15
390
0
  6
Continuous
 62
     1
100
AcDbLine
 10
26.506299
 20
16.310008
 30
0.0
 11
26.388165
 21
16.191874
 31
0.0
  0
LINE
  5
E3
100
AcDbEntity
  8
0
370
    15
390
0
  6
Continuous
 62
     1
100
AcDbLine
 10
26.584058
 20
16.564547
 30
0.0
 11
25.907429
 21
15.887915
 31
0.0
  0
LINE
  5
E4
100
AcDbEntity
  8
0
370
    15
390
0
  6
Continuous
 62
     1
100
AcDbLine
 10
26.612591
 20
16.769854
 30
0.0
 11
25.907429
 21
16.064692
 31
0.0
  0
LINE
  5
E5
100
AcDbEntity
  8
0
370
    15
390
0
  6
Continuous
 62
     1
100
AcDbLine
 10
26.687154
 20
17.021193
 30
0.0
 11
25.907429
 21
16.241469
 31
0.0
  0
LINE
  5
E6
100
AcDbEntity
  8
0
370
    15
390
0
  6
Continuous
 62
     1
100
AcDbLine
 10
26.748097
 20
17.258914
 30
0.0
 11
25.907429
 21
16.418246
 31
0.0
  0
LINE
  5
E7
100
AcDbEntity
  8
0
370
    15
390
0
  6
CL____X1
 62
     1
100
AcDbLine
 10
26.29543
 20
20.760402
 30
0.0
 11
26.53249
 21
20.897273
 31
0.0
  0
LINE
  5
E8
100
AcDbEntity
  8
0
370
    15
390
0
  6
Continuous
 62
     1
100
AcDbLine
 10
26.855824
 20
20.904601
 30
0.0
 11
26.832005
 21
20.800128
 31
0.0
  0
LINE
  5
E9
100
AcDbEntity
  8
0
370
    15
390
0
  6
Continuous
 62
     1
100
AcDbLine
 10
26.832005
 20
20.800128
 30
0.0
 11
26.799489
 21
20.763572
 31
0.0
  0
LINE
  5
EA
100
AcDbEntity
  8
0
370
    15
390
0
  6
Continuous
 62
     1
100
AcDbLine
 10
26.799489
 20
20.763572
 30
0.0
 11
26.779172
 21
20.682338
 31
0.0
  0
LINE
  5
EB
100
AcDbEntity
  8
0
370
    15
390
0
  6
Continuous
 62
     1
100
AcDbLine
 10
26.779172
 20
20.682338
 30
0.0
 11
26.783238
 21
20.584853
 31
0.0
  0
LINE
  5
EC
100
AcDbEntity
  8
0
370
    15
390
0
  6
Continuous
 62
     1
100
AcDbLine
 10
26.783238
 20
20.584853
 30
0.0
 11
26.76698
 21
20.548297
 31
0.0
  0
LINE
  5
ED
100
AcDbEntity
  8
0
370
    15
390
0
  6
Continuous
 62
     1
100
AcDbLine
 10
26.76698
 20
20.548297
 30
0.0
 11
26.762913
 21
20.495494
 31
0.0
  0
LINE
  5
EE
100
AcDbEntity
  8
0
370
    15
390
0
  6
Continuous
 62
     1
100
AcDbLine
 10
26.762913
 20
20.495494
 30
0.0
 11
26.757878
 21
20.463855
 31
0.0
  0
LINE
  5
EF
100
AcDbEntity
  8
0
370
    15
390
0
  6
Continuous
 62
     1
100
AcDbLine
 10
26.757878
 20
20.463855
 30
0.0
 11
26.763486
 21
20.416236
 31
0.0
  0
LINE
  5
F0
100
AcDbEntity
  8
0
370
    15
390
0
  6
Continuous
 62
     1
100
AcDbLine
 10
26.781972
 20
20.615271
 30
0.0
 11
26.291425
 21
20.615271
 31
0.0
  0
LINE
  5
F1
100
AcDbEntity
  8
0
370
    15
390
0
  6
Continuous
 62
     7
100
AcDbLine
 10
26.091931
 20
16.805926
 30
0.0
 11
26.044606
 21
16.78395
 31
0.0
  0
LINE
  5
F2
100
AcDbEntity
  8
0
370
    15
390
0
  6
Continuous
 62
     7
100
AcDbLine
 10
25.219426
 20
17.645121
 30
0.0
 11
25.219426
 21
17.703364
 31
0.0
  0
LINE
  5
F3
100
AcDbEntity
  8
0
370
    15
390
0
  6
Continuous
 62
     1
100
AcDbLine
 10
26.351857
 20
18.61727
 30
0.0
 11
26.473378
 21
18.61727
 31
0.0
  0
LINE
  5
F4
100
AcDbEntity
  8
0
370
    15
390
0
  6
Continuous
 62
     1
100
AcDbLine
 10
26.291096
 20
18.61727
 30
0.0
 11
26.028844
 21
18.61727
 31
0.0
  0
LINE
  5
F5
100
AcDbEntity
  8
0
370
    15
390
0
  6
Continuous
 62
     7
100
AcDbLine
 10
25.219426
 20
16.78395
 30
0.0
 11
26.044606
 21
16.78395
 31
0.0
  0
LINE
  5
F6
100
AcDbEntity
  8
2
370
    15
390
0
  6
Continuous
 62
     7
100
AcDbLine
 10
25.219426
 20
16.805926
 30
0.0
 11
26.091931
 21
16.805926
 31
0.0
  0
LINE
  5
F7
100
AcDbEntity
  8
2
370
    15
390
0
  6
Continuous
 62
     7
100
AcDbLine
 10
25.219426
 20
16.920928
 30
0.0
 11
26.091931
 21
16.920928
 31
0.0
  0
LINE
  5
F8
100
AcDbEntity
  8
2
370
    15
390
0
  6
Continuous
 62
     7
100
AcDbLine
 10
25.219426
 20
17.315928
 30
0.0
 11
26.091931
 21
17.315928
 31
0.0
  0
LINE
  5
F9
100
AcDbEntity
  8
2
370
    15
390
0
  6
Continuous
 62
     7
100
AcDbLine
 10
25.219426
 20
17.429927
 30
0.0
 11
26.091931
 21
17.429927
 31
0.0
  0
LINE
  5
FA
100
AcDbEntity
  8
2
370
    15
390
0
  6
Continuous
 62
     7
100
AcDbLine
 10
25.219426
 20
17.743926
 30
0.0
 11
25.303807
 21
17.743926
 31
0.0
  0
LINE
  5
FB
100
AcDbEntity
  8
2
370
    15
390
0
  6
Continuous
 62
     7
100
AcDbLine
 10
25.219426
 20
19.303271
 30
0.0
 11
26.089429
 21
19.303271
 31
0.0
  0
LINE
  5
FC
100
AcDbEntity
  8
2
370
    15
390
0
  6
Continuous
 62
     7
100
AcDbLine
 10
25.219426
 20
19.335273
 30
0.0
 11
26.121426
 21
19.335273
 31
0.0
  0
LINE
  5
FD
100
AcDbEntity
  8
2
370
    15
390
0
  6
Continuous
 62
     7
100
AcDbLine
 10
25.219426
 20
19.503272
 30
0.0
 11
26.121426
 21
19.503272
 31
0.0
  0
LINE
  5
FE
100
AcDbEntity
  8
2
370
    15
390
0
  6
Continuous
 62
     7
100
AcDbLine
 10
25.219426
 20
19.601271
 30
0.0
 11
26.219426
 21
19.601271
 31
0.0
  0
LINE
  5
FF
100
AcDbEntity
  8
2
370
    15
390
0
  6
Continuous
 62
     7
100
AcDbLine
 10
25.219426
 20
20.160777
 30
0.0
 11
26.219426
 21
20.160777
 31
0.0
  0
LINE
  5
100
100
AcDbEntity
  8
2
370
    15
390
0
  6
Continuous
 62
     7
100
AcDbLine
 10
25.219426
 20
20.209273
 30
0.0
 11
26.135426
 21
20.209273
 31
0.0
  0
LINE
  5
101
100
AcDbEntity
  8
2
370
    15
390
0
  6
Continuous
 62
     7
100
AcDbLine
 10
25.219426
 20
20.459273
 30
0.0
 11
26.247426
 21
20.459273
 31
0.0
  0
LINE
  5
102
100
AcDbEntity
  8
2
370
    15
390
0
  6
Continuous
 62
     7
100
AcDbLine
 10
25.219426
 20
20.553271
 30
0.0
 11
26.29543
 21
20.553271
 31
0.0
  0
LINE
  5
103
100
AcDbEntity
  8
2
370
    15
390
0
  6
Continuous
 62
     7
100
AcDbLine
 10
25.219426
 20
20.929274
 30
0.0
 11
26.329427
 21
20.929274
 31
0.0
  0
ARC
  5
104
100
AcDbEntity
  8
2
370
    15
390
0
  6
Continuous
 62
     7
100
AcDbCircle
 10
25.219426
 20
22.916639
 30
0.0
 40
1.987362
100
AcDbArc
 50
270.0
 51
289.076207
  0
ARC
  5
105
100
AcDbEntity
  8
2
370
    15
390
0
  6
Continuous
 62
     7
100
AcDbCircle
 10
25.219426
 20
20.004977
 30
0.0
 40
1.987299
100
AcDbArc
 50
70.92315
 51
90.0
  0
LINE
  5
106
100
AcDbEntity
  8
2
370
    15
390
0
  6
Continuous
 62
     7
100
AcDbLine
 10
25.219426
 20
21.992274
 30
0.0
 11
26.329427
 21
21.992274
 31
0.0
  0
ARC
  5
107
100
AcDbEntity
  8
4
370
    15
390
0
  6
Continuous
 62
     7
100
AcDbCircle
 10
25.219426
 20
17.743926
 30
0.0
 40
0.25
100
AcDbArc
 50
270.0
 51
450.0
  0
LINE
  5
108
100
AcDbEntity
  8
0
370
    15
390
0
  6
Continuous
 62
     7
100
AcDbLine
 10
24.139424
 20
20.553271
 30
0.0
 11
24.147427
 21
20.553271
 31
0.0
  0
ARC
  5
109
100
AcDbEntity
  8
0
370
    15
390
0
  6
Continuous
 62
     7
100
AcDbCircle
 10
24.147424
 20
20.513267
 30
0.0
 40
0.040004
100
AcDbArc
 50
0.004136
 51
89.995864
  0
LINE
  5
10A
100
AcDbEntity
  8
0
370
    15
390
0
  6
Continuous
 62
     7
100
AcDbLine
 10
24.187428
 20
20.241271
 30
0.0
 11
24.187428
 21
20.51327
 31
0.0
  0
LINE
  5
10B
100
AcDbEntity
  8
0
370
    15
390
0
  6
Continuous
 62
     7
100
AcDbLine
 10
24.187428
 20
20.241271
 30
0.0
 11
24.285008
 21
20.143691
 31
0.0
  0
LINE
  5
10C
100
AcDbEntity
  8
0
370
    15
390
0
  6
Continuous
 62
     7
100
AcDbLine
 10
24.285008
 20
20.143691
 30
0.0
 11
24.285008
 21
17.459273
 31
0.0
  0
LINE
  5
10D
100
AcDbEntity
  8
0
370
    15
390
0
  6
CL____X1
 62
     7
100
AcDbLine
 10
24.219426
 20
19.303271
 30
0.0
 11
24.219426
 21
20.199271
 31
0.0
  0
LINE
  5
10E
100
AcDbEntity
  8
0
370
    15
390
0
  6
Continuous
 62
     7
100
AcDbLine
 10
24.285008
 20
17.459273
 30
0.0
 11
24.326245
 21
17.418036
 31
0.0
  0
ARC
  5
10F
100
AcDbEntity
  8
0
370
    15
390
0
  6
Continuous
 62
     7
100
AcDbCircle
 10
24.282444
 20
17.374214
 30
0.0
 40
0.061959
100
AcDbArc
 50
359.981476
 51
405.013788
  0
LINE
  5
110
100
AcDbEntity
  8
0
370
    15
390
0
  6
Continuous
 62
     7
100
AcDbLine
 10
24.344403
 20
16.783873
 30
0.0
 11
24.344403
 21
17.374194
 31
0.0
  0
LINE
  5
111
100
AcDbEntity
  8
0
370
    15
390
0
  6
CL____X1
 62
     1
100
AcDbLine
 10
24.19743
 20
20.729228
 30
0.0
 11
24.19743
 21
20.615271
 31
0.0
  0
LINE
  5
112
100
AcDbEntity
  8
0
370
    15
390
0
  6
CL____X1
 62
     1
100
AcDbLine
 10
24.243428
 20
20.588713
 30
0.0
 11
24.19743
 21
20.615271
 31
0.0
  0
LINE
  5
113
100
AcDbEntity
  8
0
370
    15
390
0
  6
CL____X1
 62
     1
100
AcDbLine
 10
24.243428
 20
20.588713
 30
0.0
 11
24.243428
 21
20.303271
 31
0.0
  0
LINE
  5
114
100
AcDbEntity
  8
0
370
    15
390
0
  6
CL____X1
 62
     1
100
AcDbLine
 10
24.33743
 20
20.248999
 30
0.0
 11
24.243428
 21
20.303271
 31
0.0
  0
LINE
  5
115
100
AcDbEntity
  8
0
370
    15
390
0
  6
CL____X1
 62
     1
100
AcDbLine
 10
24.33743
 20
20.248999
 30
0.0
 11
24.33743
 21
17.494273
 31
0.0
  0
LINE
  5
116
100
AcDbEntity
  8
0
370
    15
390
0
  6
CL____X1
 62
     1
100
AcDbLine
 10
24.405423
 20
17.455012
 30
0.0
 11
24.33743
 21
17.494273
 31
0.0
  0
LINE
  5
117
100
AcDbEntity
  8
0
370
    15
390
0
  6
CL____X1
 62
     1
100
AcDbLine
 10
24.405423
 20
17.455012
 30
0.0
 11
24.405423
 21
16.931269
 31
0.0
  0
CIRCLE
  5
118
100
AcDbEntity
  8
0
370
    15
390
0
  6
DIVIDE
 62
     1
100
AcDbCircle
 10
24.204068
 20
20.556365
 30
0.0
 40
0.153889
  0
LINE
  5
119
100
AcDbEntity
  8
0
370
    15
390
0
  6
CL____X1
 62
     1
100
AcDbLine
 10
23.906361
 20
20.897273
 30
0.0
 11
24.19743
 21
20.729228
 31
0.0
  0
LINE
  5
11A
100
AcDbEntity
  8
0
370
    15
390
0
  6
Continuous
 62
     7
100
AcDbLine
 10
24.139424
 20
22.446521
 30
0.0
 11
24.139424
 21
20.553271
 31
0.0
  0
LINE
  5
11B
100
AcDbEntity
  8
0
370
    15
390
0
  6
CL____X1
 62
     1
100
AcDbLine
 10
23.906361
 20
22.446521
 30
0.0
 11
23.906361
 21
20.897273
 31
0.0
  0
LINE
  5
11C
100
AcDbEntity
  8
0
370
    15
390
0
  6
CL____X1
 62
     1
100
AcDbLine
 10
25.219426
 20
16.461306
 30
0.0
 11
24.405423
 21
16.931269
 31
0.0
  0
LINE
  5
11D
100
AcDbEntity
  8
0
370
    15
390
0
  6
Continuous
 62
     7
100
AcDbLine
 10
24.660596
 20
16.78395
 30
0.0
 11
24.344403
 21
16.783873
 31
0.0
  0
LINE
  5
11E
100
AcDbEntity
  8
3
370
    15
390
0
  6
Continuous
 62
     1
100
AcDbLine
 10
24.344403
 20
16.783873
 30
0.0
 11
23.861367
 21
16.178751
 31
0.0
  0
LINE
  5
11F
100
AcDbEntity
  8
3
370
    15
390
0
  6
Continuous
 62
     1
100
AcDbLine
 10
27.269086
 20
20.553271
 30
0.0
 11
27.269086
 21
20.227842
 31
0.0
  0
LINE
  5
120
100
AcDbEntity
  8
3
370
    15
390
0
  6
Continuous
 62
     1
100
AcDbLine
 10
26.806416
 20
20.615107
 30
0.0
 11
27.421483
 21
20.615107
 31
0.0
  0
LINE
  5
121
100
AcDbEntity
  8
3
370
    15
390
0
  6
Continuous
 62
     1
100
AcDbLine
 10
27.209267
 20
22.253855
 30
0.0
 11
26.719426
 21
22.253855
 31
0.0
  0
LINE
  5
122
100
AcDbEntity
  8
3
370
    15
390
0
  6
Continuous
 62
     1
100
AcDbLine
 10
27.328908
 20
22.253855
 30
0.0
 11
27.593419
 21
22.253855
 31
0.0
  0
LINE
  5
123
100
AcDbEntity
  8
3
370
    15
390
0
  6
Continuous
 62
     1
100
AcDbLine
 10
27.209267
 20
21.991271
 30
0.0
 11
26.586613
 21
21.991271
 31
0.0
  0
LINE
  5
124
100
AcDbEntity
  8
3
370
    15
390
0
  6
Continuous
 62
     1
100
AcDbLine
 10
26.119195
 20
16.78395
 30
0.0
 11
27.449166
 21
16.78395
 31
0.0
  0
LINE
  5
125
100
AcDbEntity
  8
0
370
    15
390
0
  6
Continuous
 62
     1
100
AcDbLine
 10
27.209267
 20
18.61727
 30
0.0
 11
26.528615
 21
18.61727
 31
0.0
  0
LINE
  5
126
100
AcDbEntity
  8
0
370
    15
390
0
  6
Continuous
 62
     1
100
AcDbLine
 10
27.328908
 20
18.61727
 30
0.0
 11
28.762475
 21
18.61727
 31
0.0
  0
LINE
  5
127
100
AcDbEntity
  8
3
370
    15
390
0
  6
Continuous
 62
     1
100
AcDbLine
 10
23.67162
 20
22.319795
 30
0.0
 11
23.906361
 21
22.319795
 31
0.0
  0
LINE
  5
128
100
AcDbEntity
  8
0
370
    15
390
0
  6
Continuous
 62
     1
100
AcDbLine
 10
23.612679
 20
20.396561
 30
0.0
 11
23.486665
 21
20.177296
 31
0.0
  0
LINE
  5
129
100
AcDbEntity
  8
0
370
    15
390
0
  6
Continuous
 62
     1
100
AcDbLine
 10
23.525964
 20
20.396561
 30
0.0
 11
23.612679
 21
20.396561
 31
0.0
  0
LINE
  5
12A
100
AcDbEntity
  8
0
370
    15
390
0
  6
Continuous
 62
     1
100
AcDbLine
 10
23.486672
 20
20.177312
 30
0.0
 11
23.434273
 21
20.268075
 31
0.0
  0
LINE
  5
12B
100
AcDbEntity
  8
3
370
    15
390
0
  6
Continuous
 62
     1
100
AcDbLine
 10
24.262734
 20
16.783271
 30
0.0
 11
21.777985
 21
16.783271
 31
0.0
  0
LINE
  5
12C
100
AcDbEntity
  8
3
370
    15
390
0
  6
Continuous
 62
     1
100
AcDbLine
 10
24.235009
 20
17.459273
 30
0.0
 11
21.629212
 21
17.459273
 31
0.0
  0
LINE
  5
12D
100
AcDbEntity
  8
4
370
    15
390
0
  6
Continuous
 62
     7
100
AcDbLine
 10
23.17735
 20
17.050952
 30
0.0
 11
23.257378
 21
17.219287
 31
0.0
  0
LINE
  5
12E
100
AcDbEntity
  8
3
370
    15
390
0
  6
Continuous
 62
     1
100
AcDbLine
 10
23.334416
 20
17.134631
 30
0.0
 11
24.344403
 21
17.134631
 31
0.0
  0
LINE
  5
12F
100
AcDbEntity
  8
0
370
    15
390
0
  6
Continuous
 62
     1
100
AcDbLine
 10
23.718171
 20
17.353896
 30
0.0
 11
23.592156
 21
17.134631
 31
0.0
  0
LINE
  5
130
100
AcDbEntity
  8
0
370
    15
390
0
  6
Continuous
 62
     1
100
AcDbLine
 10
23.631455
 20
17.353896
 30
0.0
 11
23.718171
 21
17.353896
 31
0.0
  0
LINE
  5
131
100
AcDbEntity
  8
0
370
    15
390
0
  6
Continuous
 62
     1
100
AcDbLine
 10
23.592164
 20
17.134646
 30
0.0
 11
23.539765
 21
17.225409
 31
0.0
  0
LINE
  5
132
100
AcDbEntity
  8
4
370
    15
390
0
  6
Continuous
 62
     7
100
AcDbLine
 10
28.448247
 20
22.167397
 30
0.0
 11
28.528275
 21
22.335732
 31
0.0
  0
LINE
  5
133
100
AcDbEntity
  8
4
370
    15
390
0
  6
Continuous
 62
     1
100
AcDbLine
 10
27.432149
 20
16.053271
 30
0.0
 11
25.980386
 21
16.053271
 31
0.0
  0
LINE
  5
134
100
AcDbEntity
  8
3
370
    15
390
0
  6
Continuous
 62
     1
100
AcDbLine
 10
27.328908
 20
21.991271
 30
0.0
 11
28.661465
 21
21.991271
 31
0.0
  0
LINE
  5
135
100
AcDbEntity
  8
3
370
    15
390
0
  6
Continuous
 62
     1
100
AcDbLine
 10
24.531422
 20
16.019374
 30
0.0
 11
24.531422
 21
16.748576
 31
0.0
  0
LINE
  5
136
100
AcDbEntity
  8
0
370
    15
390
0
  6
Continuous
 62
     1
100
AcDbLine
 10
24.78439
 20
16.127533
 30
0.0
 11
24.531422
 21
16.127533
 31
0.0
  0
LINE
  5
137
100
AcDbEntity
  8
1
370
    15
390
0
  6
Continuous
 62
     1
100
AcDbLine
 10
24.285008
 20
17.459273
 30
0.0
 11
24.531422
 21
17.459273
 31
0.0
  0
LINE
  5
138
100
AcDbEntity
  8
1
370
    15
390
0
  6
Continuous
 62
     1
100
AcDbLine
 10
24.344403
 20
17.374194
 30
0.0
 11
24.531422
 21
17.374194
 31
0.0
  0
LINE
  5
139
100
AcDbEntity
  8
1
370
    15
390
0
  6
Continuous
 62
     1
100
AcDbLine
 10
24.219426
 20
19.303271
 30
0.0
 11
24.531422
 21
19.303271
 31
0.0
  0
LINE
  5
13A
100
AcDbEntity
  8
1
370
    15
390
0
  6
Continuous
 62
     1
100
AcDbLine
 10
24.285008
 20
20.143691
 30
0.0
 11
24.531422
 21
20.143691
 31
0.0
  0
LINE
  5
13B
100
AcDbEntity
  8
1
370
    15
390
0
  6
Continuous
 62
     1
100
AcDbLine
 10
24.187428
 20
20.241271
 30
0.0
 11
24.531422
 21
20.241271
 31
0.0
  0
LINE
  5
13C
100
AcDbEntity
  8
0
370
    15
390
0
  6
Continuous
 62
     7
100
AcDbLine
 10
25.219426
 20
17.5656
 30
0.0
 11
25.219426
 21
16.36896
 31
0.0
  0
TEXT
  5
13E
100
AcDbEntity
  8
0
370
    15
390
0
  6
Continuous
 62
     7
100
AcDbText
 10
19.512246
 20
22.018395
 30
0.0
 40
0.065844
  1
LET
 50
270.0
  7
Vcadd_SIMP
100
AcDbText
  0
TEXT
  5
13F
100
AcDbEntity
  8
0
370
    15
390
0
  6
Continuous
 62
     7
100
AcDbText
 10
19.512269
 20
20.911112
 30
0.0
 40
0.065844
  1
REVISION 
 50
270.0
  7
Vcadd_SIMP
100
AcDbText
  0
TEXT
  5
140
100
AcDbEntity
  8
0
370
    15
390
0
  6
Continuous
 62
     7
100
AcDbText
 10
19.510239
 20
19.309945
 30
0.0
 40
0.065844
  1
DATE 
 50
270.0
  7
Vcadd_SIMP
100
AcDbText
  0
TEXT
  5
141
100
AcDbEntity
  8
0
370
    15
390
0
  6
Continuous
 62
     7
100
AcDbText
 10
19.510407
 20
18.895922
 30
0.0
 40
0.065844
  1
DRN 
 50
270.0
  7
Vcadd_SIMP
100
AcDbText
  0
TEXT
  5
142
100
AcDbEntity
  8
0
370
    15
390
0
  6
Continuous
 62
     7
100
AcDbText
 10
19.510075
 20
18.648451
 30
0.0
 40
0.065844
  1
CHK 
 50
270.0
  7
Vcadd_SIMP
100
AcDbText
  0
TEXT
  5
143
100
AcDbEntity
  8
0
370
    15
390
0
  6
Continuous
 62
     7
100
AcDbText
 10
19.510407
 20
18.399423
 30
0.0
 40
0.065844
  1
REL
 50
270.0
  7
Vcadd_SIMP
100
AcDbText
  0
TEXT
  5
144
100
AcDbEntity
  8
0
370
    15
390
0
  6
Continuous
 62
     7
100
AcDbText
 10
20.734349
 20
17.862447
 30
0.0
 40
0.062
  1
UNLESS
 50
270.0
  7
Vcadd_SIMP
100
AcDbText
  0
TEXT
  5
145
100
AcDbEntity
  8
0
370
    15
390
0
  6
Continuous
 62
     7
100
AcDbText
 10
20.630593
 20
17.952872
 30
0.0
 40
0.062
  1
OTHERWISE
 50
270.0
  7
Vcadd_SIMP
100
AcDbText
  0
TEXT
  5
146
100
AcDbEntity
  8
0
370
    15
390
0
  6
Continuous
 62
     7
100
AcDbText
 10
20.518533
 20
17.95072
 30
0.0
 40
0.062
  1
SPECIFIED
 50
270.0
  7
Vcadd_SIMP
100
AcDbText
  0
TEXT
  5
147
100
AcDbEntity
  8
0
370
    15
390
0
  6
Continuous
 62
     7
100
AcDbText
 10
20.721543
 20
14.140037
 30
0.0
 40
0.062
  1
REVISION
 50
270.0
  7
Vcadd_SIMP
100
AcDbText
  0
TEXT
  5
148
100
AcDbEntity
  8
0
370
    15
390
0
  6
Continuous
 62
     7
100
AcDbText
 10
20.301404
 20
17.149743
 30
0.0
 40
0.062
  1
SCALE
 50
270.0
  7
Vcadd_SIMP
100
AcDbText
  0
TEXT
  5
149
100
AcDbEntity
  8
0
370
    15
390
0
  6
Continuous
 62
     7
100
AcDbText
 10
20.301404
 20
17.149743
 30
0.0
 40
0.062
  1
      REF.                
 50
270.0
  7
Vcadd_SIMP
100
AcDbText
  0
TEXT
  5
14A
100
AcDbEntity
  8
0
370
    15
390
0
  6
Continuous
 62
     7
100
AcDbText
 10
20.301404
 20
15.515963
 30
0.0
 40
0.062
  1
MATERIAL
 50
270.0
  7
Vcadd_SIMP
100
AcDbText
  0
TEXT
  5
14B
100
AcDbEntity
  8
0
370
    15
390
0
  6
Continuous
 62
     7
100
AcDbText
 10
19.934048
 20
17.144677
 30
0.0
 40
0.062
  1
DRAWN    
 50
270.0
  7
Vcadd_SIMP
100
AcDbText
  0
TEXT
  5
14C
100
AcDbEntity
  8
0
370
    15
390
0
  6
Continuous
 62
     7
100
AcDbText
 10
19.934048
 20
16.608989
 30
0.0
 40
0.062
  1
CHECK 
 50
270.0
  7
Vcadd_SIMP
100
AcDbText
  0
TEXT
  5
14D
100
AcDbEntity
  8
0
370
    15
390
0
  6
Continuous
 62
     7
100
AcDbText
 10
19.934048
 20
16.068234
 30
0.0
 40
0.062
  1
RELEASE
 50
270.0
  7
Vcadd_SIMP
100
AcDbText
  0
TEXT
  5
14E
100
AcDbEntity
  8
0
370
    15
390
0
  6
Continuous
 62
     7
100
AcDbText
 10
19.64483
 20
17.138645
 30
0.0
 40
0.062
  1
DATE     
 50
270.0
  7
Vcadd_SIMP
100
AcDbText
  0
TEXT
  5
14F
100
AcDbEntity
  8
0
370
    15
390
0
  6
Continuous
 62
     7
100
AcDbText
 10
19.64483
 20
16.602957
 30
0.0
 40
0.062
  1
DATE  
 50
270.0
  7
Vcadd_SIMP
100
AcDbText
  0
TEXT
  5
150
100
AcDbEntity
  8
0
370
    15
390
0
  6
Continuous
 62
     7
100
AcDbText
 10
19.64483
 20
16.062202
 30
0.0
 40
0.062
  1
DATE
 50
270.0
  7
Vcadd_SIMP
100
AcDbText
  0
TEXT
  5
151
100
AcDbEntity
  8
0
370
    15
390
0
  6
Continuous
 62
     7
100
AcDbText
 10
19.934048
 20
15.519227
 30
0.0
 40
0.062
  1
HEAT TREAT & FINISH
 50
270.0
  7
Vcadd_SIMP
100
AcDbText
  0
TEXT
  5
152
100
AcDbEntity
  8
0
370
    15
390
0
  6
Continuous
 62
     7
100
AcDbText
 10
20.721543
 20
13.954037
 30
0.0
 40
0.062
  1
      PART NO.
 50
270.0
  7
Vcadd_SIMP
100
AcDbText
  0
TEXT
  5
153
100
AcDbEntity
  8
0
370
    15
390
0
  6
Continuous
 62
     7
100
AcDbText
 10
29.35059
 20
14.152491
 30
0.0
 40
0.062
  1
REVISION PART NO.
 50
270.0
  7
Vcadd_SIMP
100
AcDbText
  0
TEXT
  5
154
100
AcDbEntity
  8
0
370
    15
390
0
  6
Continuous
 62
     7
100
AcDbText
 10
20.721513
 20
17.141227
 30
0.0
 40
0.062
  1
TITLE
 50
270.0
  7
Vcadd_SIMP
100
AcDbText
  0
TEXT
  5
155
100
AcDbEntity
  8
0
370
    15
390
0
  6
Continuous
 62
     7
100
AcDbText
 10
20.089398
 20
17.115221
 30
0.0
 40
0.094
  1
2:1
 50
270.0
  7
Vcadd_SIMP
100
AcDbText
  0
TEXT
  5
156
100
AcDbEntity
  8
0
370
    15
390
0
  6
Continuous
 62
     7
100
AcDbText
 10
19.787183
 20
17.109057
 30
0.0
 40
0.094
  1
HHP   JDA
 50
270.0
  7
Vcadd_SIMP
100
AcDbText
  0
TEXT
  5
157
100
AcDbEntity
  8
0
370
    15
390
0
  6
Continuous
 62
     7
100
AcDbText
 10
19.503472
 20
17.109056
 30
0.0
 40
0.065
  1
5-4-76  5-20-76
 50
270.0
  7
Vcadd_SIMP
100
AcDbText
  0
TEXT
  5
158
100
AcDbEntity
  8
4
370
    15
390
0
  6
Continuous
 62
     7
100
AcDbText
 10
23.137231
 20
21.163687
 30
0.0
 40
0.16275
  1
O
  7
Vcadd_SIMP
100
AcDbText
  0
TEXT
  5
159
100
AcDbEntity
  8
0
370
    15
390
0
  6
Continuous
 62
     7
100
AcDbText
 10
19.676461
 20
21.979232
 30
0.0
 40
0.06
  1
K
 50
270.0
  7
Vcadd_SIMP
100
AcDbText
  0
TEXT
  5
15A
100
AcDbEntity
  8
0
370
    15
390
0
  6
Continuous
 62
     7
100
AcDbText
 10
19.676461
 20
21.791524
 30
0.0
 40
0.06
  1
REDRAWN IN NEW FORMAT
 50
270.0
  7
Vcadd_SIMP
100
AcDbText
  0
TEXT
  5
15B
100
AcDbEntity
  8
0
370
    15
390
0
  6
Continuous
 62
     7
100
AcDbText
 10
19.661557
 20
20.531514
 30
0.0
 40
0.06
  1
.
 50
270.0
  7
Vcadd_SIMP
100
AcDbText
  0
TEXT
  5
15C
100
AcDbEntity
  8
0
370
    15
390
0
  6
Continuous
 62
     7
100
AcDbText
 10
19.661557
 20
18.906933
 30
0.0
 40
0.069
  1
BRS
 50
270.0
  7
Vcadd_SIMP
100
AcDbText
  0
TEXT
  5
15D
100
AcDbEntity
  8
4
370
    15
390
0
  6
Continuous
 62
     7
100
AcDbText
 10
23.137231
 20
17.066117
 30
0.0
 40
0.16275
  1
O
  7
Vcadd_SIMP
100
AcDbText
  0
TEXT
  5
15E
100
AcDbEntity
  8
4
370
    15
390
0
  6
Continuous
 62
     7
100
AcDbText
 10
27.6414
 20
22.18826
 30
0.0
 40
0.142
  1
38,10
  7
Vcadd_SIMP
100
AcDbText
  0
TEXT
  5
15F
100
AcDbEntity
  8
4
370
    15
390
0
  6
Continuous
 62
     7
100
AcDbText
 10
28.408131
 20
22.182562
 30
0.0
 40
0.16275
  1
O
  7
Vcadd_SIMP
100
AcDbText
  0
TEXT
  5
160
100
AcDbEntity
  8
4
370
    15
390
0
  6
Continuous
 62
     7
100
AcDbText
 10
28.771012
 20
18.564354
 30
0.0
 40
0.142
  1
24,61
  7
Vcadd_SIMP
100
AcDbText
  0
TEXT
  5
161
100
AcDbEntity
  8
4
370
    15
390
0
  6
Continuous
 62
     7
100
AcDbText
 10
27.49989
 20
15.987217
 30
0.0
 40
0.142
  1
57,2
  7
Vcadd_SIMP
100
AcDbText
  0
TEXT
  5
162
100
AcDbEntity
  8
4
370
    15
390
0
  6
Continuous
 62
     7
100
AcDbText
 10
20.881112
 20
17.382713
 30
0.0
 40
0.142
  1
39,29
  7
Vcadd_SIMP
100
AcDbText
  0
TEXT
  5
163
100
AcDbEntity
  8
4
370
    15
390
0
  6
Continuous
 62
     7
100
AcDbText
 10
22.385354
 20
17.14856
 30
0.0
 40
0.142
  1
22,23
  7
Vcadd_SIMP
100
AcDbText
  0
TEXT
  5
164
100
AcDbEntity
  8
4
370
    15
390
0
  6
Continuous
 62
     7
100
AcDbText
 10
22.385354
 20
16.97106
 30
0.0
 40
0.142
  1
22,28
  7
Vcadd_SIMP
100
AcDbText
  0
TEXT
  5
165
100
AcDbEntity
  8
4
370
    15
390
0
  6
Continuous
 62
     7
100
AcDbText
 10
19.660031
 20
19.428032
 30
0.0
 40
0.084987
  1
06 JUL93
 50
270.0
 41
0.72
  7
Vcadd_SIMP
100
AcDbText
  0
LINE
  5
166
100
AcDbEntity
  8
4
370
    15
390
0
  6
Continuous
 62
     7
100
AcDbLine
 10
20.840993
 20
11.429572
 30
0.0
 11
20.840993
 21
11.429572
 31
0.0
  0
LINE
  5
167
100
AcDbEntity
  8
4
370
    15
390
0
  6
Continuous
 62
     7
100
AcDbLine
 10
24.516309
 20
14.711035
 30
0.0
 11
24.883774
 21
14.711035
 31
0.0
  0
LINE
  5
168
100
AcDbEntity
  8
4
370
    15
390
0
  6
Continuous
 62
     7
100
AcDbLine
 10
24.883774
 20
14.711035
 30
0.0
 11
24.883774
 21
15.042622
 31
0.0
  0
LINE
  5
169
100
AcDbEntity
  8
4
370
    15
390
0
  6
Continuous
 62
     7
100
AcDbLine
 10
24.883774
 20
15.042622
 30
0.0
 11
24.516309
 21
15.042622
 31
0.0
  0
LINE
  5
16A
100
AcDbEntity
  8
4
370
    15
390
0
  6
Continuous
 62
     7
100
AcDbLine
 10
24.516309
 20
15.042622
 30
0.0
 11
24.516309
 21
14.711035
 31
0.0
  0
CIRCLE
  5
16B
100
AcDbEntity
  8
4
370
    15
390
0
  6
Continuous
 62
     7
100
AcDbCircle
 10
24.700041
 20
14.876828
 30
0.0
 40
0.129336
  0
CIRCLE
  5
16C
100
AcDbEntity
  8
4
370
    15
390
0
  6
Continuous
 62
     7
100
AcDbCircle
 10
24.700041
 20
14.876828
 30
0.0
 40
0.057001
  0
HATCH
  5
16D
100
AcDbEntity
  8
4
370
     0
390
0
  6
Continuous
 62
     7
100
AcDbHatch
 10
0.0
 20
0.0
 30
0.0
210
0.0
220
0.0
230
1.0
  2
SOLID
 70
     1
 71
     0
 91
        1
 92
        1
 93
        1
 72
     2
 10
24.700041390146367
 20
14.876828279223552
 40
0.0570005946738519
 50
0.0
 51
359.999994
 73
     1
 97
        0
 75
     0
 76
     1
 98
        1
 10
0.0
 20
0.0
  0
LINE
  5
16E
100
AcDbEntity
  8
4
370
    15
390
0
  6
Continuous
 62
     7
100
AcDbLine
 10
24.883774
 20
15.042622
 30
0.0
 11
25.867361
 21
15.042622
 31
0.0
  0
LINE
  5
16F
100
AcDbEntity
  8
4
370
    15
390
0
  6
Continuous
 62
     7
100
AcDbLine
 10
24.883774
 20
14.711035
 30
0.0
 11
25.867361
 21
14.711035
 31
0.0
  0
LINE
  5
170
100
AcDbEntity
  8
4
370
    15
390
0
  6
Continuous
 62
     7
100
AcDbLine
 10
25.867361
 20
15.042622
 30
0.0
 11
25.867361
 21
14.711035
 31
0.0
  0
LINE
  5
171
100
AcDbEntity
  8
4
370
    15
390
0
  6
Continuous
 62
     7
100
AcDbLine
 10
25.867361
 20
14.711035
 30
0.0
 11
26.234826
 21
14.711035
 31
0.0
  0
LINE
  5
172
100
AcDbEntity
  8
4
370
    15
390
0
  6
Continuous
 62
     7
100
AcDbLine
 10
26.234826
 20
14.711035
 30
0.0
 11
26.234826
 21
15.042622
 31
0.0
  0
LINE
  5
173
100
AcDbEntity
  8
4
370
    15
390
0
  6
Continuous
 62
     7
100
AcDbLine
 10
26.234826
 20
15.042622
 30
0.0
 11
25.867361
 21
15.042622
 31
0.0
  0
TEXT
  5
174
100
AcDbEntity
  8
4
370
    15
390
0
  6
Continuous
 62
     7
100
AcDbText
 10
25.913971
 20
14.749239
 30
0.0
 40
0.24
  1
A
  7
Vcadd_SIMP
 72
     1
 11
26.051971
 21
14.749239
 31
0.0
100
AcDbText
  0
TEXT
  5
175
100
AcDbEntity
  8
4
370
    15
390
0
  6
Continuous
 62
     7
100
AcDbText
 10
24.79692
 20
14.757893
 30
0.0
 40
0.24
  1
0,05
  7
Vcadd_SIMP
 72
     1
 11
25.34892
 21
14.757893
 31
0.0
100
AcDbText
  0
TEXT
  5
176
100
AcDbEntity
  8
0
370
    15
390
0
  6
Continuous
 62
     7
100
AcDbText
 10
20.120789
 20
16.666129
 30
0.0
 40
0.12032
  1
SERIES 2
 50
270.0
  7
Vcadd_SIMP
100
AcDbText
  0
LINE
  5
177
100
AcDbEntity
  8
1
370
    15
390
0
  6
Continuous
 62
     7
100
AcDbLine
 10
20.923121
 20
22.657685
 30
0.0
 11
21.058325
 21
22.657685
 31
0.0
  0
LINE
  5
178
100
AcDbEntity
  8
1
370
    15
390
0
  6
Continuous
 62
     7
100
AcDbLine
 10
21.17272
 20
22.459538
 30
0.0
 11
21.058325
 21
22.657685
 31
0.0
  0
CIRCLE
  5
179
100
AcDbEntity
  8
1
370
    15
390
0
  6
Continuous
 62
     1
100
AcDbCircle
 10
21.052363
 20
22.596921
 30
0.0
 40
0.276708
  0
LINE
  5
17A
100
AcDbEntity
  8
1
370
    15
390
0
  6
Continuous
 62
     7
100
AcDbLine
 10
20.923121
 20
22.657685
 30
0.0
 11
20.923121
 21
22.843667
 31
0.0
  0
LINE
  5
17B
100
AcDbEntity
  8
1
370
    15
390
0
  6
Continuous
 62
     7
100
AcDbLine
 10
21.17272
 20
22.347756
 30
0.0
 11
21.17272
 21
22.459538
 31
0.0
  0
LINE
  5
17C
100
AcDbEntity
  8
1
370
    15
390
0
  6
Continuous
 62
     1
100
AcDbLine
 10
21.058325
 20
22.692674
 30
0.0
 11
21.058325
 21
23.216004
 31
0.0
  0
LINE
  5
17D
100
AcDbEntity
  8
1
370
    15
390
0
  6
Continuous
 62
     1
100
AcDbLine
 10
20.777251
 20
23.144521
 30
0.0
 11
21.041174
 21
22.68739
 31
0.0
  0
INSERT
  5
18B
100
AcDbEntity
  8
3
370
    40
390
0
  6
Continuous
 62
     1
100
AcDbBlockReference
  2
MAU
 10
21.058325
 20
23.130681
 30
0.0
 42
-1.0
 50
270.0
  0
LINE
  5
18C
100
AcDbEntity
  8
3
370
    15
390
0
  6
Continuous
 62
     1
100
AcDbLine
 10
21.311007
 20
23.130681
 30
0.0
 11
21.058325
 21
23.130681
 31
0.0
  0
INSERT
  5
19A
100
AcDbEntity
  8
3
370
    60
390
0
  6
Continuous
 62
     1
100
AcDbBlockReference
  2
MAL
 10
20.822325
 20
23.066449
 30
0.0
 42
-1.0
 50
205.0
  0
LINE
  5
19B
100
AcDbEntity
  8
3
370
    15
390
0
  6
Continuous
 62
     1
100
AcDbLine
 10
20.608756
 20
22.95596
 30
0.0
 11
20.822325
 21
23.066449
 31
0.0
  0
INSERT
  5
19C
100
AcDbEntity
  8
3
370
    40
390
0
  6
Continuous
 62
     1
100
AcDbBlockReference
  2
MAU
 10
21.058325
 20
22.772309
 30
0.0
 42
-1.0
 50
270.0
  0
LINE
  5
19D
100
AcDbEntity
  8
3
370
    15
390
0
  6
Continuous
 62
     1
100
AcDbLine
 10
21.472651
 20
22.772309
 30
0.0
 11
21.058325
 21
22.772309
 31
0.0
  0
TEXT
  5
19E
100
AcDbEntity
  8
4
370
    15
390
0
  6
Continuous
 62
     7
100
AcDbText
 10
21.356154
 20
23.061948
 30
0.0
 40
0.142
  1
30^ **
  7
Vcadd_SIMP
100
AcDbText
  0
LINE
  5
19F
100
AcDbEntity
  8
4
370
    15
390
0
  6
Continuous
 62
     7
100
AcDbLine
 10
22.359859
 20
22.692601
 30
0.0
 11
22.439888
 21
22.860936
 31
0.0
  0
TEXT
  5
1A0
100
AcDbEntity
  8
4
370
    15
390
0
  6
Continuous
 62
     7
100
AcDbText
 10
22.319744
 20
22.707766
 30
0.0
 40
0.16275
  1
O
  7
Vcadd_SIMP
100
AcDbText
  0
LINE
  5
1A1
100
AcDbEntity
  8
3
370
    15
390
0
  6
Continuous
 62
     1
100
AcDbLine
 10
22.248924
 20
22.772309
 30
0.0
 11
21.472651
 21
22.772309
 31
0.0
  0
ARC
  5
1A2
100
AcDbEntity
  8
4
370
    15
390
0
  6
Continuous
 62
     1
100
AcDbCircle
 10
24.302825
 20
20.125874
 30
0.0
 40
0.731923
100
AcDbArc
 50
315.0
 51
334.186528
  0
ARC
  5
1A3
100
AcDbEntity
  8
4
370
    15
390
0
  6
Continuous
 62
     1
100
AcDbCircle
 10
24.302825
 20
20.125874
 30
0.0
 40
0.731923
100
AcDbArc
 50
248.456372
 51
270.0
  0
TEXT
  5
1A4
100
AcDbEntity
  8
4
370
    15
390
0
  6
Continuous
 62
     7
100
AcDbText
 10
24.395475
 20
19.409299
 30
0.0
 40
0.142
  1
45^  
  7
Vcadd_SIMP
100
AcDbText
  0
LINE
  5
1A5
100
AcDbEntity
  8
4
370
    15
390
0
  6
Continuous
 62
     1
100
AcDbLine
 10
24.416839
 20
20.01186
 30
0.0
 11
24.935333
 21
19.493366
 31
0.0
  0
LINE
  5
1A7
100
AcDbEntity
  8
4
370
    15
390
0
  6
TYPE___8
 62
     1
100
AcDbLine
 10
24.155862
 20
20.410221
 30
0.0
 11
23.073454
 21
21.059308
 31
0.0
  0
LINE
  5
1A8
100
AcDbEntity
  8
4
370
    15
390
0
  6
TYPE___8
 62
     1
100
AcDbLine
 10
22.335835
 20
21.501635
 30
0.0
 11
20.876892
 21
22.376518
 31
0.0
  0
LINE
  5
1A9
100
AcDbEntity
  8
4
370
    15
390
0
  6
TYPE___8
 62
     1
100
AcDbLine
 10
24.292659
 20
20.684811
 30
0.0
 11
23.701938
 21
21.09224
 31
0.0
  0
TEXT
  5
1AA
100
AcDbEntity
  8
4
370
    15
390
0
  6
Continuous
 62
     7
100
AcDbText
 10
22.732353
 20
22.256689
 30
0.0
 40
0.142
  1
33,32
  7
Vcadd_SIMP
100
AcDbText
  0
LINE
  5
1AB
100
AcDbEntity
  8
4
370
    15
390
0
  6
Continuous
 62
     7
100
AcDbLine
 10
23.540822
 20
22.240087
 30
0.0
 11
23.62085
 21
22.408422
 31
0.0
  0
TEXT
  5
1AC
100
AcDbEntity
  8
4
370
    15
390
0
  6
Continuous
 62
     7
100
AcDbText
 10
23.500703
 20
22.255252
 30
0.0
 40
0.16275
  1
O
  7
Vcadd_SIMP
100
AcDbText
  0
LINE
  5
1AD
100
AcDbEntity
  8
3
370
    15
390
0
  6
Continuous
 62
     1
100
AcDbLine
 10
23.524445
 20
16.178751
 30
0.0
 11
23.861367
 21
16.178751
 31
0.0
  0
TEXT
  5
1AE
100
AcDbEntity
  8
4
370
    15
390
0
  6
Continuous
 62
     7
100
AcDbText
 10
21.510474
 20
16.127675
 30
0.0
 40
0.142
  1
0,30 x 45^  MAX
  7
Vcadd_SIMP
100
AcDbText
  0
LINE
  5
1AF
100
AcDbEntity
  8
4
370
    15
390
0
  6
Continuous
 62
     1
100
AcDbLine
 10
23.060263
 20
17.13066
 30
0.0
 11
22.394509
 21
17.13066
 31
0.0
  0
TEXT
  5
1B0
100
AcDbEntity
  8
4
370
    15
390
0
  6
Continuous
 62
     7
100
AcDbText
 10
23.303659
 20
17.274799
 30
0.0
 40
0.103
  1
1,6
  7
Vcadd_SIMP
100
AcDbText
  0
TEXT
  5
1B1
100
AcDbEntity
  8
4
370
    15
390
0
  6
Continuous
 62
     7
100
AcDbText
 10
23.207466
 20
20.338748
 30
0.0
 40
0.103
  1
1,6
  7
Vcadd_SIMP
100
AcDbText
  0
LINE
  5
1B2
100
AcDbEntity
  8
3
370
    15
390
0
  6
Continuous
 62
     1
100
AcDbLine
 10
23.714252
 20
18.626319
 30
0.0
 11
24.285008
 21
18.626319
 31
0.0
  0
LINE
  5
1B3
100
AcDbEntity
  8
4
370
    15
390
0
  6
Continuous
 62
     7
100
AcDbLine
 10
23.577265
 20
18.546611
 30
0.0
 11
23.657294
 21
18.714946
 31
0.0
  0
TEXT
  5
1B4
100
AcDbEntity
  8
4
370
    15
390
0
  6
Continuous
 62
     7
100
AcDbText
 10
23.537146
 20
18.561776
 30
0.0
 40
0.16275
  1
O
  7
Vcadd_SIMP
100
AcDbText
  0
LINE
  5
1B5
100
AcDbEntity
  8
3
370
    15
390
0
  6
Continuous
 62
     1
100
AcDbLine
 10
23.477589
 20
18.626319
 30
0.0
 11
22.778511
 21
18.626319
 31
0.0
  0
LINE
  5
1B6
100
AcDbEntity
  8
1
370
    15
390
0
  6
Continuous
 62
     7
100
AcDbLine
 10
22.032116
 20
18.382433
 30
0.0
 11
22.096691
 21
18.317888
 31
0.0
  0
ARC
  5
1B7
100
AcDbEntity
  8
1
370
    15
390
0
  6
Continuous
 62
     7
100
AcDbCircle
 10
22.039923
 20
18.261229
 30
0.0
 40
0.080205
100
AcDbArc
 50
0.057109
 51
44.945426
  0
CIRCLE
  5
1B9
100
AcDbEntity
  8
3
370
    15
390
0
  6
PHANTOM
 62
     1
100
AcDbCircle
 10
22.064204
 20
18.333263
 30
0.0
 40
0.315099
  0
LINE
  5
1BA
100
AcDbEntity
  8
1
370
    15
390
0
  6
Continuous
 62
     7
100
AcDbLine
 10
22.032116
 20
18.382433
 30
0.0
 11
22.032116
 21
18.646724
 31
0.0
  0
LINE
  5
1BB
100
AcDbEntity
  8
1
370
    15
390
0
  6
Continuous
 62
     7
100
AcDbLine
 10
22.120128
 20
18.261309
 30
0.0
 11
22.120128
 21
18.023167
 31
0.0
  0
LINE
  5
1BC
100
AcDbEntity
  8
3
370
    15
390
0
  6
Continuous
 62
     1
100
AcDbLine
 10
22.114025
 20
18.291918
 30
0.0
 11
21.776699
 21
18.110736
 31
0.0
  0
LINE
  5
1BD
100
AcDbEntity
  8
3
370
    15
390
0
  6
Continuous
 62
     1
100
AcDbLine
 10
21.776699
 20
18.110736
 30
0.0
 11
21.684127
 21
18.110736
 31
0.0
  0
LINE
  5
1BE
100
AcDbEntity
  8
3
370
    15
390
0
  6
Continuous
 62
     1
100
AcDbLine
 10
21.99636
 20
18.418171
 30
0.0
 11
21.664543
 21
18.749832
 31
0.0
  0
LINE
  5
1BF
100
AcDbEntity
  8
3
370
    15
390
0
  6
Continuous
 62
     1
100
AcDbLine
 10
22.032116
 20
18.705414
 30
0.0
 11
22.032116
 21
18.903861
 31
0.0
  0
ARC
  5
1C0
100
AcDbEntity
  8
3
370
    15
390
0
  6
Continuous
 62
     1
100
AcDbCircle
 10
22.032116
 20
18.382433
 30
0.0
 40
0.460409
100
AcDbArc
 50
65.863881
 51
90.0
  0
ARC
  5
1C1
100
AcDbEntity
  8
3
370
    15
390
0
  6
Continuous
 62
     1
100
AcDbCircle
 10
22.032116
 20
18.382433
 30
0.0
 40
0.460409
100
AcDbArc
 50
135.013542
 51
163.25445
  0
TEXT
  5
1C2
100
AcDbEntity
  8
4
370
    15
390
0
  6
Continuous
 62
     7
100
AcDbText
 10
22.247444
 20
18.763988
 30
0.0
 40
0.142
  1
45^  
  7
Vcadd_SIMP
100
AcDbText
  0
TEXT
  5
1C3
100
AcDbEntity
  8
4
370
    15
390
0
  6
Continuous
 62
     7
100
AcDbText
 10
22.247444
 20
18.586488
 30
0.0
 40
0.142
  1
**
  7
Vcadd_SIMP
100
AcDbText
  0
CIRCLE
  5
1C4
100
AcDbEntity
  8
1
370
    15
390
0
  6
DIVIDE
 62
     1
100
AcDbCircle
 10
24.341165
 20
17.465087
 30
0.0
 40
0.153886
  0
LINE
  5
1C5
100
AcDbEntity
  8
4
370
    15
390
0
  6
TYPE___8
 62
     1
100
AcDbLine
 10
24.419486
 20
17.600254
 30
0.0
 11
22.193254
 21
18.620545
 31
0.0
  0
LINE
  5
1C6
100
AcDbEntity
  8
4
370
    15
390
0
  6
TYPE___8
 62
     1
100
AcDbLine
 10
24.284096
 20
17.321936
 30
0.0
 11
21.949804
 21
18.037208
 31
0.0
  0
TEXT
  5
1C7
100
AcDbEntity
  8
4
370
    15
390
0
  6
Continuous
 62
     7
100
AcDbText
 10
20.849204
 20
18.036857
 30
0.0
 40
0.142
  1
0,80 R
  7
Vcadd_SIMP
100
AcDbText
  0
TEXT
  5
1C8
100
AcDbEntity
  8
4
370
    15
390
0
  6
Continuous
 62
     7
100
AcDbText
 10
20.849204
 20
17.859357
 30
0.0
 40
0.142
  1
 **
  7
Vcadd_SIMP
100
AcDbText
  0
LINE
  5
1C9
100
AcDbEntity
  8
4
370
    15
390
0
  6
Continuous
 62
     1
100
AcDbLine
 10
27.275776
 20
23.286646
 30
0.0
 11
27.197214
 21
23.286646
 31
0.0
  0
LINE
  5
1CA
100
AcDbEntity
  8
4
370
    15
390
0
  6
Continuous
 62
     1
100
AcDbLine
 10
27.197214
 20
23.286646
 30
0.0
 11
27.197214
 21
22.704643
 31
0.0
  0
LINE
  5
1CB
100
AcDbEntity
  8
4
370
    15
390
0
  6
Continuous
 62
     1
100
AcDbLine
 10
28.760986
 20
22.704643
 30
0.0
 11
28.760986
 21
22.250904
 31
0.0
  0
LINE
  5
1CC
100
AcDbEntity
  8
4
370
    15
390
0
  6
Continuous
 62
     1
100
AcDbLine
 10
28.760986
 20
22.250904
 30
0.0
 11
28.613481
 21
22.250904
 31
0.0
  0
LINE
  5
1CD
100
AcDbEntity
  8
4
370
    15
390
0
  6
Continuous
 62
     1
100
AcDbLine
 10
27.197214
 20
22.704643
 30
0.0
 11
28.760986
 21
22.704643
 31
0.0
  0
LINE
  5
1CE
100
AcDbEntity
  8
4
370
    15
390
0
  6
Continuous
 62
     1
100
AcDbLine
 10
27.269086
 20
22.430505
 30
0.0
 11
27.11785
 21
22.672866
 31
0.0
  0
LINE
  5
1CF
100
AcDbEntity
  8
4
370
    15
390
0
  6
Continuous
 62
     1
100
AcDbLine
 10
27.11785
 20
22.672866
 30
0.0
 11
27.11785
 21
24.322522
 31
0.0
  0
LINE
  5
1D0
100
AcDbEntity
  8
3
370
    15
390
0
  6
Continuous
 62
     1
100
AcDbLine
 10
27.269086
 20
20.615107
 30
0.0
 11
27.269086
 21
22.430505
 31
0.0
  0
LINE
  5
1D1
100
AcDbEntity
  8
4
370
    15
390
0
  6
Continuous
 62
     1
100
AcDbLine
 10
27.695707
 20
21.428271
 30
0.0
 11
27.585843
 21
21.198745
 31
0.0
  0
LINE
  5
1D2
100
AcDbEntity
  8
4
370
    15
390
0
  6
Continuous
 62
     1
100
AcDbLine
 10
26.833962
 20
21.428271
 30
0.0
 11
27.695707
 21
21.428271
 31
0.0
  0
LINE
  5
1D3
100
AcDbEntity
  8
14
370
    15
390
0
  6
Continuous
 62
     7
100
AcDbLine
 10
22.730931
 20
15.26089
 30
0.0
 11
22.778931
 21
15.30889
 31
0.0
  0
LINE
  5
1D4
100
AcDbEntity
  8
14
370
    15
390
0
  6
Continuous
 62
     7
100
AcDbLine
 10
22.730931
 20
15.26089
 30
0.0
 11
22.730931
 21
13.91789
 31
0.0
  0
LINE
  5
1D5
100
AcDbEntity
  8
14
370
    15
390
0
  6
Continuous
 62
     7
100
AcDbLine
 10
21.79493
 20
15.26089
 30
0.0
 11
22.730931
 21
15.26089
 31
0.0
  0
LINE
  5
1D6
100
AcDbEntity
  8
14
370
    15
390
0
  6
Continuous
 62
     7
100
AcDbLine
 10
21.79493
 20
15.26089
 30
0.0
 11
21.79493
 21
13.91789
 31
0.0
  0
LINE
  5
1D7
100
AcDbEntity
  8
14
370
    15
390
0
  6
Continuous
 62
     7
100
AcDbLine
 10
21.79493
 20
15.26089
 30
0.0
 11
21.746929
 21
15.30889
 31
0.0
  0
LINE
  5
1D8
100
AcDbEntity
  8
14
370
    15
390
0
  6
Continuous
 62
     7
100
AcDbLine
 10
21.746929
 20
15.30889
 30
0.0
 11
22.778931
 21
15.30889
 31
0.0
  0
LINE
  5
1D9
100
AcDbEntity
  8
14
370
    15
390
0
  6
Continuous
 62
     7
100
AcDbLine
 10
22.730931
 20
13.91789
 30
0.0
 11
21.79493
 21
13.91789
 31
0.0
  0
LINE
  5
1DA
100
AcDbEntity
  8
14
370
    15
390
0
  6
Continuous
 62
     7
100
AcDbLine
 10
22.70093
 20
13.88789
 30
0.0
 11
22.730931
 21
13.91789
 31
0.0
  0
LINE
  5
1DB
100
AcDbEntity
  8
14
370
    15
390
0
  6
Continuous
 62
     7
100
AcDbLine
 10
22.70093
 20
13.88789
 30
0.0
 11
22.70093
 21
13.57989
 31
0.0
  0
LINE
  5
1DC
100
AcDbEntity
  8
14
370
    15
390
0
  6
Continuous
 62
     7
100
AcDbLine
 10
21.82493
 20
13.88789
 30
0.0
 11
21.79493
 21
13.91789
 31
0.0
  0
LINE
  5
1DD
100
AcDbEntity
  8
14
370
    15
390
0
  6
Continuous
 62
     7
100
AcDbLine
 10
21.82493
 20
13.88789
 30
0.0
 11
21.82493
 21
13.57989
 31
0.0
  0
LINE
  5
1DE
100
AcDbEntity
  8
14
370
    15
390
0
  6
Continuous
 62
     7
100
AcDbLine
 10
22.70093
 20
13.88789
 30
0.0
 11
21.82493
 21
13.88789
 31
0.0
  0
LINE
  5
1DF
100
AcDbEntity
  8
14
370
    15
390
0
  6
Continuous
 62
     7
100
AcDbLine
 10
22.802429
 20
15.46489
 30
0.0
 11
21.723431
 21
15.46489
 31
0.0
  0
LINE
  5
1E0
100
AcDbEntity
  8
14
370
    15
390
0
  6
Continuous
 62
     7
100
AcDbLine
 10
22.802429
 20
15.501376
 30
0.0
 11
22.802429
 21
15.46489
 31
0.0
  0
LINE
  5
1E1
100
AcDbEntity
  8
14
370
    15
390
0
  6
Continuous
 62
     7
100
AcDbLine
 10
21.723431
 20
15.501376
 30
0.0
 11
21.723431
 21
15.46489
 31
0.0
  0
LINE
  5
1E2
100
AcDbEntity
  8
14
370
    15
390
0
  6
Continuous
 62
     7
100
AcDbLine
 10
22.802429
 20
15.501376
 30
0.0
 11
21.723431
 21
15.501376
 31
0.0
  0
LINE
  5
1E3
100
AcDbEntity
  8
14
370
    15
390
0
  6
Continuous
 62
     7
100
AcDbLine
 10
22.91893
 20
15.568636
 30
0.0
 11
22.802429
 21
15.501376
 31
0.0
  0
LINE
  5
1E4
100
AcDbEntity
  8
14
370
    15
390
0
  6
Continuous
 62
     7
100
AcDbLine
 10
21.60693
 20
15.568636
 30
0.0
 11
21.723431
 21
15.501376
 31
0.0
  0
LINE
  5
1E5
100
AcDbEntity
  8
14
370
    15
390
0
  6
Continuous
 62
     7
100
AcDbLine
 10
22.91893
 20
15.568636
 30
0.0
 11
21.60693
 21
15.568636
 31
0.0
  0
LINE
  5
1E6
100
AcDbEntity
  8
14
370
    15
390
0
  6
Continuous
 62
     7
100
AcDbLine
 10
22.70093
 20
13.57989
 30
0.0
 11
21.82493
 21
13.57989
 31
0.0
  0
LINE
  5
1E7
100
AcDbEntity
  8
14
370
    15
390
0
  6
Continuous
 62
     7
100
AcDbLine
 10
22.26293
 20
13.404207
 30
0.0
 11
22.567223
 21
13.57989
 31
0.0
  0
LINE
  5
1E8
100
AcDbEntity
  8
14
370
    15
390
0
  6
Continuous
 62
     7
100
AcDbLine
 10
22.26293
 20
13.404207
 30
0.0
 11
21.958637
 21
13.57989
 31
0.0
  0
LINE
  5
1E9
100
AcDbEntity
  8
14
370
    15
390
0
  6
Continuous
 62
     7
100
AcDbLine
 10
22.26293
 20
14.673108
 30
0.0
 11
22.26293
 21
14.515322
 31
0.0
  0
LINE
  5
1EA
100
AcDbEntity
  8
14
370
    15
390
0
  6
Continuous
 62
     7
100
AcDbLine
 10
22.26293
 20
14.389096
 30
0.0
 11
22.26293
 21
13.295127
 31
0.0
  0
LINE
  5
1EB
100
AcDbEntity
  8
14
370
    15
390
0
  6
Continuous
 62
     7
100
AcDbLine
 10
22.778931
 20
15.447573
 30
0.0
 11
22.788929
 21
15.46489
 31
0.0
  0
LINE
  5
1EC
100
AcDbEntity
  8
14
370
    15
390
0
  6
Continuous
 62
     7
100
AcDbLine
 10
22.778931
 20
15.447573
 30
0.0
 11
22.778931
 21
15.30889
 31
0.0
  0
LINE
  5
1ED
100
AcDbEntity
  8
14
370
    15
390
0
  6
Continuous
 62
     7
100
AcDbLine
 10
21.746929
 20
15.447573
 30
0.0
 11
21.736931
 21
15.46489
 31
0.0
  0
LINE
  5
1EE
100
AcDbEntity
  8
14
370
    15
390
0
  6
Continuous
 62
     7
100
AcDbLine
 10
21.746928
 20
15.447573
 30
0.0
 11
22.778931
 21
15.447573
 31
0.0
  0
LINE
  5
1EF
100
AcDbEntity
  8
14
370
    15
390
0
  6
Continuous
 62
     7
100
AcDbLine
 10
21.746929
 20
15.447573
 30
0.0
 11
21.746929
 21
15.30889
 31
0.0
  0
POINT
  5
1F0
100
AcDbEntity
  8
100
370
    15
390
0
  6
Continuous
 62
     7
100
AcDbPoint
 10
22.26293
 20
15.46489
 30
0.0
  0
LINE
  5
1F1
100
AcDbEntity
  8
14
370
    15
390
0
  6
CL____X1
 62
     7
100
AcDbLine
 10
22.76293
 20
15.292889
 30
0.0
 11
22.76293
 21
14.83989
 31
0.0
  0
LINE
  5
1F2
100
AcDbEntity
  8
14
370
    15
390
0
  6
CL____X1
 62
     7
100
AcDbLine
 10
21.76293
 20
15.292891
 30
0.0
 11
21.76293
 21
14.83989
 31
0.0
  0
LINE
  5
1F3
100
AcDbEntity
  8
14
370
    15
390
0
  6
Continuous
 62
     7
100
AcDbLine
 10
21.60693
 20
15.568636
 30
0.0
 11
21.60693
 21
15.719395
 31
0.0
  0
LINE
  5
1F4
100
AcDbEntity
  8
14
370
    15
390
0
  6
Continuous
 62
     7
100
AcDbLine
 10
22.91893
 20
15.568636
 30
0.0
 11
22.91893
 21
15.719395
 31
0.0
  0
LINE
  5
1F5
100
AcDbEntity
  8
14
370
    15
390
0
  6
Continuous
 62
     7
100
AcDbLine
 10
22.26293
 20
15.786482
 30
0.0
 11
22.26293
 21
14.788815
 31
0.0
  0
LINE
  5
1F6
100
AcDbEntity
  8
14
370
    15
390
0
  6
CL____X1
 62
     7
100
AcDbLine
 10
22.60693
 20
13.57989
 30
0.0
 11
22.60693
 21
13.250586
 31
0.0
  0
LINE
  5
1F7
100
AcDbEntity
  8
14
370
    15
390
0
  6
CL____X1
 62
     7
100
AcDbLine
 10
21.91893
 20
13.57989
 30
0.0
 11
21.91893
 21
13.250586
 31
0.0
  0
TEXT
  5
1F8
100
AcDbEntity
  8
4
370
    15
390
0
  6
Continuous
 62
     7
100
AcDbText
 10
20.946007
 20
19.855923
 30
0.0
 40
0.142
  1
3,96
  7
Vcadd_SIMP
100
AcDbText
  0
LINE
  5
1F9
100
AcDbEntity
  8
3
370
    15
390
0
  6
Continuous
 62
     1
100
AcDbLine
 10
23.829209
 20
20.241271
 30
0.0
 11
23.465469
 21
19.905072
 31
0.0
  0
LINE
  5
1FA
100
AcDbEntity
  8
3
370
    15
390
0
  6
Continuous
 62
     1
100
AcDbLine
 10
23.465469
 20
19.905072
 30
0.0
 11
21.551717
 21
19.905072
 31
0.0
  0
TEXT
  5
1FB
100
AcDbEntity
  8
0
370
    15
390
0
  6
Continuous
 62
     7
100
AcDbText
 10
20.13276
 20
21.776417
 30
0.0
 40
0.074
  1
REDRAWN TO BE CONSISTENT WITH SIMILAR CAVS
 50
270.0
 41
0.75
  7
Vcadd_SIMP
100
AcDbText
  0
TEXT
  5
1FC
100
AcDbEntity
  8
0
370
    15
390
0
  6
Continuous
 62
     7
100
AcDbText
 10
19.960971
 20
21.765355
 30
0.0
 40
0.075
  1
.002 CONCENTRICITY WAS .001
 50
270.0
  7
Vcadd_SIMP
100
AcDbText
  0
TEXT
  5
1FD
100
AcDbEntity
  8
0
370
    15
390
0
  6
Continuous
 62
     7
100
AcDbText
 10
19.970971
 20
21.972431
 30
0.0
 40
0.075
  1
L
 50
270.0
  7
Vcadd_SIMP
100
AcDbText
  0
TEXT
  5
1FE
100
AcDbEntity
  8
0
370
    15
390
0
  6
Continuous
 62
     7
100
AcDbText
 10
19.976059
 20
19.397698
 30
0.0
 40
0.074
  1
20JUL99
 50
270.0
 41
0.75
  7
Vcadd_SIMP
100
AcDbText
  0
TEXT
  5
1FF
100
AcDbEntity
  8
0
370
    15
390
0
  6
Continuous
 62
     7
100
AcDbText
 10
19.97075
 20
18.89107
 30
0.0
 40
0.074
  1
DAS
 50
270.0
 41
0.75
  7
Vcadd_SIMP
100
AcDbText
  0
TEXT
  5
200
100
AcDbEntity
  8
0
370
    15
390
0
  6
Continuous
 62
     7
100
AcDbText
 10
19.813137
 20
21.770751
 30
0.0
 40
0.074
  1
47,82 WAS 47,06 (METRIC DWG ONLY)
 50
270.0
 41
0.75
  7
Vcadd_SIMP
100
AcDbText
  0
LINE
  5
201
100
AcDbEntity
  8
0
370
    15
390
0
  6
Continuous
 62
     7
100
AcDbLine
 10
20.245991
 20
18.179572
 30
0.0
 11
20.245991
 21
22.054572
 31
0.0
  0
LINE
  5
202
100
AcDbEntity
  8
0
370
    15
390
0
  6
Continuous
 62
     7
100
AcDbLine
 10
20.40199
 20
19.429572
 30
0.0
 11
20.40199
 21
21.804572
 31
0.0
  0
TEXT
  5
203
100
AcDbEntity
  8
0
370
    15
390
0
  6
Continuous
 62
     7
100
AcDbText
 10
28.715516
 20
21.926409
 30
0.0
 40
0.142
  1
18,26
  7
Vcadd_SIMP
100
AcDbText
  0
LINE
  5
204
100
AcDbEntity
  8
0
370
    15
390
0
  6
Continuous
 62
     1
100
AcDbLine
 10
25.691979
 20
16.127533
 30
0.0
 11
25.907429
 21
16.127533
 31
0.0
  0
LINE
  5
205
100
AcDbEntity
  8
4
370
    15
390
0
  6
Continuous
 62
     7
100
AcDbLine
 10
25.56392
 20
16.044515
 30
0.0
 11
25.643948
 21
16.21285
 31
0.0
  0
TEXT
  5
206
100
AcDbEntity
  8
4
370
    15
390
0
  6
Continuous
 62
     7
100
AcDbText
 10
25.5238
 20
16.059679
 30
0.0
 40
0.16275
  1
O
  7
Vcadd_SIMP
100
AcDbText
  0
TEXT
  5
207
100
AcDbEntity
  8
4
370
    15
390
0
  6
Continuous
 62
     7
100
AcDbText
 10
24.92097
 20
16.059679
 30
0.0
 40
0.142
  1
7,48
  7
Vcadd_SIMP
100
AcDbText
  0
TEXT
  5
208
100
AcDbEntity
  8
4
370
    15
390
0
  6
Continuous
 62
     7
100
AcDbText
 10
24.778969
 20
16.059679
 30
0.0
 40
0.142
  1
1
  7
Vcadd_SIMP
100
AcDbText
  0
TEXT
  5
209
100
AcDbEntity
  8
4
370
    15
390
0
  6
Continuous
 62
     7
100
AcDbText
 10
22.776668
 20
18.64702
 30
0.0
 40
0.142
  1
23,70
  7
Vcadd_SIMP
100
AcDbText
  0
TEXT
  5
20A
100
AcDbEntity
  8
4
370
    15
390
0
  6
Continuous
 62
     7
100
AcDbText
 10
22.776668
 20
18.46952
 30
0.0
 40
0.142
  1
23,80
  7
Vcadd_SIMP
100
AcDbText
  0
TEXT
  5
20B
100
AcDbEntity
  8
4
370
    15
390
0
  6
Continuous
 62
     7
100
AcDbText
 10
20.877667
 20
19.24504
 30
0.0
 40
0.142
  1
15,88
  7
Vcadd_SIMP
100
AcDbText
  0
LINE
  5
20C
100
AcDbEntity
  8
1
370
    15
390
0
  6
Continuous
 62
     1
100
AcDbLine
 10
24.159562
 20
19.303271
 30
0.0
 11
21.591584
 21
19.303271
 31
0.0
  0
LINE
  5
20D
100
AcDbEntity
  8
4
370
    15
390
0
  6
TYPE___8
 62
     1
100
AcDbLine
 10
23.355924
 20
21.330892
 30
0.0
 11
21.208961
 21
22.811684
 31
0.0
  0
LINE
  5
20E
100
AcDbEntity
  8
4
370
    15
390
0
  6
Continuous
 62
     1
100
AcDbLine
 10
27.585843
 20
21.198745
 30
0.0
 11
28.532276
 21
21.198745
 31
0.0
  0
TEXT
  5
20F
100
AcDbEntity
  8
4
370
    15
390
0
  6
Continuous
 62
     7
100
AcDbText
 10
28.571355
 20
21.147764
 30
0.0
 40
0.142
  1
11,13*
  7
Vcadd_SIMP
100
AcDbText
  0
TEXT
  5
210
100
AcDbEntity
  8
4
370
    15
390
0
  6
Continuous
 62
     7
100
AcDbText
 10
28.571355
 20
20.934764
 30
0.0
 40
0.142
  1
 REF
  7
Vcadd_SIMP
100
AcDbText
  0
TEXT
  5
211
100
AcDbEntity
  8
4
370
    15
390
0
  6
Continuous
 62
     7
100
AcDbText
 10
28.855643
 20
20.496985
 30
0.0
 40
0.142
  1
0,00
  7
Vcadd_SIMP
100
AcDbText
  0
TEXT
  5
212
100
AcDbEntity
  8
4
370
    15
390
0
  6
Continuous
 62
     7
100
AcDbText
 10
21.77604
 20
20.619673
 30
0.0
 40
0.142
  1
L.S.
  7
Vcadd_SIMP
100
AcDbText
  0
TEXT
  5
213
100
AcDbEntity
  8
4
370
    15
390
0
  6
Continuous
 62
     7
100
AcDbText
 10
20.944658
 20
20.496985
 30
0.0
 40
0.142
  1
0,00
  7
Vcadd_SIMP
100
AcDbText
  0
LINE
  5
214
100
AcDbEntity
  8
4
370
    15
390
0
  6
Continuous
 62
     7
100
AcDbLine
 10
23.140798
 20
20.096624
 30
0.0
 11
23.220827
 21
20.264959
 31
0.0
  0
TEXT
  5
215
100
AcDbEntity
  8
4
370
    15
390
0
  6
Continuous
 62
     7
100
AcDbText
 10
23.100679
 20
20.111789
 30
0.0
 40
0.16275
  1
O
  7
Vcadd_SIMP
100
AcDbText
  0
LINE
  5
216
100
AcDbEntity
  8
4
370
    15
390
0
  6
Continuous
 62
     1
100
AcDbLine
 10
23.017809
 20
21.22823
 30
0.0
 11
22.325613
 21
21.22823
 31
0.0
  0
TEXT
  5
217
100
AcDbEntity
  8
4
370
    15
390
0
  6
Continuous
 62
     7
100
AcDbText
 10
22.326284
 20
21.247923
 30
0.0
 40
0.142
  1
27,38
  7
Vcadd_SIMP
100
AcDbText
  0
TEXT
  5
218
100
AcDbEntity
  8
4
370
    15
390
0
  6
Continuous
 62
     7
100
AcDbText
 10
22.326284
 20
21.070423
 30
0.0
 40
0.142
  1
27,43
  7
Vcadd_SIMP
100
AcDbText
  0
LINE
  5
219
100
AcDbEntity
  8
4
370
    15
390
0
  6
Continuous
 62
     1
100
AcDbLine
 10
22.182845
 20
20.291038
 30
0.0
 11
21.982055
 21
20.291038
 31
0.0
  0
LINE
  5
21A
100
AcDbEntity
  8
4
370
    15
390
0
  6
Continuous
 62
     1
100
AcDbLine
 10
22.182845
 20
20.291038
 30
0.0
 11
21.982055
 21
20.291038
 31
0.0
  0
LINE
  5
21B
100
AcDbEntity
  8
4
370
    15
390
0
  6
Continuous
 62
     1
100
AcDbLine
 10
22.182845
 20
20.083511
 30
0.0
 11
21.982055
 21
20.083511
 31
0.0
  0
LINE
  5
21C
100
AcDbEntity
  8
4
370
    15
390
0
  6
Continuous
 62
     1
100
AcDbLine
 10
21.982055
 20
20.083511
 30
0.0
 11
21.958884
 21
20.083511
 31
0.0
  0
LINE
  5
21D
100
AcDbEntity
  8
4
370
    15
390
0
  6
Continuous
 62
     1
100
AcDbLine
 10
21.958884
 20
20.083511
 30
0.0
 11
21.958884
 21
20.291038
 31
0.0
  0
LINE
  5
21E
100
AcDbEntity
  8
4
370
    15
390
0
  6
Continuous
 62
     1
100
AcDbLine
 10
21.958884
 20
20.291038
 30
0.0
 11
22.016944
 21
20.291038
 31
0.0
  0
LINE
  5
21F
100
AcDbEntity
  8
4
370
    15
390
0
  6
Continuous
 62
     1
100
AcDbLine
 10
22.182845
 20
20.083511
 30
0.0
 11
22.199294
 21
20.083511
 31
0.0
  0
LINE
  5
220
100
AcDbEntity
  8
4
370
    15
390
0
  6
Continuous
 62
     1
100
AcDbLine
 10
22.199294
 20
20.083511
 30
0.0
 11
22.199294
 21
20.291038
 31
0.0
  0
LINE
  5
221
100
AcDbEntity
  8
4
370
    15
390
0
  6
Continuous
 62
     1
100
AcDbLine
 10
22.199294
 20
20.291038
 30
0.0
 11
22.125976
 21
20.291038
 31
0.0
  0
LINE
  5
222
100
AcDbEntity
  8
3
370
    15
390
0
  6
Continuous
 62
     1
100
AcDbLine
 10
22.371116
 20
20.176332
 30
0.0
 11
22.199294
 21
20.176332
 31
0.0
  0
TEXT
  5
223
100
AcDbEntity
  8
4
370
    15
390
0
  6
Continuous
 62
     7
100
AcDbText
 10
22.012069
 20
20.120964
 30
0.0
 40
0.142
  1
A
  7
Vcadd_SIMP
100
AcDbText
  0
TEXT
  5
224
100
AcDbEntity
  8
4
370
    15
390
0
  6
Continuous
 62
     7
100
AcDbText
 10
22.29449
 20
20.191529
 30
0.0
 40
0.142
  1
26,19
  7
Vcadd_SIMP
100
AcDbText
  0
TEXT
  5
225
100
AcDbEntity
  8
4
370
    15
390
0
  6
Continuous
 62
     7
100
AcDbText
 10
22.29449
 20
20.014029
 30
0.0
 40
0.142
  1
26,24
  7
Vcadd_SIMP
100
AcDbText
  0
LINE
  5
226
100
AcDbEntity
  8
3
370
    15
390
0
  6
Continuous
 62
     1
100
AcDbLine
 10
22.371116
 20
20.176332
 30
0.0
 11
22.948812
 21
20.176332
 31
0.0
  0
TEXT
  5
227
100
AcDbEntity
  8
0
370
    15
390
0
  6
Continuous
 62
     7
100
AcDbText
 10
19.968796
 20
18.409373
 30
0.0
 40
0.074
  1
8372
 50
270.0
 41
0.75
  7
Vcadd_SIMP
100
AcDbText
  0
LINE
  5
228
100
AcDbEntity
  8
4
370
    15
390
0
  6
Continuous
 62
     1
100
AcDbLine
 10
20.840198
 20
22.657685
 30
0.0
 11
20.433679
 21
22.657685
 31
0.0
  0
TEXT
  5
229
100
AcDbEntity
  8
4
370
    15
390
0
  6
Continuous
 62
     7
100
AcDbText
 10
19.89864
 20
22.598625
 30
0.0
 40
0.142
  1
L.S.
  7
Vcadd_SIMP
100
AcDbText
  0
INSERT
  5
232
100
AcDbEntity
  8
3
370
    15
390
0
  6
Continuous
 62
     7
100
AcDbBlockReference
  2
ARROW
 10
24.527966
 20
20.553271
 30
0.0
 50
90.0
  0
INSERT
  5
233
100
AcDbEntity
  8
3
370
    15
390
0
  6
Continuous
 62
     7
100
AcDbBlockReference
  2
ARROW
 10
24.527966
 20
20.588713
 30
0.0
 50
270.0
  0
INSERT
  5
234
100
AcDbEntity
  8
3
370
    15
390
0
  6
Continuous
 62
     7
100
AcDbBlockReference
  2
ARROW
 10
24.344403
 20
16.783873
 30
0.0
 41
0.9
 42
0.9
 50
51.401558
  0
INSERT
  5
235
100
AcDbEntity
  8
3
370
    15
390
0
  6
Continuous
 62
     7
100
AcDbBlockReference
  2
ARROW
 10
27.269086
 20
20.615107
 30
0.0
 50
270.0
  0
INSERT
  5
236
100
AcDbEntity
  8
3
370
    15
390
0
  6
Continuous
 62
     7
100
AcDbBlockReference
  2
ARROW
 10
27.269086
 20
20.553271
 30
0.0
 41
0.9
 42
0.9
 50
90.0
  0
INSERT
  5
237
100
AcDbEntity
  8
4
370
    15
390
0
  6
Continuous
 62
     7
100
AcDbBlockReference
  2
ARROW
 10
23.906361
 20
22.319795
 30
0.0
 41
0.9
 42
0.9
  0
INSERT
  5
238
100
AcDbEntity
  8
4
370
    15
390
0
  6
Continuous
 62
     7
100
AcDbBlockReference
  2
ARROW
 10
24.139424
 20
21.22823
 30
0.0
 41
0.9
 42
0.9
  0
INSERT
  5
239
100
AcDbEntity
  8
4
370
    15
390
0
  6
Continuous
 62
     7
100
AcDbBlockReference
  2
ARROW
 10
24.187424
 20
20.321623
 30
0.0
 41
0.9
 42
0.9
  0
INSERT
  5
23A
100
AcDbEntity
  8
4
370
    15
390
0
  6
Continuous
 62
     7
100
AcDbBlockReference
  2
ARROW
 10
24.285008
 20
18.626319
 30
0.0
 41
0.9
 42
0.9
  0
INSERT
  5
23B
100
AcDbEntity
  8
4
370
    15
390
0
  6
Continuous
 62
     7
100
AcDbBlockReference
  2
ARROW
 10
24.344403
 20
17.134631
 30
0.0
 41
0.9
 42
0.9
  0
INSERT
  5
23C
100
AcDbEntity
  8
4
370
    15
390
0
  6
Continuous
 62
     7
100
AcDbBlockReference
  2
ARROW
 10
26.719426
 20
22.253855
 30
0.0
 41
0.9
 42
0.9
 50
180.0
  0
INSERT
  5
23D
100
AcDbEntity
  8
3
370
    15
390
0
  6
Continuous
 62
     7
100
AcDbBlockReference
  2
ARROW
 10
24.531422
 20
16.127533
 30
0.0
 50
180.0
  0
INSERT
  5
23E
100
AcDbEntity
  8
3
370
    15
390
0
  6
Continuous
 62
     7
100
AcDbBlockReference
  2
ARROW
 10
25.907429
 20
16.127533
 30
0.0
  0
INSERT
  5
23F
100
AcDbEntity
  8
4
370
     0
390
0
  6
Continuous
 62
     1
100
AcDbBlockReference
  2
ARROW
 10
24.302825
 20
19.393951
 30
0.0
 41
1.0
 50
352.34741
  0
INSERT
  5
240
100
AcDbEntity
  8
4
370
     0
390
0
  6
Continuous
 62
     1
100
AcDbBlockReference
  2
ARROW
 10
24.820373
 20
19.608326
 30
0.0
 41
1.0
 42
1.0
 50
231.917248
  0
INSERT
  5
241
100
AcDbEntity
  8
3
370
    15
390
0
  6
Continuous
 62
     7
100
AcDbBlockReference
  2
ARROW
 10
22.114025
 20
18.291918
 30
0.0
 41
1.0
 42
1.0
 50
28.240833
  0
INSERT
  5
242
100
AcDbEntity
  8
3
370
    15
390
0
  6
Continuous
 62
     7
100
AcDbBlockReference
  2
ARROW
 10
21.70648
 20
18.707915
 30
0.0
 41
1.0
 42
1.0
 50
55.0
  0
INSERT
  5
243
100
AcDbEntity
  8
3
370
    15
390
0
  6
Continuous
 62
     7
100
AcDbBlockReference
  2
ARROW
 10
22.032116
 20
18.842842
 30
0.0
 41
1.0
 42
1.0
 50
165.0
  0
LINE
  5
244
100
AcDbEntity
  8
4
370
    15
390
0
  6
Continuous
 62
     1
100
AcDbLine
 10
26.382511
 20
23.153001
 30
0.0
 11
26.661212
 21
23.153001
 31
0.0
  0
LINE
  5
245
100
AcDbEntity
  8
4
370
    15
390
0
  6
Continuous
 62
     1
100
AcDbLine
 10
26.661212
 20
23.153001
 30
0.0
 11
26.172978
 21
21.992274
 31
0.0
  0
INSERT
  5
246
100
AcDbEntity
  8
4
370
     0
390
0
  6
Continuous
 62
     1
100
AcDbBlockReference
  2
ARROW
 10
26.172978
 20
21.992274
 30
0.0
 41
1.0
 42
1.0
 50
247.187045
  0
TEXT
  5
247
100
AcDbEntity
  8
0
370
    15
390
0
  6
Continuous
 62
     7
100
AcDbText
 10
21.301594
 20
12.496868
 30
0.0
 40
0.09
  1
Wichtige Bemerkung:
  7
Vcadd_SIMP
100
AcDbText
  0
TEXT
  5
248
100
AcDbEntity
  8
0
370
    15
390
0
  6
Continuous
 62
     7
100
AcDbText
 10
21.301594
 20
12.361868
 30
0.0
 40
0.09
  1
Diese Zeichnung beschreibt ein
  7
Vcadd_SIMP
100
AcDbText
  0
TEXT
  5
249
100
AcDbEntity
  8
0
370
    15
390
0
  6
Continuous
 62
     7
100
AcDbText
 10
21.301594
 20
12.226868
 30
0.0
 40
0.09
  1
Produkt der Firma SUN Hydraulik
  7
Vcadd_SIMP
100
AcDbText
  0
TEXT
  5
24A
100
AcDbEntity
  8
0
370
    15
390
0
  6
Continuous
 62
     7
100
AcDbText
 10
21.301594
 20
12.091868
 30
0.0
 40
0.09
  1
und darf nicht ohne Genehmigung
  7
Vcadd_SIMP
100
AcDbText
  0
TEXT
  5
24B
100
AcDbEntity
  8
0
370
    15
390
0
  6
Continuous
 62
     7
100
AcDbText
 10
21.301594
 20
11.956868
 30
0.0
 40
0.09
  1
vervielfδltigt oder an Dritte wei-
  7
Vcadd_SIMP
100
AcDbText
  0
TEXT
  5
24C
100
AcDbEntity
  8
0
370
    15
390
0
  6
Continuous
 62
     7
100
AcDbText
 10
21.301594
 20
11.821868
 30
0.0
 40
0.09
  1
tergegeben werden. 
  7
Vcadd_SIMP
100
AcDbText
  0
TEXT
  5
24D
100
AcDbEntity
  8
0
370
    15
390
0
  6
Continuous
 62
     7
100
AcDbText
 10
21.409747
 20
11.527449
 30
0.0
 40
0.09
  1
SUN HYDRAULICS CORPORATION
  7
Vcadd_SIMP
100
AcDbText
  0
TEXT
  5
24E
100
AcDbEntity
  8
0
370
    15
390
0
  6
Continuous
 62
     7
100
AcDbText
 10
21.267901
 20
11.534323
 30
0.0
 40
0.085
  1
C
  7
Vcadd_SIMP
100
AcDbText
  0
CIRCLE
  5
24F
100
AcDbEntity
  8
4
370
    15
390
0
  6
Continuous
 62
     1
100
AcDbCircle
 10
21.297399
 20
11.567291
 30
0.0
 40
0.058579
  0
TEXT
  5
250
100
AcDbEntity
  8
4
370
    15
390
0
  6
Continuous
 62
     7
100
AcDbText
 10
24.844843
 20
13.986835
 30
0.0
 40
0.133
  1
Freiraum fόr Sechskantnuss
  7
Vcadd_SIMP
100
AcDbText
  0
TEXT
  5
251
100
AcDbEntity
  8
4
370
    15
390
0
  6
Continuous
 62
     7
100
AcDbText
 10
24.844843
 20
13.787335
 30
0.0
 40
0.133
  1
Max. empfohlene Tiefe bis zum LS-Anschlag
  7
Vcadd_SIMP
100
AcDbText
  0
TEXT
  5
252
100
AcDbEntity
  8
4
370
    15
390
0
  6
Continuous
 62
     7
100
AcDbText
 10
24.844843
 20
13.587835
 30
0.0
 40
0.133
  1
ohne Freiraum fόr die Sechskantnuss
  7
Vcadd_SIMP
100
AcDbText
  0
TEXT
  5
253
100
AcDbEntity
  8
4
370
    15
390
0
  6
Continuous
 62
     7
100
AcDbText
 10
24.844843
 20
13.388335
 30
0.0
 40
0.133
  1
Min. Abstand von der Mittellinie bis zur End-
  7
Vcadd_SIMP
100
AcDbText
  0
TEXT
  5
254
100
AcDbEntity
  8
4
370
    15
390
0
  6
Continuous
 62
     7
100
AcDbText
 10
24.844843
 20
13.188835
 30
0.0
 40
0.133
  1
kante des Ventilkφrpers
  7
Vcadd_SIMP
100
AcDbText
  0
TEXT
  5
255
100
AcDbEntity
  8
4
370
    15
390
0
  6
Continuous
 62
     7
100
AcDbText
 10
24.844843
 20
12.989335
 30
0.0
 40
0.133
  1
Min. Abstand von der Mittellinie bis zur Mittel-
  7
Vcadd_SIMP
100
AcDbText
  0
TEXT
  5
256
100
AcDbEntity
  8
4
370
    15
390
0
  6
Continuous
 62
     7
100
AcDbText
 10
24.844843
 20
12.789835
 30
0.0
 40
0.133
  1
linie bei gleicher Einschraubbohrung
  7
Vcadd_SIMP
100
AcDbText
  0
TEXT
  5
257
100
AcDbEntity
  8
4
370
    15
390
0
  6
Continuous
 62
     7
100
AcDbText
 10
24.295238
 20
11.951793
 30
0.0
 40
0.133
  1
Alle O-Ring-Einfόhrungsschrδgen mόssen
  7
Vcadd_SIMP
100
AcDbText
  0
TEXT
  5
258
100
AcDbEntity
  8
4
370
    15
390
0
  6
Continuous
 62
     7
100
AcDbText
 10
24.295238
 20
11.752293
 30
0.0
 40
0.133
  1
glatt und frei von Kerben und Kanten sein.
  7
Vcadd_SIMP
100
AcDbText
  0
TEXT
  5
259
100
AcDbEntity
  8
4
370
    15
390
0
  6
Continuous
 62
     7
100
AcDbText
 10
23.972739
 20
11.944743
 30
0.0
 40
0.133
  1
**
  7
Vcadd_SIMP
100
AcDbText
  0
TEXT
  5
25A
100
AcDbEntity
  8
4
370
    15
390
0
  6
Continuous
 62
     7
100
AcDbText
 10
24.315563
 20
12.480027
 30
0.0
 40
0.133
  1
Name in Bohrtabelle: SUN STD T-3A CAVITY
  7
Vcadd_SIMP
100
AcDbText
  0
TEXT
  5
25B
100
AcDbEntity
  8
4
370
    15
390
0
  6
Continuous
 62
     7
100
AcDbText
 10
24.315563
 20
12.280527
 30
0.0
 40
0.133
  1
Code in Bohrtabelle: T3A
  7
Vcadd_SIMP
100
AcDbText
  0
TEXT
  5
25C
100
AcDbEntity
  8
0
370
    15
390
0
  6
Continuous
 62
     7
100
AcDbText
 10
28.632085
 20
12.309855
 30
0.0
 40
0.13
  1
T-3A Metrisch
 50
270.0
  7
Vcadd_SIMP
 72
     1
 11
29.300848
 21
12.309855
 31
0.0
100
AcDbText
  0
TEXT
  5
25D
100
AcDbEntity
  8
0
370
    15
390
0
  6
Continuous
 62
     7
100
AcDbText
 10
28.48573
 20
12.309855
 30
0.0
 40
0.13
  1
Blatt 3 von 3
 50
270.0
  7
Vcadd_SIMP
 72
     1
 11
29.131848
 21
12.309855
 31
0.0
100
AcDbText
  0
TEXT
  5
25E
100
AcDbEntity
  8
4
370
    15
390
0
  6
Continuous
 62
     7
100
AcDbText
 10
26.458825
 20
14.915232
 30
0.0
 40
0.15
  1
Gewinde und alle
  7
Vcadd_SIMP
100
AcDbText
  0
TEXT
  5
25F
100
AcDbEntity
  8
4
370
    15
390
0
  6
Continuous
 62
     7
100
AcDbText
 10
26.458825
 20
14.720232
 30
0.0
 40
0.15
  1
Durchmesser
  7
Vcadd_SIMP
100
AcDbText
  0
TEXT
  5
260
100
AcDbEntity
  8
4
370
    15
390
0
  6
Continuous
 62
     7
100
AcDbText
 10
24.689319
 20
15.578077
 30
0.0
 40
0.13
  1
Anschluss #1
  7
Vcadd_SIMP
100
AcDbText
  0
TEXT
  5
261
100
AcDbEntity
  8
4
370
    15
390
0
  6
Continuous
 62
     7
100
AcDbText
 10
27.538654
 20
16.831534
 30
0.0
 40
0.12
  1
Abstόtzung
  7
Vcadd_SIMP
100
AcDbText
  0
TEXT
  5
262
100
AcDbEntity
  8
4
370
    15
390
0
  6
Continuous
 62
     7
100
AcDbText
 10
27.538654
 20
16.651534
 30
0.0
 40
0.12
  1
(fόr Ventilbuchse)
  7
Vcadd_SIMP
100
AcDbText
  0
TEXT
  5
263
100
AcDbEntity
  8
4
370
    15
390
0
  6
Continuous
 62
     7
100
AcDbText
 10
26.80154
 20
18.806591
 30
0.0
 40
0.13
  1
Anschluss #2
  7
Vcadd_SIMP
100
AcDbText
  0
LINE
  5
264
100
AcDbEntity
  8
3
370
    15
390
0
  6
Continuous
 62
     1
100
AcDbLine
 10
26.894341
 20
19.73944
 30
0.0
 11
28.094164
 21
19.73944
 31
0.0
  0
LINE
  5
265
100
AcDbEntity
  8
3
370
    15
390
0
  6
Continuous
 62
     1
100
AcDbLine
 10
27.941766
 20
19.73944
 30
0.0
 11
27.941766
 21
17.493926
 31
0.0
  0
LINE
  5
266
100
AcDbEntity
  8
3
370
    15
390
0
  6
Continuous
 62
     1
100
AcDbLine
 10
27.941766
 20
19.73944
 30
0.0
 11
27.941766
 21
19.979576
 31
0.0
  0
LINE
  5
267
100
AcDbEntity
  8
3
370
    15
390
0
  6
Continuous
 62
     1
100
AcDbLine
 10
27.941766
 20
19.979576
 30
0.0
 11
28.175173
 21
19.979576
 31
0.0
  0
LINE
  5
268
100
AcDbEntity
  8
3
370
    15
390
0
  6
Continuous
 62
     1
100
AcDbLine
 10
26.798096
 20
17.493926
 30
0.0
 11
28.094164
 21
17.493926
 31
0.0
  0
TEXT
  5
269
100
AcDbEntity
  8
4
370
    15
390
0
  6
Continuous
 62
     7
100
AcDbText
 10
28.20453
 20
19.931596
 30
0.0
 40
0.142
  1
28,57
  7
Vcadd_SIMP
100
AcDbText
  0
INSERT
  5
26A
100
AcDbEntity
  8
3
370
    15
390
0
  6
Continuous
 62
     7
100
AcDbBlockReference
  2
ARROW
 10
27.941766
 20
19.73944
 30
0.0
 41
0.9
 42
0.9
 50
90.0
  0
INSERT
  5
26B
100
AcDbEntity
  8
3
370
    15
390
0
  6
Continuous
 62
     7
100
AcDbBlockReference
  2
ARROW
 10
27.941766
 20
17.493926
 30
0.0
 41
0.9
 42
0.9
 50
270.0
  0
TEXT
  5
26C
100
AcDbEntity
  8
4
370
    15
390
0
  6
Continuous
 62
     7
100
AcDbText
 10
27.6522
 20
20.58651
 30
0.0
 40
0.12
  1
LS-Anschlag
  7
Vcadd_SIMP
 72
     1
 11
28.178014
 21
20.58651
 31
0.0
100
AcDbText
  0
TEXT
  5
26D
100
AcDbEntity
  8
4
370
    15
390
0
  6
Continuous
 62
     7
100
AcDbText
 10
27.461455
 20
20.40651
 30
0.0
 40
0.12
  1
(Maίbezugskante)
  7
Vcadd_SIMP
 72
     1
 11
28.178014
 21
20.40651
 31
0.0
100
AcDbText
  0
TEXT
  5
26E
100
AcDbEntity
  8
4
370
    15
390
0
  6
Continuous
 62
     7
100
AcDbText
 10
27.37367
 20
22.016487
 30
0.0
 40
0.12
  1
Min. Abstand des
  7
Vcadd_SIMP
100
AcDbText
  0
TEXT
  5
26F
100
AcDbEntity
  8
4
370
    15
390
0
  6
Continuous
 62
     7
100
AcDbText
 10
27.37367
 20
21.836487
 30
0.0
 40
0.12
  1
Sechskant
  7
Vcadd_SIMP
100
AcDbText
  0
TEXT
  5
270
100
AcDbEntity
  8
4
370
    15
390
0
  6
Continuous
 62
     7
100
AcDbText
 10
27.525906
 20
23.21386
 30
0.0
 40
0.12
  1
Freiraum fόr
  7
Vcadd_SIMP
100
AcDbText
  0
TEXT
  5
271
100
AcDbEntity
  8
4
370
    15
390
0
  6
Continuous
 62
     7
100
AcDbText
 10
27.525906
 20
23.03386
 30
0.0
 40
0.12
  1
Sechskantnuss
  7
Vcadd_SIMP
100
AcDbText
  0
TEXT
  5
272
100
AcDbEntity
  8
4
370
    15
390
0
  6
Continuous
 62
     7
100
AcDbText
 10
27.361635
 20
23.222713
 30
0.0
 40
0.12
  1
*
  7
Vcadd_SIMP
100
AcDbText
  0
TEXT
  5
273
100
AcDbEntity
  8
4
370
    15
390
0
  6
Continuous
 62
     7
100
AcDbText
 10
27.365547
 20
24.253556
 30
0.0
 40
0.12
  1
0,80 Empf. min. Abstand
  7
Vcadd_SIMP
100
AcDbText
  0
TEXT
  5
274
100
AcDbEntity
  8
4
370
    15
390
0
  6
Continuous
 62
     7
100
AcDbText
 10
27.365547
 20
24.073556
 30
0.0
 40
0.12
  1
von Oberflδche (gefrδίt)
  7
Vcadd_SIMP
100
AcDbText
  0
TEXT
  5
275
100
AcDbEntity
  8
4
370
    15
390
0
  6
Continuous
 62
     7
100
AcDbText
 10
27.361632
 20
23.880875
 30
0.0
 40
0.12
  1
1,60 Empf. min. Abstand
  7
Vcadd_SIMP
100
AcDbText
  0
TEXT
  5
276
100
AcDbEntity
  8
4
370
    15
390
0
  6
Continuous
 62
     7
100
AcDbText
 10
27.361632
 20
23.700875
 30
0.0
 40
0.12
  1
von Oberflδche (ungefrδίt)
  7
Vcadd_SIMP
100
AcDbText
  0
LINE
  5
277
100
AcDbEntity
  8
4
370
    15
390
0
  6
Continuous
 62
     1
100
AcDbLine
 10
27.30284
 20
24.322522
 30
0.0
 11
27.11785
 21
24.322522
 31
0.0
  0
TEXT
  5
278
100
AcDbEntity
  8
4
370
    15
390
0
  6
Continuous
 62
     7
100
AcDbText
 10
25.621161
 20
23.105376
 30
0.0
 40
0.12
  1
SW 28,40
  7
Vcadd_SIMP
100
AcDbText
  0
TEXT
  5
279
100
AcDbEntity
  8
4
370
    15
390
0
  6
Continuous
 62
     7
100
AcDbText
 10
22.279133
 20
26.905313
 30
0.0
 40
0.14
  1
T-
  7
Vcadd_SIMP
100
AcDbText
  0
TEXT
  5
27A
100
AcDbEntity
  8
4
370
    15
390
0
  6
Continuous
 62
     7
100
AcDbText
 10
23.051664
 20
26.905313
 30
0.0
 40
0.14
  1
Einschraubventilbohrung
  7
Vcadd_SIMP
100
AcDbText
  0
LINE
  5
27B
100
AcDbEntity
  8
3
370
    15
390
0
  6
Continuous
 62
     1
100
AcDbLine
 10
22.32079
 20
26.876965
 30
0.0
 11
26.262702
 21
26.876965
 31
0.0
  0
TEXT
  5
27C
100
AcDbEntity
  8
4
370
    15
390
0
  6
Continuous
 62
     7
100
AcDbText
 10
22.0579
 20
26.636848
 30
0.0
 40
0.14
  1
(alle Abmessungen in Millimeter)
  7
Vcadd_SIMP
100
AcDbText
  0
TEXT
  5
27D
100
AcDbEntity
  8
4
370
    15
390
0
  6
Continuous
 62
     7
100
AcDbText
 10
22.529984
 20
26.902604
 30
0.0
 40
0.14
  1
3A
  7
Vcadd_SIMP
100
AcDbText
  0
LINE
  5
27E
100
AcDbEntity
  8
4
370
    15
390
0
  6
Continuous
 62
     7
100
AcDbLine
 10
22.507003
 20
26.391097
 30
0.0
 11
22.579572
 21
26.516792
 31
0.0
  0
LINE
  5
27F
100
AcDbEntity
  8
4
370
    15
390
0
  6
Continuous
 62
     7
100
AcDbLine
 10
22.652142
 20
26.391097
 30
0.0
 11
22.579572
 21
26.516792
 31
0.0
  0
LINE
  5
280
100
AcDbEntity
  8
4
370
    15
390
0
  6
Continuous
 62
     7
100
AcDbLine
 10
22.507003
 20
26.391097
 30
0.0
 11
22.652142
 21
26.391097
 31
0.0
  0
TEXT
  5
281
100
AcDbEntity
  8
4
370
    15
390
0
  6
Continuous
 62
     7
100
AcDbText
 10
22.784752
 20
26.393918
 30
0.0
 40
0.14
  1
1.000- 14 UNS-2B Gewinde
  7
Vcadd_SIMP
100
AcDbText
  0
TEXT
  5
282
100
AcDbEntity
  8
4
370
    15
390
0
  6
Continuous
 62
     7
100
AcDbText
 10
22.494921
 20
26.116508
 30
0.0
 40
0.14
  1
24,22/24,41 PITCH DIA.
  7
Vcadd_SIMP
 72
     1
 11
24.265921
 21
26.116508
 31
0.0
100
AcDbText
  0
TEXT
  5
283
100
AcDbEntity
  8
4
370
    15
390
0
  6
Continuous
 62
     7
100
AcDbText
 10
21.594988
 20
19.338156
 30
0.0
 40
0.12
  1
Min. Abstand fόr Bereich mit
  7
Vcadd_SIMP
100
AcDbText
  0
TEXT
  5
284
100
AcDbEntity
  8
4
370
    15
390
0
  6
Continuous
 62
     7
100
AcDbText
 10
21.594988
 20
19.158156
 30
0.0
 40
0.12
  1
vollstδndigen Gewindegδngen
  7
Vcadd_SIMP
100
AcDbText
  0
LINE
  5
285
100
AcDbEntity
  8
4
370
    15
390
0
  6
Continuous
 62
     7
100
AcDbLine
 10
23.962176
 20
19.114252
 30
0.0
 11
24.034745
 21
19.239946
 31
0.0
  0
LINE
  5
286
100
AcDbEntity
  8
4
370
    15
390
0
  6
Continuous
 62
     7
100
AcDbLine
 10
24.107315
 20
19.114252
 30
0.0
 11
24.034745
 21
19.239946
 31
0.0
  0
LINE
  5
287
100
AcDbEntity
  8
4
370
    15
390
0
  6
Continuous
 62
     7
100
AcDbLine
 10
23.962176
 20
19.114252
 30
0.0
 11
24.107315
 21
19.114252
 31
0.0
  0
LINE
  5
288
100
AcDbEntity
  8
4
370
    15
390
0
  6
Continuous
 62
   134
100
AcDbLine
 10
21.611273
 20
12.970715
 30
0.0
 11
23.01178
 21
12.970715
 31
0.0
  0
LINE
  5
289
100
AcDbEntity
  8
4
370
    15
390
0
  6
Continuous
 62
   134
100
AcDbLine
 10
21.611273
 20
12.954268
 30
0.0
 11
23.01178
 21
12.954268
 31
0.0
  0
TEXT
  5
28A
100
AcDbEntity
  8
4
370
    15
390
0
  6
Continuous
 62
     7
100
AcDbText
 10
21.627711
 20
12.991273
 30
0.0
 40
0.14
  1
Komplettansicht
  7
Vcadd_SIMP
100
AcDbText
  0
CIRCLE
  5
28B
100
AcDbEntity
  8
0
370
    15
390
0
  6
Continuous
 62
     7
100
AcDbCircle
 10
20.191086
 20
11.768588
 30
0.0
 40
0.054385
  0
CIRCLE
  5
28C
100
AcDbEntity
  8
0
370
    15
390
0
  6
Continuous
 62
     2
100
AcDbCircle
 10
20.012844
 20
13.564307
 30
0.0
 40
0.312
  0
LINE
  5
28D
100
AcDbEntity
  8
0
370
    15
390
0
  6
Continuous
 62
     7
100
AcDbLine
 10
20.07785
 20
13.682093
 30
0.0
 11
20.132316
 21
13.682093
 31
0.0
  0
LINE
  5
28E
100
AcDbEntity
  8
0
370
    15
390
0
  6
Continuous
 62
     7
100
AcDbLine
 10
20.07785
 20
13.775244
 30
0.0
 11
20.07785
 21
13.682093
 31
0.0
  0
LINE
  5
28F
100
AcDbEntity
  8
0
370
    15
390
0
  6
Continuous
 62
     7
100
AcDbLine
 10
20.040344
 20
13.775244
 30
0.0
 11
20.07785
 21
13.775244
 31
0.0
  0
LINE
  5
290
100
AcDbEntity
  8
0
370
    15
390
0
  6
Continuous
 62
     7
100
AcDbLine
 10
20.040344
 20
13.682093
 30
0.0
 11
20.040344
 21
13.775244
 31
0.0
  0
LINE
  5
291
100
AcDbEntity
  8
0
370
    15
390
0
  6
Continuous
 62
     7
100
AcDbLine
 10
19.893368
 20
13.682093
 30
0.0
 11
20.040344
 21
13.682093
 31
0.0
  0
LINE
  5
292
100
AcDbEntity
  8
0
370
    15
390
0
  6
Continuous
 62
     7
100
AcDbLine
 10
19.893368
 20
13.830245
 30
0.0
 11
19.893368
 21
13.682093
 31
0.0
  0
LINE
  5
293
100
AcDbEntity
  8
0
370
    15
390
0
  6
Continuous
 62
     7
100
AcDbLine
 10
19.94841
 20
13.830245
 30
0.0
 11
19.893368
 21
13.830245
 31
0.0
  0
LINE
  5
294
100
AcDbEntity
  8
0
370
    15
390
0
  6
Continuous
 62
     7
100
AcDbLine
 10
19.94841
 20
13.737094
 30
0.0
 11
19.94841
 21
13.830245
 31
0.0
  0
LINE
  5
295
100
AcDbEntity
  8
0
370
    15
390
0
  6
Continuous
 62
     7
100
AcDbLine
 10
19.98496
 20
13.737094
 30
0.0
 11
19.94841
 21
13.737094
 31
0.0
  0
LINE
  5
296
100
AcDbEntity
  8
0
370
    15
390
0
  6
Continuous
 62
     7
100
AcDbLine
 10
19.98496
 20
13.830245
 30
0.0
 11
19.98496
 21
13.737094
 31
0.0
  0
LINE
  5
297
100
AcDbEntity
  8
0
370
    15
390
0
  6
Continuous
 62
     7
100
AcDbLine
 10
20.132316
 20
13.830245
 30
0.0
 11
19.98496
 21
13.830245
 31
0.0
  0
LINE
  5
298
100
AcDbEntity
  8
0
370
    15
390
0
  6
Continuous
 62
     7
100
AcDbLine
 10
20.132316
 20
13.830245
 30
0.0
 11
20.132316
 21
13.682093
 31
0.0
  0
LINE
  5
299
100
AcDbEntity
  8
0
370
    15
390
0
  6
Continuous
 62
     7
100
AcDbLine
 10
20.132316
 20
13.490233
 30
0.0
 11
20.132316
 21
13.545939
 31
0.0
  0
LINE
  5
29A
100
AcDbEntity
  8
0
370
    15
390
0
  6
Continuous
 62
     7
100
AcDbLine
 10
19.893368
 20
13.490233
 30
0.0
 11
20.132316
 21
13.490233
 31
0.0
  0
LINE
  5
29B
100
AcDbEntity
  8
0
370
    15
390
0
  6
Continuous
 62
     7
100
AcDbLine
 10
19.893368
 20
13.638385
 30
0.0
 11
19.893368
 21
13.490233
 31
0.0
  0
LINE
  5
29C
100
AcDbEntity
  8
0
370
    15
390
0
  6
Continuous
 62
     7
100
AcDbLine
 10
20.132316
 20
13.638385
 30
0.0
 11
19.893368
 21
13.638385
 31
0.0
  0
LINE
  5
29D
100
AcDbEntity
  8
0
370
    15
390
0
  6
Continuous
 62
     7
100
AcDbLine
 10
20.132316
 20
13.583464
 30
0.0
 11
20.132316
 21
13.638385
 31
0.0
  0
LINE
  5
29E
100
AcDbEntity
  8
0
370
    15
390
0
  6
Continuous
 62
     7
100
AcDbLine
 10
19.948368
 20
13.583464
 30
0.0
 11
20.132316
 21
13.583464
 31
0.0
  0
LINE
  5
29F
100
AcDbEntity
  8
0
370
    15
390
0
  6
Continuous
 62
     7
100
AcDbLine
 10
19.948368
 20
13.545939
 30
0.0
 11
19.948368
 21
13.583464
 31
0.0
  0
LINE
  5
2A0
100
AcDbEntity
  8
0
370
    15
390
0
  6
Continuous
 62
     7
100
AcDbLine
 10
19.948368
 20
13.545939
 30
0.0
 11
20.132316
 21
13.545939
 31
0.0
  0
LINE
  5
2A1
100
AcDbEntity
  8
0
370
    15
390
0
  6
Continuous
 62
     7
100
AcDbLine
 10
19.893368
 20
13.388655
 30
0.0
 11
19.893368
 21
13.444361
 31
0.0
  0
LINE
  5
2A2
100
AcDbEntity
  8
0
370
    15
390
0
  6
Continuous
 62
     7
100
AcDbLine
 10
20.077316
 20
13.388655
 30
0.0
 11
19.893368
 21
13.388655
 31
0.0
  0
LINE
  5
2A3
100
AcDbEntity
  8
0
370
    15
390
0
  6
Continuous
 62
     7
100
AcDbLine
 10
20.077316
 20
13.35113
 30
0.0
 11
20.077316
 21
13.388655
 31
0.0
  0
LINE
  5
2A4
100
AcDbEntity
  8
0
370
    15
390
0
  6
Continuous
 62
     7
100
AcDbLine
 10
19.893368
 20
13.35113
 30
0.0
 11
20.077316
 21
13.35113
 31
0.0
  0
LINE
  5
2A5
100
AcDbEntity
  8
0
370
    15
390
0
  6
Continuous
 62
     7
100
AcDbLine
 10
19.893368
 20
13.29621
 30
0.0
 11
19.893368
 21
13.35113
 31
0.0
  0
LINE
  5
2A6
100
AcDbEntity
  8
0
370
    15
390
0
  6
Continuous
 62
     7
100
AcDbLine
 10
20.132316
 20
13.29621
 30
0.0
 11
19.893368
 21
13.29621
 31
0.0
  0
LINE
  5
2A7
100
AcDbEntity
  8
0
370
    15
390
0
  6
Continuous
 62
     7
100
AcDbLine
 10
20.132316
 20
13.444361
 30
0.0
 11
20.132316
 21
13.29621
 31
0.0
  0
LINE
  5
2A8
100
AcDbEntity
  8
0
370
    15
390
0
  6
Continuous
 62
     7
100
AcDbLine
 10
20.132316
 20
13.444361
 30
0.0
 11
19.893368
 21
13.444361
 31
0.0
  0
LINE
  5
2A9
100
AcDbEntity
  8
0
370
    15
390
0
  6
Continuous
 62
     7
100
AcDbLine
 10
20.108843
 20
13.08005
 30
0.0
 11
20.175525
 21
13.08005
 31
0.0
  0
LINE
  5
2AA
100
AcDbEntity
  8
0
370
    15
390
0
  6
Continuous
 62
     7
100
AcDbLine
 10
20.108843
 20
12.99969
 30
0.0
 11
20.108843
 21
13.08005
 31
0.0
  0
LINE
  5
2AB
100
AcDbEntity
  8
0
370
    15
390
0
  6
Continuous
 62
     7
100
AcDbLine
 10
19.912842
 20
12.99969
 30
0.0
 11
20.108843
 21
12.99969
 31
0.0
  0
LINE
  5
2AC
100
AcDbEntity
  8
0
370
    15
390
0
  6
Continuous
 62
     7
100
AcDbLine
 10
19.912842
 20
13.03987
 30
0.0
 11
19.912842
 21
12.99969
 31
0.0
  0
LINE
  5
2AD
100
AcDbEntity
  8
0
370
    15
390
0
  6
Continuous
 62
     7
100
AcDbLine
 10
20.068662
 20
13.03987
 30
0.0
 11
19.912842
 21
13.03987
 31
0.0
  0
LINE
  5
2AE
100
AcDbEntity
  8
0
370
    15
390
0
  6
Continuous
 62
     7
100
AcDbLine
 10
20.068662
 20
13.08005
 30
0.0
 11
20.068662
 21
13.03987
 31
0.0
  0
LINE
  5
2AF
100
AcDbEntity
  8
0
370
    15
390
0
  6
Continuous
 62
     7
100
AcDbLine
 10
19.912842
 20
13.08005
 30
0.0
 11
20.068662
 21
13.08005
 31
0.0
  0
LINE
  5
2B0
100
AcDbEntity
  8
0
370
    15
390
0
  6
Continuous
 62
     7
100
AcDbLine
 10
19.912842
 20
13.12023
 30
0.0
 11
19.912842
 21
13.08005
 31
0.0
  0
LINE
  5
2B1
100
AcDbEntity
  8
0
370
    15
390
0
  6
Continuous
 62
     7
100
AcDbLine
 10
20.175525
 20
13.12023
 30
0.0
 11
19.912842
 21
13.12023
 31
0.0
  0
LINE
  5
2B2
100
AcDbEntity
  8
0
370
    15
390
0
  6
Continuous
 62
     7
100
AcDbLine
 10
20.175525
 20
13.12023
 30
0.0
 11
20.175525
 21
13.08005
 31
0.0
  0
LINE
  5
2B3
100
AcDbEntity
  8
0
370
    15
390
0
  6
Continuous
 62
     7
100
AcDbLine
 10
19.953022
 20
12.919329
 30
0.0
 11
20.108843
 21
12.919329
 31
0.0
  0
LINE
  5
2B4
100
AcDbEntity
  8
0
370
    15
390
0
  6
Continuous
 62
     7
100
AcDbLine
 10
19.953022
 20
12.879149
 30
0.0
 11
19.953022
 21
12.919329
 31
0.0
  0
LINE
  5
2B5
100
AcDbEntity
  8
0
370
    15
390
0
  6
Continuous
 62
     7
100
AcDbLine
 10
20.108843
 20
12.879149
 30
0.0
 11
19.953022
 21
12.879149
 31
0.0
  0
LINE
  5
2B6
100
AcDbEntity
  8
0
370
    15
390
0
  6
Continuous
 62
     7
100
AcDbLine
 10
20.108843
 20
12.838969
 30
0.0
 11
20.108843
 21
12.879149
 31
0.0
  0
LINE
  5
2B7
100
AcDbEntity
  8
0
370
    15
390
0
  6
Continuous
 62
     7
100
AcDbLine
 10
19.833183
 20
12.838969
 30
0.0
 11
20.108843
 21
12.838969
 31
0.0
  0
LINE
  5
2B8
100
AcDbEntity
  8
0
370
    15
390
0
  6
Continuous
 62
     7
100
AcDbLine
 10
19.832481
 20
12.916888
 30
0.0
 11
19.833183
 21
12.838969
 31
0.0
  0
LINE
  5
2B9
100
AcDbEntity
  8
0
370
    15
390
0
  6
Continuous
 62
     7
100
AcDbLine
 10
19.872661
 20
12.916888
 30
0.0
 11
19.832481
 21
12.916888
 31
0.0
  0
LINE
  5
2BA
100
AcDbEntity
  8
0
370
    15
390
0
  6
Continuous
 62
     7
100
AcDbLine
 10
19.872661
 20
12.879149
 30
0.0
 11
19.872661
 21
12.916888
 31
0.0
  0
LINE
  5
2BB
100
AcDbEntity
  8
0
370
    15
390
0
  6
Continuous
 62
     7
100
AcDbLine
 10
19.912842
 20
12.879149
 30
0.0
 11
19.872661
 21
12.879149
 31
0.0
  0
LINE
  5
2BC
100
AcDbEntity
  8
0
370
    15
390
0
  6
Continuous
 62
     7
100
AcDbLine
 10
19.912842
 20
12.95951
 30
0.0
 11
19.912842
 21
12.879149
 31
0.0
  0
LINE
  5
2BD
100
AcDbEntity
  8
0
370
    15
390
0
  6
Continuous
 62
     7
100
AcDbLine
 10
20.108843
 20
12.95951
 30
0.0
 11
19.912842
 21
12.95951
 31
0.0
  0
LINE
  5
2BE
100
AcDbEntity
  8
0
370
    15
390
0
  6
Continuous
 62
     7
100
AcDbLine
 10
20.108843
 20
12.95951
 30
0.0
 11
20.108843
 21
12.919329
 31
0.0
  0
LINE
  5
2BF
100
AcDbEntity
  8
0
370
    15
390
0
  6
Continuous
 62
     7
100
AcDbLine
 10
20.175525
 20
12.716914
 30
0.0
 11
20.108843
 21
12.716914
 31
0.0
  0
LINE
  5
2C0
100
AcDbEntity
  8
0
370
    15
390
0
  6
Continuous
 62
     7
100
AcDbLine
 10
20.175525
 20
12.67673
 30
0.0
 11
20.175525
 21
12.716914
 31
0.0
  0
LINE
  5
2C1
100
AcDbEntity
  8
0
370
    15
390
0
  6
Continuous
 62
     7
100
AcDbLine
 10
19.912842
 20
12.67673
 30
0.0
 11
20.175525
 21
12.67673
 31
0.0
  0
LINE
  5
2C2
100
AcDbEntity
  8
0
370
    15
390
0
  6
Continuous
 62
     7
100
AcDbLine
 10
19.912842
 20
12.797274
 30
0.0
 11
19.912842
 21
12.67673
 31
0.0
  0
LINE
  5
2C3
100
AcDbEntity
  8
0
370
    15
390
0
  6
Continuous
 62
     7
100
AcDbLine
 10
20.108843
 20
12.797274
 30
0.0
 11
19.912842
 21
12.797274
 31
0.0
  0
LINE
  5
2C4
100
AcDbEntity
  8
0
370
    15
390
0
  6
Continuous
 62
     7
100
AcDbLine
 10
20.108843
 20
12.797274
 30
0.0
 11
20.108843
 21
12.716914
 31
0.0
  0
LINE
  5
2C5
100
AcDbEntity
  8
0
370
    15
390
0
  6
Continuous
 62
     7
100
AcDbLine
 10
20.068662
 20
12.716914
 30
0.0
 11
19.953022
 21
12.716914
 31
0.0
  0
LINE
  5
2C6
100
AcDbEntity
  8
0
370
    15
390
0
  6
Continuous
 62
     7
100
AcDbLine
 10
19.953022
 20
12.75709
 30
0.0
 11
19.953022
 21
12.716914
 31
0.0
  0
LINE
  5
2C7
100
AcDbEntity
  8
0
370
    15
390
0
  6
Continuous
 62
     7
100
AcDbLine
 10
20.068662
 20
12.75709
 30
0.0
 11
19.953022
 21
12.75709
 31
0.0
  0
LINE
  5
2C8
100
AcDbEntity
  8
0
370
    15
390
0
  6
Continuous
 62
     7
100
AcDbLine
 10
20.068662
 20
12.75709
 30
0.0
 11
20.068662
 21
12.716914
 31
0.0
  0
LINE
  5
2C9
100
AcDbEntity
  8
0
370
    15
390
0
  6
Continuous
 62
     7
100
AcDbLine
 10
20.068662
 20
12.556193
 30
0.0
 11
20.108843
 21
12.556193
 31
0.0
  0
LINE
  5
2CA
100
AcDbEntity
  8
0
370
    15
390
0
  6
Continuous
 62
     7
100
AcDbLine
 10
20.068662
 20
12.596373
 30
0.0
 11
20.068662
 21
12.556193
 31
0.0
  0
LINE
  5
2CB
100
AcDbEntity
  8
0
370
    15
390
0
  6
Continuous
 62
     7
100
AcDbLine
 10
19.912842
 20
12.596373
 30
0.0
 11
20.068662
 21
12.596373
 31
0.0
  0
LINE
  5
2CC
100
AcDbEntity
  8
0
370
    15
390
0
  6
Continuous
 62
     7
100
AcDbLine
 10
19.912842
 20
12.636554
 30
0.0
 11
19.912842
 21
12.596373
 31
0.0
  0
LINE
  5
2CD
100
AcDbEntity
  8
0
370
    15
390
0
  6
Continuous
 62
     7
100
AcDbLine
 10
20.108843
 20
12.636554
 30
0.0
 11
19.912842
 21
12.636554
 31
0.0
  0
LINE
  5
2CE
100
AcDbEntity
  8
0
370
    15
390
0
  6
Continuous
 62
     7
100
AcDbLine
 10
20.108843
 20
12.636554
 30
0.0
 11
20.108843
 21
12.556193
 31
0.0
  0
LINE
  5
2CF
100
AcDbEntity
  8
0
370
    15
390
0
  6
Continuous
 62
     7
100
AcDbLine
 10
19.953022
 20
12.315112
 30
0.0
 11
20.108843
 21
12.315112
 31
0.0
  0
LINE
  5
2D0
100
AcDbEntity
  8
0
370
    15
390
0
  6
Continuous
 62
     7
100
AcDbLine
 10
19.953022
 20
12.274932
 30
0.0
 11
19.953022
 21
12.315112
 31
0.0
  0
LINE
  5
2D1
100
AcDbEntity
  8
0
370
    15
390
0
  6
Continuous
 62
     7
100
AcDbLine
 10
20.108843
 20
12.274932
 30
0.0
 11
19.953022
 21
12.274932
 31
0.0
  0
LINE
  5
2D2
100
AcDbEntity
  8
0
370
    15
390
0
  6
Continuous
 62
     7
100
AcDbLine
 10
20.108843
 20
12.234751
 30
0.0
 11
20.108843
 21
12.274932
 31
0.0
  0
LINE
  5
2D3
100
AcDbEntity
  8
0
370
    15
390
0
  6
Continuous
 62
     7
100
AcDbLine
 10
19.912842
 20
12.234751
 30
0.0
 11
20.108843
 21
12.234751
 31
0.0
  0
LINE
  5
2D4
100
AcDbEntity
  8
0
370
    15
390
0
  6
Continuous
 62
     7
100
AcDbLine
 10
19.912842
 20
12.355292
 30
0.0
 11
19.912842
 21
12.234751
 31
0.0
  0
LINE
  5
2D5
100
AcDbEntity
  8
0
370
    15
390
0
  6
Continuous
 62
     7
100
AcDbLine
 10
20.108843
 20
12.355292
 30
0.0
 11
19.912842
 21
12.355292
 31
0.0
  0
LINE
  5
2D6
100
AcDbEntity
  8
0
370
    15
390
0
  6
Continuous
 62
     7
100
AcDbLine
 10
20.108843
 20
12.355292
 30
0.0
 11
20.108843
 21
12.315112
 31
0.0
  0
LINE
  5
2D7
100
AcDbEntity
  8
0
370
    15
390
0
  6
Continuous
 62
     7
100
AcDbLine
 10
19.912842
 20
12.154391
 30
0.0
 11
20.175525
 21
12.154391
 31
0.0
  0
LINE
  5
2D8
100
AcDbEntity
  8
0
370
    15
390
0
  6
Continuous
 62
     7
100
AcDbLine
 10
19.912842
 20
12.194571
 30
0.0
 11
19.912842
 21
12.154391
 31
0.0
  0
LINE
  5
2D9
100
AcDbEntity
  8
0
370
    15
390
0
  6
Continuous
 62
     7
100
AcDbLine
 10
20.175525
 20
12.194571
 30
0.0
 11
19.912842
 21
12.194571
 31
0.0
  0
LINE
  5
2DA
100
AcDbEntity
  8
0
370
    15
390
0
  6
Continuous
 62
     7
100
AcDbLine
 10
20.175525
 20
12.194571
 30
0.0
 11
20.175525
 21
12.154391
 31
0.0
  0
LINE
  5
2DB
100
AcDbEntity
  8
0
370
    15
390
0
  6
Continuous
 62
     7
100
AcDbLine
 10
20.135345
 20
12.074031
 30
0.0
 11
20.175525
 21
12.074031
 31
0.0
  0
LINE
  5
2DC
100
AcDbEntity
  8
0
370
    15
390
0
  6
Continuous
 62
     7
100
AcDbLine
 10
20.135345
 20
12.114211
 30
0.0
 11
20.135345
 21
12.074031
 31
0.0
  0
LINE
  5
2DD
100
AcDbEntity
  8
0
370
    15
390
0
  6
Continuous
 62
     7
100
AcDbLine
 10
20.175525
 20
12.114211
 30
0.0
 11
20.135345
 21
12.114211
 31
0.0
  0
LINE
  5
2DE
100
AcDbEntity
  8
0
370
    15
390
0
  6
Continuous
 62
     7
100
AcDbLine
 10
20.175525
 20
12.114211
 30
0.0
 11
20.175525
 21
12.074031
 31
0.0
  0
LINE
  5
2DF
100
AcDbEntity
  8
0
370
    15
390
0
  6
Continuous
 62
     7
100
AcDbLine
 10
19.912842
 20
12.074031
 30
0.0
 11
20.108843
 21
12.074031
 31
0.0
  0
LINE
  5
2E0
100
AcDbEntity
  8
0
370
    15
390
0
  6
Continuous
 62
     7
100
AcDbLine
 10
19.912842
 20
12.114211
 30
0.0
 11
19.912842
 21
12.074031
 31
0.0
  0
LINE
  5
2E1
100
AcDbEntity
  8
0
370
    15
390
0
  6
Continuous
 62
     7
100
AcDbLine
 10
20.108843
 20
12.114211
 30
0.0
 11
19.912842
 21
12.114211
 31
0.0
  0
LINE
  5
2E2
100
AcDbEntity
  8
0
370
    15
390
0
  6
Continuous
 62
     7
100
AcDbLine
 10
20.108843
 20
12.114211
 30
0.0
 11
20.108843
 21
12.074031
 31
0.0
  0
LINE
  5
2E3
100
AcDbEntity
  8
0
370
    15
390
0
  6
Continuous
 62
     7
100
AcDbLine
 10
20.068662
 20
11.918109
 30
0.0
 11
20.108843
 21
11.918109
 31
0.0
  0
LINE
  5
2E4
100
AcDbEntity
  8
0
370
    15
390
0
  6
Continuous
 62
     7
100
AcDbLine
 10
20.068662
 20
11.99367
 30
0.0
 11
20.068662
 21
11.918109
 31
0.0
  0
LINE
  5
2E5
100
AcDbEntity
  8
0
370
    15
390
0
  6
Continuous
 62
     7
100
AcDbLine
 10
19.953022
 20
11.99367
 30
0.0
 11
20.068662
 21
11.99367
 31
0.0
  0
LINE
  5
2E6
100
AcDbEntity
  8
0
370
    15
390
0
  6
Continuous
 62
     7
100
AcDbLine
 10
19.953022
 20
11.918109
 30
0.0
 11
19.953022
 21
11.99367
 31
0.0
  0
LINE
  5
2E7
100
AcDbEntity
  8
0
370
    15
390
0
  6
Continuous
 62
     7
100
AcDbLine
 10
19.912842
 20
11.918109
 30
0.0
 11
19.953022
 21
11.918109
 31
0.0
  0
LINE
  5
2E8
100
AcDbEntity
  8
0
370
    15
390
0
  6
Continuous
 62
     7
100
AcDbLine
 10
19.912842
 20
12.03385
 30
0.0
 11
19.912842
 21
11.918109
 31
0.0
  0
LINE
  5
2E9
100
AcDbEntity
  8
0
370
    15
390
0
  6
Continuous
 62
     7
100
AcDbLine
 10
20.108843
 20
12.03385
 30
0.0
 11
19.912842
 21
12.03385
 31
0.0
  0
LINE
  5
2EA
100
AcDbEntity
  8
0
370
    15
390
0
  6
Continuous
 62
     7
100
AcDbLine
 10
20.108843
 20
12.03385
 30
0.0
 11
20.108843
 21
11.918109
 31
0.0
  0
LINE
  5
2EB
100
AcDbEntity
  8
0
370
    15
390
0
  6
Continuous
 62
     7
100
AcDbLine
 10
20.068662
 20
11.750647
 30
0.0
 11
20.108843
 21
11.750647
 31
0.0
  0
LINE
  5
2EC
100
AcDbEntity
  8
0
370
    15
390
0
  6
Continuous
 62
     7
100
AcDbLine
 10
20.068662
 20
11.837748
 30
0.0
 11
20.068662
 21
11.750647
 31
0.0
  0
LINE
  5
2ED
100
AcDbEntity
  8
0
370
    15
390
0
  6
Continuous
 62
     7
100
AcDbLine
 10
20.030933
 20
11.837748
 30
0.0
 11
20.068662
 21
11.837748
 31
0.0
  0
LINE
  5
2EE
100
AcDbEntity
  8
0
370
    15
390
0
  6
Continuous
 62
     7
100
AcDbLine
 10
20.030933
 20
11.750647
 30
0.0
 11
20.030933
 21
11.837748
 31
0.0
  0
LINE
  5
2EF
100
AcDbEntity
  8
0
370
    15
390
0
  6
Continuous
 62
     7
100
AcDbLine
 10
19.912842
 20
11.750647
 30
0.0
 11
20.030933
 21
11.750647
 31
0.0
  0
LINE
  5
2F0
100
AcDbEntity
  8
0
370
    15
390
0
  6
Continuous
 62
     7
100
AcDbLine
 10
19.912842
 20
11.877929
 30
0.0
 11
19.912842
 21
11.750647
 31
0.0
  0
LINE
  5
2F1
100
AcDbEntity
  8
0
370
    15
390
0
  6
Continuous
 62
     7
100
AcDbLine
 10
19.953022
 20
11.877929
 30
0.0
 11
19.912842
 21
11.877929
 31
0.0
  0
LINE
  5
2F2
100
AcDbEntity
  8
0
370
    15
390
0
  6
Continuous
 62
     7
100
AcDbLine
 10
19.953022
 20
11.790828
 30
0.0
 11
19.953022
 21
11.877929
 31
0.0
  0
LINE
  5
2F3
100
AcDbEntity
  8
0
370
    15
390
0
  6
Continuous
 62
     7
100
AcDbLine
 10
19.990753
 20
11.790828
 30
0.0
 11
19.953022
 21
11.790828
 31
0.0
  0
LINE
  5
2F4
100
AcDbEntity
  8
0
370
    15
390
0
  6
Continuous
 62
     7
100
AcDbLine
 10
19.990753
 20
11.877929
 30
0.0
 11
19.990753
 21
11.790828
 31
0.0
  0
LINE
  5
2F5
100
AcDbEntity
  8
0
370
    15
390
0
  6
Continuous
 62
     7
100
AcDbLine
 10
20.108843
 20
11.877929
 30
0.0
 11
19.990753
 21
11.877929
 31
0.0
  0
LINE
  5
2F6
100
AcDbEntity
  8
0
370
    15
390
0
  6
Continuous
 62
     7
100
AcDbLine
 10
20.108843
 20
11.877929
 30
0.0
 11
20.108843
 21
11.750647
 31
0.0
  0
LINE
  5
2F7
100
AcDbEntity
  8
0
370
    15
390
0
  6
Continuous
 62
     7
100
AcDbLine
 10
19.912842
 20
12.395472
 30
0.0
 11
20.108843
 21
12.395472
 31
0.0
  0
LINE
  5
2F8
100
AcDbEntity
  8
0
370
    15
390
0
  6
Continuous
 62
     7
100
AcDbLine
 10
19.912842
 20
12.516013
 30
0.0
 11
19.912842
 21
12.395472
 31
0.0
  0
LINE
  5
2F9
100
AcDbEntity
  8
0
370
    15
390
0
  6
Continuous
 62
     7
100
AcDbLine
 10
20.033382
 20
12.516013
 30
0.0
 11
19.912842
 21
12.516013
 31
0.0
  0
LINE
  5
2FA
100
AcDbEntity
  8
0
370
    15
390
0
  6
Continuous
 62
     7
100
AcDbLine
 10
20.033382
 20
12.435653
 30
0.0
 11
20.033382
 21
12.516013
 31
0.0
  0
LINE
  5
2FB
100
AcDbEntity
  8
0
370
    15
390
0
  6
Continuous
 62
     7
100
AcDbLine
 10
20.068662
 20
12.435653
 30
0.0
 11
20.033382
 21
12.435653
 31
0.0
  0
LINE
  5
2FC
100
AcDbEntity
  8
0
370
    15
390
0
  6
Continuous
 62
     7
100
AcDbLine
 10
20.068662
 20
12.498236
 30
0.0
 11
20.068662
 21
12.435653
 31
0.0
  0
LINE
  5
2FD
100
AcDbEntity
  8
0
370
    15
390
0
  6
Continuous
 62
     7
100
AcDbLine
 10
20.108843
 20
12.498236
 30
0.0
 11
20.068662
 21
12.498236
 31
0.0
  0
LINE
  5
2FE
100
AcDbEntity
  8
0
370
    15
390
0
  6
Continuous
 62
     7
100
AcDbLine
 10
20.108843
 20
12.498236
 30
0.0
 11
20.108843
 21
12.395472
 31
0.0
  0
LINE
  5
2FF
100
AcDbEntity
  8
0
370
    15
390
0
  6
Continuous
 62
     7
100
AcDbLine
 10
19.953022
 20
12.435653
 30
0.0
 11
19.993202
 21
12.435653
 31
0.0
  0
LINE
  5
300
100
AcDbEntity
  8
0
370
    15
390
0
  6
Continuous
 62
     7
100
AcDbLine
 10
19.953022
 20
12.475833
 30
0.0
 11
19.953022
 21
12.435653
 31
0.0
  0
LINE
  5
301
100
AcDbEntity
  8
0
370
    15
390
0
  6
Continuous
 62
     7
100
AcDbLine
 10
19.993202
 20
12.475833
 30
0.0
 11
19.953022
 21
12.475833
 31
0.0
  0
LINE
  5
302
100
AcDbEntity
  8
0
370
    15
390
0
  6
Continuous
 62
     7
100
AcDbLine
 10
19.993202
 20
12.475833
 30
0.0
 11
19.993202
 21
12.435653
 31
0.0
  0
HATCH
  5
303
100
AcDbEntity
  8
0
370
    15
390
0
  6
Continuous
 62
   174
100
AcDbHatch
 10
0.0
 20
0.0
 30
0.0
210
0.0
220
0.0
230
1.0
  2
SOLID
 70
     1
 71
     0
 91
        4
 92
        1
 93
        1
 72
     2
 10
20.012843837111589
 20
13.56430698567619
 40
0.3120002746582031
 50
0.0
 51
359.999994
 73
     1
 97
        0
 92
        1
 93
       12
 72
     1
 10
20.077850093215105
 20
13.682093393146893
 11
20.132316340773698
 21
13.682093393146893
 72
     1
 10
20.132316340773698
 20
13.682093393146893
 11
20.132316340773698
 21
13.830244790851971
 72
     1
 10
20.132316340773698
 20
13.830244790851971
 11
19.984960307448503
 21
13.830244790851971
 72
     1
 10
19.984960307448503
 20
13.830244790851971
 11
19.984960307448503
 21
13.737093698322674
 72
     1
 10
19.984960307448503
 20
13.737093698322674
 11
19.948409785597917
 21
13.737093698322674
 72
     1
 10
19.948409785597917
 20
13.737093698322674
 11
19.948409785597917
 21
13.830244790851971
 72
     1
 10
19.948409785597917
 20
13.830244790851971
 11
19.893367518752214
 21
13.830244790851971
 72
     1
 10
19.893367518752214
 20
13.830244790851971
 11
19.893367518752214
 21
13.682093393146893
 72
     1
 10
19.893367518752214
 20
13.682093393146893
 11
20.04034398969948
 21
13.682093393146893
 72
     1
 10
20.04034398969948
 20
13.682093393146893
 11
20.04034398969948
 21
13.77524448567619
 72
     1
 10
20.04034398969948
 20
13.77524448567619
 11
20.077850093215105
 21
13.77524448567619
 72
     1
 10
20.077850093215105
 20
13.77524448567619
 11
20.077850093215105
 21
13.682093393146893
 97
        0
 92
        1
 93
        8
 72
     1
 10
20.132316340773698
 20
13.490233194172284
 11
20.132316340773698
 21
13.545939218342205
 72
     1
 10
20.132316340773698
 20
13.545939218342205
 11
19.948367823927995
 21
13.545939218342205
 72
     1
 10
19.948367823927995
 20
13.545939218342205
 11
19.948367823927995
 21
13.583464395344159
 72
     1
 10
19.948367823927995
 20
13.583464395344159
 11
20.132316340773698
 21
13.583464395344159
 72
     1
 10
20.132316340773698
 20
13.583464395344159
 11
20.132316340773698
 21
13.638384591877362
 72
     1
 10
20.132316340773698
 20
13.638384591877362
 11
19.893367518752214
 21
13.638384591877362
 72
     1
 10
19.893367518752214
 20
13.638384591877362
 11
19.893367518752214
 21
13.490233194172284
 72
     1
 10
19.893367518752214
 20
13.490233194172284
 11
20.132316340773698
 21
13.490233194172284
 97
        0
 92
        1
 93
        8
 72
     1
 10
19.893367518752214
 20
13.388655435383221
 11
19.893367518752214
 21
13.444361459553143
 72
     1
 10
19.893367518752214
 20
13.444361459553143
 11
20.132316340773698
 21
13.444361459553143
 72
     1
 10
20.132316340773698
 20
13.444361459553143
 11
20.132316340773698
 21
13.296210061848065
 72
     1
 10
20.132316340773698
 20
13.296210061848065
 11
19.893367518752214
 21
13.296210061848065
 72
     1
 10
19.893367518752214
 20
13.296210061848065
 11
19.893367518752214
 21
13.351130258381268
 72
     1
 10
19.893367518752214
 20
13.351130258381268
 11
20.077316035597917
 21
13.351130258381268
 72
     1
 10
20.077316035597917
 20
13.351130258381268
 11
20.077316035597917
 21
13.388655435383221
 72
     1
 10
20.077316035597917
 20
13.388655435383221
 11
19.893367518752214
 21
13.388655435383221
 97
        0
 75
     0
 76
     1
 98
        1
 10
0.0
 20
0.0
  0
HATCH
  5
304
100
AcDbEntity
  8
0
370
    15
390
0
  6
Continuous
 62
   174
100
AcDbHatch
 10
0.0
 20
0.0
 30
0.0
210
0.0
220
0.0
230
1.0
  2
SOLID
 70
     1
 71
     0
 91
        4
 92
        1
 93
       10
 72
     1
 10
20.108842601149675
 20
13.080050241291424
 11
20.175525416701433
 21
13.080050241291424
 72
     1
 10
20.175525416701433
 20
13.080050241291424
 11
20.175525416701433
 21
13.120230447590252
 72
     1
 10
20.175525416701433
 20
13.120230447590252
 11
19.91284154829323
 21
13.120230447590252
 72
     1
 10
19.91284154829323
 20
13.120230447590252
 11
19.91284154829323
 21
13.080050241291424
 72
     1
 10
19.91284154829323
 20
13.080050241291424
 11
20.068662394850847
 21
13.080050241291424
 72
     1
 10
20.068662394850847
 20
13.080050241291424
 11
20.068662394850847
 21
13.039870034992596
 72
     1
 10
20.068662394850847
 20
13.039870034992596
 11
19.91284154829323
 21
13.039870034992596
 72
     1
 10
19.91284154829323
 20
13.039870034992596
 11
19.91284154829323
 21
12.999689828693768
 72
     1
 10
19.91284154829323
 20
12.999689828693768
 11
20.108842601149675
 21
12.999689828693768
 72
     1
 10
20.108842601149675
 20
12.999689828693768
 11
20.108842601149675
 21
13.080050241291424
 97
        0
 92
        1
 93
       12
 72
     1
 10
19.953021754592058
 20
12.919329416096112
 11
20.108842601149675
 21
12.919329416096112
 72
     1
 10
20.108842601149675
 20
12.919329416096112
 11
20.108842601149675
 21
12.95950962239494
 72
     1
 10
20.108842601149675
 20
12.95950962239494
 11
19.91284154829323
 21
12.95950962239494
 72
     1
 10
19.91284154829323
 20
12.95950962239494
 11
19.91284154829323
 21
12.879149209797284
 72
     1
 10
19.91284154829323
 20
12.879149209797284
 11
19.872661341994402
 21
12.879149209797284
 72
     1
 10
19.872661341994402
 20
12.879149209797284
 11
19.872661341994402
 21
12.916888009846112
 72
     1
 10
19.872661341994402
 20
12.916888009846112
 11
19.832481135695573
 21
12.916888009846112
 72
     1
 10
19.832481135695573
 20
12.916888009846112
 11
19.833183039992448
 21
12.838969003498455
 72
     1
 10
19.833183039992448
 20
12.838969003498455
 11
20.108842601149675
 21
12.838969003498455
 72
     1
 10
20.108842601149675
 20
12.838969003498455
 11
20.108842601149675
 21
12.879149209797284
 72
     1
 10
20.108842601149675
 20
12.879149209797284
 11
19.953021754592058
 21
12.879149209797284
 72
     1
 10
19.953021754592058
 20
12.879149209797284
 11
19.953021754592058
 21
12.919329416096112
 97
        0
 92
        1
 93
        6
 72
     1
 10
20.175525416701433
 20
12.716913949787518
 11
20.108842601149675
 21
12.716913949787518
 72
     1
 10
20.108842601149675
 20
12.716913949787518
 11
20.108842601149675
 21
12.797274362385174
 72
     1
 10
20.108842601149675
 20
12.797274362385174
 11
19.91284154829323
 21
12.797274362385174
 72
     1
 10
19.91284154829323
 20
12.797274362385174
 11
19.91284154829323
 21
12.676729928791424
 72
     1
 10
19.91284154829323
 20
12.676729928791424
 11
20.175525416701433
 21
12.676729928791424
 72
     1
 10
20.175525416701433
 20
12.676729928791424
 11
20.175525416701433
 21
12.716913949787518
 97
        0
 92
        1
 93
        4
 72
     1
 10
20.068662394850847
 20
12.716913949787518
 11
19.953021754592058
 21
12.716913949787518
 72
     1
 10
19.953021754592058
 20
12.716913949787518
 11
19.953021754592058
 21
12.75709034138908
 72
     1
 10
19.953021754592058
 20
12.75709034138908
 11
20.068662394850847
 21
12.75709034138908
 72
     1
 10
20.068662394850847
 20
12.75709034138908
 11
20.068662394850847
 21
12.716913949787518
 97
        0
 75
     0
 76
     1
 98
        1
 10
0.0
 20
0.0
  0
HATCH
  5
305
100
AcDbEntity
  8
0
370
    15
390
0
  6
Continuous
 62
   174
100
AcDbHatch
 10
0.0
 20
0.0
 30
0.0
210
0.0
220
0.0
230
1.0
  2
SOLID
 70
     1
 71
     0
 91
        8
 92
        1
 93
        6
 72
     1
 10
20.068662394850847
 20
12.556193124592205
 11
20.108842601149675
 21
12.556193124592205
 72
     1
 10
20.108842601149675
 20
12.556193124592205
 11
20.108842601149675
 21
12.636553537189862
 72
     1
 10
20.108842601149675
 20
12.636553537189862
 11
19.91284154829323
 21
12.636553537189862
 72
     1
 10
19.91284154829323
 20
12.636553537189862
 11
19.91284154829323
 21
12.596373330891034
 72
     1
 10
19.91284154829323
 20
12.596373330891034
 11
20.068662394850847
 21
12.596373330891034
 72
     1
 10
20.068662394850847
 20
12.596373330891034
 11
20.068662394850847
 21
12.556193124592205
 97
        0
 92
        1
 93
        8
 72
     1
 10
19.953021754592058
 20
12.315111886799237
 11
20.108842601149675
 21
12.315111886799237
 72
     1
 10
20.108842601149675
 20
12.315111886799237
 11
20.108842601149675
 21
12.355292093098065
 72
     1
 10
20.108842601149675
 20
12.355292093098065
 11
19.91284154829323
 21
12.355292093098065
 72
     1
 10
19.91284154829323
 20
12.355292093098065
 11
19.91284154829323
 21
12.23475147420158
 72
     1
 10
19.91284154829323
 20
12.23475147420158
 11
20.108842601149675
 21
12.23475147420158
 72
     1
 10
20.108842601149675
 20
12.23475147420158
 11
20.108842601149675
 21
12.274931680500409
 72
     1
 10
20.108842601149675
 20
12.274931680500409
 11
19.953021754592058
 21
12.274931680500409
 72
     1
 10
19.953021754592058
 20
12.274931680500409
 11
19.953021754592058
 21
12.315111886799237
 97
        0
 92
        1
 93
        4
 72
     1
 10
19.91284154829323
 20
12.154391061603924
 11
20.175525416701433
 21
12.154391061603924
 72
     1
 10
20.175525416701433
 20
12.154391061603924
 11
20.175525416701433
 21
12.194571267902752
 72
     1
 10
20.175525416701433
 20
12.194571267902752
 11
19.91284154829323
 21
12.194571267902752
 72
     1
 10
19.91284154829323
 20
12.194571267902752
 11
19.91284154829323
 21
12.154391061603924
 97
        0
 92
        1
 93
        4
 72
     1
 10
20.135345210402605
 20
12.074030649006268
 11
20.175525416701433
 21
12.074030649006268
 72
     1
 10
20.175525416701433
 20
12.074030649006268
 11
20.175525416701433
 21
12.114210855305096
 72
     1
 10
20.175525416701433
 20
12.114210855305096
 11
20.135345210402605
 21
12.114210855305096
 72
     1
 10
20.135345210402605
 20
12.114210855305096
 11
20.135345210402605
 21
12.074030649006268
 97
        0
 92
        1
 93
        4
 72
     1
 10
19.91284154829323
 20
12.074030649006268
 11
20.108842601149675
 21
12.074030649006268
 72
     1
 10
20.108842601149675
 20
12.074030649006268
 11
20.108842601149675
 21
12.114210855305096
 72
     1
 10
20.108842601149675
 20
12.114210855305096
 11
19.91284154829323
 21
12.114210855305096
 72
     1
 10
19.91284154829323
 20
12.114210855305096
 11
19.91284154829323
 21
12.074030649006268
 97
        0
 92
        1
 93
        8
 72
     1
 10
20.068662394850847
 20
11.918108712971112
 11
20.108842601149675
 21
11.918108712971112
 72
     1
 10
20.108842601149675
 20
11.918108712971112
 11
20.108842601149675
 21
12.03385044270744
 72
     1
 10
20.108842601149675
 20
12.03385044270744
 11
19.91284154829323
 21
12.03385044270744
 72
     1
 10
19.91284154829323
 20
12.03385044270744
 11
19.91284154829323
 21
11.918108712971112
 72
     1
 10
19.91284154829323
 20
11.918108712971112
 11
19.953021754592058
 21
11.918108712971112
 72
     1
 10
19.953021754592058
 20
11.918108712971112
 11
19.953021754592058
 21
11.993670236408612
 72
     1
 10
19.953021754592058
 20
11.993670236408612
 11
20.068662394850847
 21
11.993670236408612
 72
     1
 10
20.068662394850847
 20
11.993670236408612
 11
20.068662394850847
 21
11.918108712971112
 97
        0
 92
        1
 93
        8
 72
     1
 10
19.91284154829323
 20
12.395472299396893
 11
20.108842601149675
 21
12.395472299396893
 72
     1
 10
20.108842601149675
 20
12.395472299396893
 11
20.108842601149675
 21
12.498236429035565
 72
     1
 10
20.108842601149675
 20
12.498236429035565
 11
20.068662394850847
 21
12.498236429035565
 72
     1
 10
20.068662394850847
 20
12.498236429035565
 11
20.068662394850847
 21
12.435652505695721
 72
     1
 10
20.068662394850847
 20
12.435652505695721
 11
20.033382167189714
 21
12.435652505695721
 72
     1
 10
20.033382167189714
 20
12.435652505695721
 11
20.033382167189714
 21
12.516012918293377
 72
     1
 10
20.033382167189714
 20
12.516012918293377
 11
19.91284154829323
 21
12.516012918293377
 72
     1
 10
19.91284154829323
 20
12.516012918293377
 11
19.91284154829323
 21
12.395472299396893
 97
        0
 92
        1
 93
        4
 72
     1
 10
19.953021754592058
 20
12.435652505695721
 11
19.993201960890886
 21
12.435652505695721
 72
     1
 10
19.993201960890886
 20
12.435652505695721
 11
19.993201960890886
 21
12.475832711994549
 72
     1
 10
19.993201960890886
 20
12.475832711994549
 11
19.953021754592058
 21
12.475832711994549
 72
     1
 10
19.953021754592058
 20
12.475832711994549
 11
19.953021754592058
 21
12.435652505695721
 97
        0
 75
     0
 76
     1
 98
        1
 10
0.0
 20
0.0
  0
HATCH
  5
306
100
AcDbEntity
  8
0
370
    15
390
0
  6
Continuous
 62
   174
100
AcDbHatch
 10
0.0
 20
0.0
 30
0.0
210
0.0
220
0.0
230
1.0
  2
SOLID
 70
     1
 71
     0
 91
        1
 92
        1
 93
       12
 72
     1
 10
20.068662394850847
 20
11.75064731770744
 11
20.108842601149675
 21
11.75064731770744
 72
     1
 10
20.108842601149675
 20
11.75064731770744
 11
20.108842601149675
 21
11.877928506672284
 72
     1
 10
20.108842601149675
 20
11.877928506672284
 11
19.990752925246355
 21
11.877928506672284
 72
     1
 10
19.990752925246355
 20
11.877928506672284
 11
19.990752925246355
 21
11.790827524006268
 72
     1
 10
19.990752925246355
 20
11.790827524006268
 11
19.953021754592058
 21
11.790827524006268
 72
     1
 10
19.953021754592058
 20
11.790827524006268
 11
19.953021754592058
 21
11.877928506672284
 72
     1
 10
19.953021754592058
 20
11.877928506672284
 11
19.91284154829323
 21
11.877928506672284
 72
     1
 10
19.91284154829323
 20
11.877928506672284
 11
19.91284154829323
 21
11.75064731770744
 72
     1
 10
19.91284154829323
 20
11.75064731770744
 11
20.030933131545183
 21
11.75064731770744
 72
     1
 10
20.030933131545183
 20
11.75064731770744
 11
20.030933131545183
 21
11.837748300373455
 72
     1
 10
20.030933131545183
 20
11.837748300373455
 11
20.068662394850847
 21
11.837748300373455
 72
     1
 10
20.068662394850847
 20
11.837748300373455
 11
20.068662394850847
 21
11.75064731770744
 97
        0
 75
     0
 76
     1
 98
        1
 10
0.0
 20
0.0
  0
TEXT
  5
307
100
AcDbEntity
  8
0
370
    15
390
0
  6
Continuous
 62
     7
100
AcDbText
 10
20.167745
 20
11.786532
 30
0.0
 40
0.04606
  1
R
 50
270.0
 41
1.125
  7
Vcadd_SIMP
100
AcDbText
  0
TEXT
  5
308
100
AcDbEntity
  8
0
370
    15
390
0
  6
Continuous
 62
     7
100
AcDbText
 10
19.814427
 20
12.427279
 30
0.0
 40
0.062
  1
CORPORATION
 50
270.0
  7
Vcadd_SIMP
100
AcDbText
  0
TEXT
  5
309
100
AcDbEntity
  8
0
370
    15
390
0
  6
Continuous
 62
     7
100
AcDbText
 10
19.722779
 20
13.195597
 30
0.0
 40
0.062
  1
1500 WEST UNIVERSITY PKWY
 50
270.0
  7
Vcadd_SIMP
100
AcDbText
  0
TEXT
  5
30A
100
AcDbEntity
  8
0
370
    15
390
0
  6
Continuous
 62
     7
100
AcDbText
 10
19.629779
 20
13.195597
 30
0.0
 40
0.062
  1
SARASOTA, FLORIDA 34243, USA
 50
270.0
  7
Vcadd_SIMP
100
AcDbText
  0
TEXT
  5
30B
100
AcDbEntity
  8
0
370
    15
390
0
  6
Continuous
 62
     7
100
AcDbText
 10
19.536779
 20
13.195597
 30
0.0
 40
0.062
  1
TELEPHONE (941) 355-2983
 50
270.0
  7
Vcadd_SIMP
100
AcDbText
  0
TEXT
  5
30C
100
AcDbEntity
  8
4
370
    15
390
0
  6
Continuous
 62
     7
100
AcDbText
 10
20.454264
 20
17.122848
 30
0.0
 40
0.13
  1
Abmessungen,Werkzeuge,Anschlόsse
 50
270.0
  7
Vcadd_SIMP
100
AcDbText
  0
TEXT
  5
30D
100
AcDbEntity
  8
4
370
    15
390
0
  6
Continuous
 62
     7
100
AcDbText
 10
20.647107
 20
16.510094
 30
0.0
 40
0.13
  1
T-3A Einschraubbohrung
 50
270.0
  7
Vcadd_SIMP
100
AcDbText
  0
TEXT
  5
30E
100
AcDbEntity
  8
0
370
    15
390
0
  6
Continuous
 62
     7
100
AcDbText
 10
19.977869
 20
12.192273
 30
0.0
 40
0.13
  1
T-3A Metrisch
 50
270.0
  7
Vcadd_SIMP
 72
     1
 11
20.646631
 21
12.192273
 31
0.0
100
AcDbText
  0
TEXT
  5
30F
100
AcDbEntity
  8
0
370
    15
390
0
  6
Continuous
 62
     7
100
AcDbText
 10
19.831514
 20
12.192273
 30
0.0
 40
0.13
  1
Blatt 3 von 3
 50
270.0
  7
Vcadd_SIMP
 72
     1
 11
20.477631
 21
12.192273
 31
0.0
100
AcDbText
  0
TEXT
  5
310
100
AcDbEntity
  8
4
370
    15
390
0
  6
Continuous
 62
     7
100
AcDbText
 10
28.170269
 20
15.99614
 30
0.0
 40
0.12
  1
Min. Tiefe von
  7
Vcadd_SIMP
100
AcDbText
  0
TEXT
  5
311
100
AcDbEntity
  8
4
370
    15
390
0
  6
Continuous
 62
     7
100
AcDbText
 10
28.170269
 20
15.81614
 30
0.0
 40
0.12
  1
17,48 %%c (Ventil-
  7
Vcadd_SIMP
100
AcDbText
  0
TEXT
  5
312
100
AcDbEntity
  8
4
370
    15
390
0
  6
Continuous
 62
     7
100
AcDbText
 10
28.170269
 20
15.63614
 30
0.0
 40
0.12
  1
arbeitsbereich)
  7
Vcadd_SIMP
100
AcDbText
  0
TEXT
  5
313
100
AcDbEntity
  8
4
370
    15
390
0
  6
Continuous
 62
     7
100
AcDbText
 10
24.303913
 20
14.263017
 30
0.0
 40
0.133
  1
Freiraum fόr Sechskant-Steckschlόssel
  7
Vcadd_SIMP
100
AcDbText
  0
TEXT
  5
314
100
AcDbEntity
  8
4
370
    15
390
0
  6
Continuous
 62
     7
100
AcDbText
 10
24.037968
 20
14.241197
 30
0.0
 40
0.133
  1
*
  7
Vcadd_SIMP
100
AcDbText
  0
TEXT
  5
315
100
AcDbEntity
  8
4
370
    15
390
0
  6
Continuous
 62
     7
100
AcDbText
 10
24.280598
 20
13.985142
 30
0.0
 40
0.133
  1
38,10
  7
Vcadd_SIMP
100
AcDbText
  0
TEXT
  5
316
100
AcDbEntity
  8
4
370
    15
390
0
  6
Continuous
 62
     7
100
AcDbText
 10
24.280598
 20
13.785642
 30
0.0
 40
0.133
  1
11,13
  7
Vcadd_SIMP
100
AcDbText
  0
TEXT
  5
317
100
AcDbEntity
  8
4
370
    15
390
0
  6
Continuous
 62
     7
100
AcDbText
 10
24.280598
 20
13.586142
 30
0.0
 40
0.133
  1
18,26
  7
Vcadd_SIMP
100
AcDbText
  0
TEXT
  5
318
100
AcDbEntity
  8
4
370
    15
390
0
  6
Continuous
 62
     7
100
AcDbText
 10
24.280598
 20
13.386642
 30
0.0
 40
0.133
  1
34,92
  7
Vcadd_SIMP
100
AcDbText
  0
TEXT
  5
319
100
AcDbEntity
  8
0
370
    15
390
0
  6
Continuous
 62
     7
100
AcDbText
 10
20.478104
 20
13.981058
 30
0.0
 40
0.125
  1
M
 50
270.0
  7
Vcadd_SIMP
100
AcDbText
  0
TEXT
  5
31A
100
AcDbEntity
  8
0
370
    15
390
0
  6
Continuous
 62
     7
100
AcDbText
 10
29.150231
 20
13.980764
 30
0.0
 40
0.125
  1
M
 50
270.0
  7
Vcadd_SIMP
100
AcDbText
  0
TEXT
  5
31B
100
AcDbEntity
  8
4
370
    15
390
0
  6
Continuous
 62
     7
100
AcDbText
 10
25.183688
 20
24.339996
 30
0.0
 40
0.12
  1
Formbohrer
  7
Vcadd_SIMP
100
AcDbText
  0
TEXT
  5
31C
100
AcDbEntity
  8
4
370
    15
390
0
  6
Continuous
 62
     7
100
AcDbText
 10
25.183688
 20
24.159996
 30
0.0
 40
0.12
  1
994-003-***
  7
Vcadd_SIMP
100
AcDbText
  0
TEXT
  5
31D
100
AcDbEntity
  8
4
370
    15
390
0
  6
Continuous
 62
     7
100
AcDbText
 10
25.183631
 20
23.874002
 30
0.0
 40
0.12
  1
Formreibahle
  7
Vcadd_SIMP
100
AcDbText
  0
TEXT
  5
31E
100
AcDbEntity
  8
4
370
    15
390
0
  6
Continuous
 62
     7
100
AcDbText
 10
25.183631
 20
23.694002
 30
0.0
 40
0.12
  1
995-003-***
  7
Vcadd_SIMP
100
AcDbText
  0
TEXT
  5
31F
100
AcDbEntity
  8
0
370
     0
390
0
  6
Continuous
 62
     7
100
AcDbText
 10
20.760268
 20
21.760398
 30
0.0
 40
0.065844
  1
REVISED TOOLING P/N. REVISED DIMS FOR
 50
270.0
 41
0.9
  7
Vcadd_SIMP
100
AcDbText
  0
TEXT
  5
320
100
AcDbEntity
  8
0
370
     0
390
0
  6
Continuous
 62
     7
100
AcDbText
 10
20.604266
 20
21.760398
 30
0.0
 40
0.065844
  1
CAVITY/TOOLING CONSISTENCY
 50
270.0
 41
0.9
  7
Vcadd_SIMP
100
AcDbText
  0
TEXT
  5
321
100
AcDbEntity
  8
0
370
     0
390
0
  6
Continuous
 62
     7
100
AcDbText
 10
20.448268
 20
21.760398
 30
0.0
 40
0.065844
  1
ADDED METRIC TOL. BLOCK TO SHEETS 1 & 2
 50
270.0
 41
0.9
  7
Vcadd_SIMP
100
AcDbText
  0
TEXT
  5
322
100
AcDbEntity
  8
0
370
     0
390
0
  6
Continuous
 62
     7
100
AcDbText
 10
20.566387
 20
21.923145
 30
0.0
 40
0.065844
  1
M
 50
270.0
  7
Vcadd_SIMP
 72
     1
 11
20.604247
 21
21.923145
 31
0.0
100
AcDbText
  0
TEXT
  5
323
100
AcDbEntity
  8
0
370
     0
390
0
  6
Continuous
 62
     7
100
AcDbText
 10
20.337218
 20
19.173145
 30
0.0
 40
0.065844
  1
04MAY11
 50
270.0
  7
Vcadd_SIMP
 72
     1
 11
20.60224
 21
19.173145
 31
0.0
100
AcDbText
  0
TEXT
  5
324
100
AcDbEntity
  8
0
370
     0
390
0
  6
Continuous
 62
     7
100
AcDbText
 10
20.488825
 20
18.798145
 30
0.0
 40
0.065844
  1
JRS
 50
270.0
  7
Vcadd_SIMP
 72
     1
 11
20.602406
 21
18.798145
 31
0.0
100
AcDbText
  0
TEXT
  5
325
100
AcDbEntity
  8
0
370
     0
390
0
  6
Continuous
 62
     7
100
AcDbText
 10
20.469895
 20
18.298145
 30
0.0
 40
0.065844
  1
10164
 50
270.0
 41
0.7
  7
Vcadd_SIMP
 72
     1
 11
20.602406
 21
18.298145
 31
0.0
100
AcDbText
  0
INSERT
  5
33D
100
AcDbEntity
  8
4
370
     0
390
0
  6
Continuous
 62
     7
100
AcDbBlockReference
  2
METRIC_TOL
 10
20.452357
 20
18.180259
 30
0.0
  0
TEXT
  5
33E
100
AcDbEntity
  8
4
370
    15
390
0
  6
Continuous
 62
     7
100
AcDbText
 10
21.554393
 20
22.798873
 30
0.0
 40
0.142
  1
26,70
  7
Vcadd_SIMP
100
AcDbText
  0
TEXT
  5
33F
100
AcDbEntity
  8
4
370
    15
390
0
  6
Continuous
 62
     7
100
AcDbText
 10
21.554393
 20
22.621373
 30
0.0
 40
0.142
  1
26,75
  7
Vcadd_SIMP
100
AcDbText
  0
TEXT
  5
340
100
AcDbEntity
  8
0
370
     0
390
0
  6
Continuous
 62
     7
100
AcDbText
 10
20.488495
 20
18.548145
 30
0.0
 40
0.065844
  1
RCL
 50
270.0
  7
Vcadd_SIMP
 72
     1
 11
20.602076
 21
18.548145
 31
0.0
100
AcDbText
  0
TEXT
  5
341
100
AcDbEntity
  8
4
370
    15
390
0
  6
Continuous
 62
     7
100
AcDbText
 10
20.90178
 20
16.603036
 30
0.0
 40
0.142
  1
47,93
  7
Vcadd_SIMP
100
AcDbText
  0
TEXT
  5
342
100
AcDbEntity
  8
4
370
    15
390
0
  6
Continuous
 62
     7
100
AcDbText
 10
25.160198
 20
24.86616
 30
0.0
 40
0.12
  1
Formreibahle0,79 mm tiefer
  7
Vcadd_SIMP
100
AcDbText
  0
TEXT
  5
343
100
AcDbEntity
  8
4
370
    15
390
0
  6
Continuous
 62
     7
100
AcDbText
 10
25.160198
 20
24.71616
 30
0.0
 40
0.12
  1
einfόhren als Formbohrer
  7
Vcadd_SIMP
100
AcDbText
  0
LINE
  5
344
100
AcDbEntity
  8
1
370
    30
390
0
  6
Continuous
 62
     1
100
AcDbLine
 10
26.342507
 20
20.553271
 30
0.0
 11
28.821636
 21
20.553271
 31
0.0
  0
LINE
  5
345
100
AcDbEntity
  8
1
370
    30
390
0
  6
Continuous
 62
     1
100
AcDbLine
 10
24.085904
 20
20.553271
 30
0.0
 11
21.526295
 21
20.553271
 31
0.0
  0
TEXT
  5
346
100
AcDbEntity
  8
4
370
    15
390
0
  6
Continuous
 62
     7
100
AcDbText
 10
20.899682
 20
16.842763
 30
0.0
 40
0.142
  1
47,83
  7
Vcadd_SIMP
100
AcDbText
  0
LINE
  5
347
100
AcDbEntity
  8
3
370
    15
390
0
  6
Continuous
 62
     1
100
AcDbLine
 10
21.625136
 20
16.783271
 30
0.0
 11
20.840993
 21
16.783271
 31
0.0
  0
ENDSEC
  0
SECTION
  2
OBJECTS
  0
DICTIONARY
  5
19
100
AcDbDictionary
280
     0
281
     1
  3
ACAD_GROUP
350
1A
  3
ACAD_MLINESTYLE
350
1B
  3
ACAD_LAYOUT
350
1E
  3
ACAD_PLOTSETTINGS
350
22
  3
ACAD_PLOTSTYLENAME
350
1F
  3
ACAD_WIPEOUT_VARS
350
23
  0
DICTIONARY
  5
1A
102
{ACAD_REACTORS
330
19
102
}
100
AcDbDictionary
280
     0
281
     1
  0
DICTIONARY
  5
1B
102
{ACAD_REACTORS
330
19
102
}
100
AcDbDictionary
280
     0
281
     1
  3
Standard
350
1C
  0
MLINESTYLE
  5
1C
102
{ACAD_REACTORS
330
1B
102
}
100
AcDbMlineStyle
  2
Standard
 70
     0
  3

 62
     0
 51
90.0
 52
90.0
 71
     2
 49
0.5
 62
   256
  6
ByLayer
 49
-0.5
 62
   256
  6
ByLayer
  0
ACDBDICTIONARYWDFLT
  5
1F
102
{ACAD_REACTORS
330
19
102
}
100
AcDbDictionary
281
     1
  3
Normal
350
1D
100
AcDbDictionaryWithDefault
340
1D
  0
ACDBPLACEHOLDER
  5
1D
102
{ACAD_REACTORS
330
1F
102
}
  0
LAYOUT
  5
20
102
{ACAD_REACTORS
330
1E
102
}
100
AcDbPlotSettings
  1

  2

  4

  6

 40
0.0
 41
0.0
 42
0.0
 43
0.0
 44
0.0
 45
0.0
 46
0.0
 47
0.0
 48
0.0
 49
0.0
140
0.0
141
0.0
142
1.0
143
1.0
 70
  1024
 72
     0
 73
     0
 74
     0
  7

 75
     0
147
1.0
148
0.0
149
0.0
100
AcDbLayout
  1
Model
 70
     0
 71
     0
 10
0.0
 20
0.0
 11
0.0
 21
0.0
 12
0.0
 22
0.0
 32
0.0
 14
0.0
 24
0.0
 34
0.0
 15
0.0
 25
0.0
 35
0.0
146
0.0
 13
0.0
 23
0.0
 33
0.0
 16
0.0
 26
0.0
 36
0.0
 17
0.0
 27
0.0
 37
0.0
 76
     0
330
A
331
0
345
0
346
0
  0
LAYOUT
  5
21
102
{ACAD_REACTORS
330
1E
102
}
100
AcDbPlotSettings
  1

  2

  4

  6

 40
0.0
 41
0.0
 42
0.0
 43
0.0
 44
0.0
 45
0.0
 46
0.0
 47
0.0
 48
0.0
 49
0.0
140
0.0
141
0.0
142
1.0
143
1.0
 70
     0
 72
     0
 73
     0
 74
     0
  7

 75
     0
147
1.0
148
0.0
149
0.0
100
AcDbLayout
  1
Layout1
 70
     0
 71
     0
 10
0.0
 20
0.0
 11
0.0
 21
0.0
 12
0.0
 22
0.0
 32
0.0
 14
0.0
 24
0.0
 34
0.0
 15
0.0
 25
0.0
 35
0.0
146
0.0
 13
0.0
 23
0.0
 33
0.0
 16
0.0
 26
0.0
 36
0.0
 17
0.0
 27
0.0
 37
0.0
 76
     0
330
B
331
0
345
0
346
0
  0
DICTIONARY
  5
1E
102
{ACAD_REACTORS
330
19
102
}
100
AcDbDictionary
280
     0
281
     1
  3
Layout1
350
21
  3
Model
350
20
  0
DICTIONARY
  5
22
102
{ACAD_REACTORS
330
19
102
}
100
AcDbDictionary
280
     0
281
     1
  0
WIPEOUTVARIABLES
  5
23
100
AcDbWipeoutVariables
 70
     1
  0
ENDSEC
  0
EOF
