  0
SECTION
  2
HEADER
  9
$ACADVER
  1
AC1015
  9
$ACADMAINTVER
 70
     6
  9
$DWGCODEPAGE
  3
ANSI_1252
  9
$INSBASE
 10
0.0
 20
0.0
 30
0.0
  9
$EXTMIN
 10
38.654125
 20
3.697288
 30
0.0
  9
$EXTMAX
 10
48.65929
 20
19.700993
 30
0.0
  9
$LIMMIN
 10
0.0
 20
0.0
  9
$LIMMAX
 10
0.0
 20
0.0
  9
$ORTHOMODE
 70
     0
  9
$REGENMODE
 70
     1
  9
$FILLMODE
 70
     1
  9
$QTEXTMODE
 70
     0
  9
$MIRRTEXT
 70
     1
  9
$LTSCALE
 40
1.0
  9
$ATTMODE
 70
     1
  9
$TEXTSIZE
 40
0.2
  9
$TRACEWID
 40
0.05
  9
$TEXTSTYLE
  7
Standard
  9
$CLAYER
  8
0
  9
$CELTYPE
  6
Continuous
  9
$CECOLOR
 62
   256
  9
$CELTSCALE
 40
1.0
  9
$DISPSILH
 70
     0
  9
$DIMSCALE
 40
1.0
  9
$DIMASZ
 40
0.18
  9
$DIMEXO
 40
0.0625
  9
$DIMDLI
 40
0.38
  9
$DIMRND
 40
0.0
  9
$DIMDLE
 40
0.0
  9
$DIMEXE
 40
0.18
  9
$DIMTP
 40
0.0
  9
$DIMTM
 40
0.0
  9
$DIMTXT
 40
0.18
  9
$DIMCEN
 40
0.09
  9
$DIMTSZ
 40
0.0
  9
$DIMTOL
 70
     0
  9
$DIMLIM
 70
     0
  9
$DIMTIH
 70
     1
  9
$DIMTOH
 70
     1
  9
$DIMSE1
 70
     0
  9
$DIMSE2
 70
     0
  9
$DIMTAD
 70
     0
  9
$DIMZIN
 70
     0
  9
$DIMBLK
  1

  9
$DIMASO
 70
     1
  9
$DIMSHO
 70
     1
  9
$DIMPOST
  1

  9
$DIMAPOST
  1

  9
$DIMALT
 70
     0
  9
$DIMALTD
 70
     2
  9
$DIMALTF
 40
25.4
  9
$DIMLFAC
 40
1.0
  9
$DIMTOFL
 70
     0
  9
$DIMTVP
 40
0.0
  9
$DIMTIX
 70
     0
  9
$DIMSOXD
 70
     0
  9
$DIMSAH
 70
     0
  9
$DIMBLK1
  1

  9
$DIMBLK2
  1

  9
$DIMSTYLE
  2
Standard
  9
$DIMCLRD
 70
     0
  9
$DIMCLRE
 70
     0
  9
$DIMCLRT
 70
     0
  9
$DIMTFAC
 40
1.0
  9
$DIMGAP
 40
0.09
  9
$DIMJUST
 70
     0
  9
$DIMSD1
 70
     0
  9
$DIMSD2
 70
     0
  9
$DIMTOLJ
 70
     1
  9
$DIMTZIN
 70
     0
  9
$DIMALTZ
 70
     0
  9
$DIMALTTZ
 70
     0
  9
$DIMUPT
 70
     0
  9
$DIMDEC
 70
     4
  9
$DIMTDEC
 70
     4
  9
$DIMALTU
 70
     2
  9
$DIMALTTD
 70
     2
  9
$DIMTXSTY
  7
Standard
  9
$DIMAUNIT
 70
     0
  9
$DIMADEC
 70
     0
  9
$DIMALTRND
 40
0.0
  9
$DIMAZIN
 70
     0
  9
$DIMDSEP
 70
     0
  9
$DIMATFIT
 70
     3
  9
$DIMFRAC
 70
     0
  9
$DIMLDRBLK
  1

  9
$DIMLUNIT
 70
     2
  9
$DIMLWD
 70
     0
  9
$DIMLWE
 70
     0
  9
$DIMTMOVE
 70
     0
  9
$LUNITS
 70
     2
  9
$LUPREC
 70
     4
  9
$SKETCHINC
 40
0.1
  9
$FILLETRAD
 40
0.0
  9
$AUNITS
 70
     0
  9
$AUPREC
 70
     0
  9
$MENU
  1
acad
  9
$ELEVATION
 40
0.0
  9
$PELEVATION
 40
0.0
  9
$THICKNESS
 40
0.0
  9
$LIMCHECK
 70
     0
  9
$CHAMFERA
 40
0.0
  9
$CHAMFERB
 40
0.0
  9
$CHAMFERC
 40
0.0
  9
$CHAMFERD
 40
0.0
  9
$SKPOLY
 70
     0
  9
$TDCREATE
 40
0.000000000
  9
$TDUCREATE
 40
0.000000000
  9
$TDUPDATE
 40
0.000000000
  9
$TDUUPDATE
 40
0.000000000
  9
$TDINDWG
 40
0.0000000000
  9
$TDUSRTIMER
 40
0.0000000000
  9
$USRTIMER
 70
     1
  9
$ANGBASE
 50
0.0
  9
$ANGDIR
 70
     0
  9
$PDMODE
 70
     2
  9
$PDSIZE
 40
-1.0
  9
$PLINEWID
 40
0.0
  9
$SPLFRAME
 70
     0
  9
$SPLINETYPE
 70
     6
  9
$SPLINESEGS
 70
     8
  9
$HANDSEED
  5
45F
  9
$SURFTAB1
 70
     6
  9
$SURFTAB2
 70
     6
  9
$SURFTYPE
 70
     6
  9
$SURFU
 70
     6
  9
$SURFV
 70
     6
  9
$UCSBASE
  2

  9
$UCSNAME
  2

  9
$UCSORG
 10
0.0
 20
0.0
 30
0.0
  9
$UCSXDIR
 10
1.0
 20
0.0
 30
0.0
  9
$UCSYDIR
 10
0.0
 20
1.0
 30
0.0
  9
$UCSORTHOREF
  2

  9
$UCSORTHOVIEW
 70
     0
  9
$UCSORGTOP
 10
0.0
 20
0.0
 30
0.0
  9
$UCSORGBOTTOM
 10
0.0
 20
0.0
 30
0.0
  9
$UCSORGLEFT
 10
0.0
 20
0.0
 30
0.0
  9
$UCSORGRIGHT
 10
0.0
 20
0.0
 30
0.0
  9
$UCSORGFRONT
 10
0.0
 20
0.0
 30
0.0
  9
$UCSORGBACK
 10
0.0
 20
0.0
 30
0.0
  9
$PUCSBASE
  2

  9
$PUCSNAME
  2

  9
$PUCSORG
 10
0.0
 20
0.0
 30
0.0
  9
$PUCSXDIR
 10
1.0
 20
0.0
 30
0.0
  9
$PUCSYDIR
 10
0.0
 20
1.0
 30
0.0
  9
$PUCSORTHOREF
  2

  9
$PUCSORTHOVIEW
 70
     0
  9
$PUCSORGTOP
 10
0.0
 20
0.0
 30
0.0
  9
$PUCSORGBOTTOM
 10
0.0
 20
0.0
 30
0.0
  9
$PUCSORGLEFT
 10
0.0
 20
0.0
 30
0.0
  9
$PUCSORGRIGHT
 10
0.0
 20
0.0
 30
0.0
  9
$PUCSORGFRONT
 10
0.0
 20
0.0
 30
0.0
  9
$PUCSORGBACK
 10
0.0
 20
0.0
 30
0.0
  9
$USERI1
 70
     0
  9
$USERI2
 70
     0
  9
$USERI3
 70
     0
  9
$USERI4
 70
     0
  9
$USERI5
 70
     0
  9
$USERR1
 40
0.0
  9
$USERR2
 40
0.0
  9
$USERR3
 40
0.0
  9
$USERR4
 40
0.0
  9
$USERR5
 40
0.0
  9
$WORLDVIEW
 70
     1
  9
$SHADEDGE
 70
     3
  9
$SHADEDIF
 70
    70
  9
$TILEMODE
 70
     1
  9
$MAXACTVP
 70
    16
  9
$PINSBASE
 10
0.0
 20
0.0
 30
0.0
  9
$PLIMCHECK
 70
     0
  9
$PEXTMIN
 10
1.000000E+20
 20
1.000000E+20
 30
1.000000E+20
  9
$PEXTMAX
 10
-1.000000E+20
 20
-1.000000E+20
 30
-1.000000E+20
  9
$PLIMMIN
 10
0.0
 20
0.0
  9
$PLIMMAX
 10
12.0
 20
9.0
  9
$UNITMODE
 70
     0
  9
$VISRETAIN
 70
     0
  9
$PLINEGEN
 70
     1
  9
$PSLTSCALE
 70
     0
  9
$TREEDEPTH
 70
  3020
  9
$CMLSTYLE
  2
Standard
  9
$CMLJUST
 70
     0
  9
$CMLSCALE
 40
1.0
  9
$PROXYGRAPHICS
 70
     0
  9
$MEASUREMENT
 70
     0
  9
$CELWEIGHT
370
     0
  9
$ENDCAPS
280
     0
  9
$JOINSTYLE
280
     0
  9
$LWDISPLAY
290
     1
  9
$INSUNITS
 70
     0
  9
$HYPERLINKBASE
  1

  9
$STYLESHEET
  1

  9
$XEDIT
290
     1
  9
$CEPSNTYPE
380
     0
  9
$PSTYLEMODE
290
     1
  9
$FINGERPRINTGUID
  2

  9
$VERSIONGUID
  2

  9
$EXTNAMES
290
     1
  9
$PSVPSCALE
 40
0.0
  0
ENDSEC
  0
SECTION
  2
CLASSES
  0
CLASS
  1
LWPOLYLINE
  2
AcDbPolyline
  3
AutoCAD 2000
 90
        0
280
     0
281
     1
  0
CLASS
  1
IMAGE
  2
AcDbRasterImage
  3
ISM
 90
      127
280
     0
281
     1
  0
CLASS
  1
OLE2FRAME
  2
AcDbOle2Frame
  3
AutoCAD 2000
 90
        0
280
     0
281
     1
  0
CLASS
  1
HATCH
  2
AcDbHatch
  3
AutoCAD 2000
 90
        0
280
     0
281
     1
  0
CLASS
  1
DICTIONARYVAR
  2
AcDbDictionaryVar
  3
AutoCAD 2000
 90
        0
280
     0
281
     0
  0
CLASS
  1
RASTERVARIABLES
  2
AcDbRasterVariables
  3
ISM
 90
        0
280
     0
281
     0
  0
CLASS
  1
IMAGEDEF
  2
AcDbRasterImageDef
  3
ISM
 90
        0
280
     0
281
     0
  0
CLASS
  1
IMAGEDEF_REACTOR
  2
AcDbRasterImageDefReactor
  3
ISM
 90
        1
280
     0
281
     0
  0
CLASS
  1
IDBUFFER
  2
AcDbIdBuffer
  3
AutoCAD 2000
 90
        0
280
     0
281
     0
  0
CLASS
  1
SPATIAL_FILTER
  2
AcDbSpatialFilter
  3
AutoCAD 2000
 90
        0
280
     0
281
     0
  0
CLASS
  1
XRECORD
  2
AcDbXrecord
  3
AutoCAD 2000
 90
        0
280
     0
281
     0
  0
CLASS
  1
SORTENTSTABLE
  2
AcDbSortentsTable
  3
AutoCAD 2000
 90
        0
280
     0
281
     0
  0
CLASS
  1
LAYER_INDEX
  2
AcDbLayerIndex
  3
AutoCAD 2000
 90
        0
280
     0
281
     0
  0
CLASS
  1
SPATIAL_INDEX
  2
AcDbSpatialIndex
  3
AutoCAD 2000
 90
        0
280
     0
281
     0
  0
CLASS
  1
OBJECT_PTR
  2
CAseDLPNTableRecord
  3
"ASE-LPNTableRecord"
 90
        1
280
     0
281
     0
  0
CLASS
  1
LAYOUT
  2
AcDbLayout
  3
AutoCAD 2000
 90
        0
280
     0
281
     0
  0
CLASS
  1
PLOTSETTINGS
  2
AcDbPlotSettings
  3
AutoCAD 2000
 90
        0
280
     0
281
     0
  0
CLASS
  1
ACDBDICTIONARYWDFLT
  2
AcDbDictionaryWithDefault
  3
AutoCAD 2000
 90
        0
280
     0
281
     0
  0
CLASS
  1
ACDBPLACEHOLDER
  2
AcDbPlaceHolder
  3
AutoCAD 2000
 90
        0
280
     0
281
     0
  0
CLASS
  1
VBA_PROJECT
  2
AcDbVbaProject
  3
acadvba
 90
        0
280
     0
281
     0
  0
CLASS
  1
WIPEOUT
  2
AcDbWipeout
  3
WipeOut|AutoCAD Express Tool|expresstools@autodesk.com
 90
      127
280
     0
281
     1
  0
CLASS
  1
WIPEOUTVARIABLES
  2
AcDbWipeoutVariables
  3
WipeOut|AutoCAD Express Tool|expresstools@autodesk.com
 90
        0
280
     0
281
     0
  0
CLASS
  1
RTEXT
  2
RText
  3
RText|AutoCAD Express Tool|expresstools@autodesk.com
 90
        0
280
     0
281
     1
  0
CLASS
  1
ARCALIGNEDTEXT
  2
AcDbArcAlignedText
  3
ATEXT|AutoCAD Express Tool|expresstools@autodesk.com
 90
        0
280
     0
281
     1
  0
ENDSEC
  0
SECTION
  2
TABLES
  0
TABLE
  2
VPORT
  5
7
100
AcDbSymbolTable
 70
     2
  0
VPORT
  5
15
100
AcDbSymbolTableRecord
100
AcDbViewportTableRecord
  2
*ACTIVE
 70
     0
 10
0.0
 20
0.0
 11
1.0
 21
1.0
 12
6.591288
 22
4.579184
 13
0.0
 23
0.0
 14
1.0
 24
1.0
 15
0.0
 25
0.0
 16
0.0
 26
0.0
 36
1.0
 17
0.0
 27
0.0
 37
0.0
 40
9.158369
 41
0.688564
 42
50.0
 43
0.0
 44
0.0
 50
0.0
 51
0.0
 71
     0
 72
   100
 73
     1
 74
     1
 75
     0
 76
     0
 77
     0
 78
     0
281
     0
 65
     0
110
0.0
120
0.0
130
0.0
111
1.0
121
0.0
131
0.0
112
0.0
122
1.0
132
0.0
345
0
346
0
 79
     0
146
0.0
  0
VPORT
  5
45E
100
AcDbSymbolTableRecord
100
AcDbViewportTableRecord
  2
MYVPORT
 70
     0
 10
0.0
 20
0.0
 11
1.0
 21
1.0
 12
6.21
 22
9.02
 13
0.0
 23
0.0
 14
1.0
 24
1.0
 15
0.0
 25
0.0
 16
0.0
 26
0.0
 36
1.0
 17
0.0
 27
0.0
 37
0.0
 40
18.04
 41
0.688564
 42
50.0
 43
0.0
 44
0.0
 50
0.0
 51
0.0
 71
     0
 72
   100
 73
     1
 74
     1
 75
     0
 76
     0
 77
     0
 78
     0
281
     0
 65
     0
110
0.0
120
0.0
130
0.0
111
1.0
121
0.0
131
0.0
112
0.0
122
1.0
132
0.0
345
0
346
0
 79
     0
146
0.0
  0
ENDTAB
  0
TABLE
  2
LTYPE
  5
4
100
AcDbSymbolTable
 70
     6
  0
LTYPE
  5
11
100
AcDbSymbolTableRecord
100
AcDbLinetypeTableRecord
  2
ByBlock
 70
    64
  3

 72
    65
 73
     0
 40
0.0
  0
LTYPE
  5
12
100
AcDbSymbolTableRecord
100
AcDbLinetypeTableRecord
  2
ByLayer
 70
    64
  3

 72
    65
 73
     0
 40
0.0
  0
LTYPE
  5
13
100
AcDbSymbolTableRecord
100
AcDbLinetypeTableRecord
  2
Continuous
 70
    64
  3
Solid line
 72
    65
 73
     0
 40
0.0
  0
LTYPE
  5
5F
100
AcDbSymbolTableRecord
100
AcDbLinetypeTableRecord
  2
LT22
 70
    64
  3
Visual CADD Translation
 72
    65
 73
     2
 40
0.122
 49
0.079
 74
     0
 49
-0.043
 74
     0
  0
LTYPE
  5
1A3
100
AcDbSymbolTableRecord
100
AcDbLinetypeTableRecord
  2
DIVIDE
 70
    64
  3
Visual CADD Translation
 72
    65
 73
     6
 40
1.0
 49
0.6
 74
     0
 49
-0.133
 74
     0
 49
0.0
 74
     0
 49
-0.134
 74
     0
 49
0.0
 74
     0
 49
-0.133
 74
     0
  0
LTYPE
  5
26F
100
AcDbSymbolTableRecord
100
AcDbLinetypeTableRecord
  2
LT8
 70
    64
  3
Visual CADD Translation
 72
    65
 73
     6
 40
0.51
 49
0.3
 74
     0
 49
-0.04
 74
     0
 49
0.045
 74
     0
 49
-0.04
 74
     0
 49
0.045
 74
     0
 49
-0.04
 74
     0
  0
ENDTAB
  0
TABLE
  2
LAYER
  5
2
100
AcDbSymbolTable
 70
     6
  0
LAYER
  5
14
100
AcDbSymbolTableRecord
100
AcDbLayerTableRecord
  2
0
 70
     0
 62
     7
  6
Continuous
290
     1
370
    -3
390
1D
  0
LAYER
  5
24
100
AcDbSymbolTableRecord
100
AcDbLayerTableRecord
  2
1
 70
     0
 62
     7
  6
Continuous
290
     1
370
    -3
390
1D
  0
LAYER
  5
25
100
AcDbSymbolTableRecord
100
AcDbLayerTableRecord
  2
2
 70
     0
 62
     7
  6
Continuous
290
     1
370
    -3
390
1D
  0
LAYER
  5
26
100
AcDbSymbolTableRecord
100
AcDbLayerTableRecord
  2
3
 70
     0
 62
     7
  6
Continuous
290
     1
370
    -3
390
1D
  0
LAYER
  5
27
100
AcDbSymbolTableRecord
100
AcDbLayerTableRecord
  2
4
 70
     0
 62
     7
  6
Continuous
290
     1
370
    -3
390
1D
  0
LAYER
  5
2D7
100
AcDbSymbolTableRecord
100
AcDbLayerTableRecord
  2
9
 70
     0
 62
     7
  6
Continuous
290
     1
370
    -3
390
1D
  0
ENDTAB
  0
TABLE
  2
STYLE
  5
3
100
AcDbSymbolTable
 70
     2
  0
STYLE
  5
17
100
AcDbSymbolTableRecord
100
AcDbTextStyleTableRecord
  2
Standard
 70
     0
 40
0.0
 41
1.0
 50
0.0
 71
     0
 42
0.0
  3
txt
  4

  0
STYLE
  5
2F
100
AcDbSymbolTableRecord
100
AcDbTextStyleTableRecord
  2
Vcadd_SIMP
 70
     0
 40
0.0
 41
1.0
 50
0.0
 71
     0
 42
0.0
  3
SIMP
  4

  0
ENDTAB
  0
TABLE
  2
VIEW
  5
5
100
AcDbSymbolTable
 70
     0
  0
ENDTAB
  0
TABLE
  2
UCS
  5
6
100
AcDbSymbolTable
 70
     1
  0
UCS
  5
45D
100
AcDbSymbolTableRecord
100
AcDbUCSTableRecord
  2
MYUCS
 70
     0
 10
0.0
 20
0.0
 30
0.0
 11
0.0
 21
1.0
 31
0.0
 12
0.0
 22
0.0
 32
1.0
 79
     0
146
0.0
  0
ENDTAB
  0
TABLE
  2
APPID
  5
8
100
AcDbSymbolTable
 70
     1
  0
APPID
  5
16
100
AcDbSymbolTableRecord
100
AcDbRegAppTableRecord
  2
ACAD
 70
     0
  0
ENDTAB
  0
TABLE
  2
DIMSTYLE
  5
9
100
AcDbSymbolTable
 70
     2
100
AcDbDimStyleTable
 71
     0
  0
DIMSTYLE
105
18
100
AcDbSymbolTableRecord
100
AcDbDimStyleTableRecord
  2
Standard
 70
     0
  3

  4

 40
1.0
 41
0.18
 42
0.0625
 43
0.38
 44
0.18
 45
0.0
 46
0.0
 47
0.0
 48
0.0
 71
     0
 72
     0
 73
     1
 74
     1
 75
     0
 76
     0
 77
     0
 78
     0
 79
     0
140
0.18
141
0.09
142
0.0
143
25.4
144
1.0
145
0.0
146
1.0
147
0.09
148
0.0
170
     0
171
     2
172
     0
173
     0
174
     0
175
     0
176
     0
177
     0
178
     0
179
     0
271
     4
272
     4
273
     2
274
     2
275
     0
276
     0
277
     2
278
    46
279
     0
280
     0
281
     0
282
     0
283
     1
284
     0
285
     0
286
     0
288
     0
289
     3
340
17
341
0
342
0
343
0
344
0
371
    -2
372
    -2
  0
DIMSTYLE
105
30
100
AcDbSymbolTableRecord
100
AcDbDimStyleTableRecord
  2
VCADD_DIMSTYLE
 70
     0
  3

  4

 40
1.0
 41
0.188
 42
0.0
 43
0.0
 44
0.0
 45
0.0
 46
0.0
 47
0.0
 48
0.0
 71
     0
 72
     0
 73
     1
 74
     1
 75
     0
 76
     0
 77
     0
 78
     3
 79
     1
140
0.142
141
0.0
142
0.0
143
1.0
144
1.0
145
0.0
146
1.0
147
0.5
148
0.0
170
     0
171
     3
172
     0
173
     0
174
     1
175
     0
176
     1
177
     1
178
     7
179
     3
271
     3
272
     4
273
     2
274
     2
275
     0
276
     0
277
     2
278
    46
279
     0
280
     0
281
     0
282
     0
283
     1
284
     0
285
     0
286
     0
288
     0
289
     3
340
2F
341
0
342
0
343
0
344
0
371
    -2
372
    -2
  0
ENDTAB
  0
TABLE
  2
BLOCK_RECORD
  5
1
100
AcDbSymbolTable
 70
     5
  0
BLOCK_RECORD
  5
A
100
AcDbSymbolTableRecord
100
AcDbBlockTableRecord
  2
*MODEL_SPACE
340
20
  0
BLOCK_RECORD
  5
B
100
AcDbSymbolTableRecord
100
AcDbBlockTableRecord
  2
*PAPER_SPACE
340
21
  0
BLOCK_RECORD
  5
28
100
AcDbSymbolTableRecord
100
AcDbBlockTableRecord
  2
_CLOSED
340
0
  0
BLOCK_RECORD
  5
24B
100
AcDbSymbolTableRecord
100
AcDbBlockTableRecord
  2
MAU
340
0
102
{BLKREFS
331
258
331
269
102
}
  0
BLOCK_RECORD
  5
25A
100
AcDbSymbolTableRecord
100
AcDbBlockTableRecord
  2
MAL
340
0
102
{BLKREFS
331
267
102
}
  0
BLOCK_RECORD
  5
2D5
100
AcDbSymbolTableRecord
100
AcDbBlockTableRecord
  2
ARROW
340
0
102
{BLKREFS
331
2DD
331
2DE
331
2DF
331
2E0
331
2E1
331
2E2
331
2E3
331
2E4
331
2E5
331
2E6
331
2E7
331
2E8
331
2E9
331
2EA
331
2EB
331
2EC
331
2ED
331
2EE
331
2EF
331
2F0
331
2F1
331
2F2
331
2F3
331
2F4
331
2F7
331
325
331
326
331
327
331
328
331
333
331
334
102
}
  0
BLOCK_RECORD
  5
3E7
100
AcDbSymbolTableRecord
100
AcDbBlockTableRecord
  2
REV
340
0
102
{BLKREFS
331
3EE
102
}
  0
ENDTAB
  0
ENDSEC
  0
SECTION
  2
BLOCKS
  0
BLOCK
  5
D
100
AcDbEntity
  8
0
390
0
100
AcDbBlockBegin
  2
*MODEL_SPACE
 70
     0
 10
0.0
 20
0.0
 30
0.0
  3
*MODEL_SPACE
  1

  0
ENDBLK
  5
E
100
AcDbEntity
  8
0
390
0
100
AcDbBlockEnd
  0
BLOCK
  5
F
100
AcDbEntity
 67
     1
  8
0
390
0
100
AcDbBlockBegin
  2
*PAPER_SPACE
 70
     0
 10
0.0
 20
0.0
 30
0.0
  3
*PAPER_SPACE
  1

  0
ENDBLK
  5
10
100
AcDbEntity
 67
     1
  8
0
390
0
100
AcDbBlockEnd
  0
BLOCK
  5
29
100
AcDbEntity
  8
0
390
0
100
AcDbBlockBegin
  2
_CLOSED
 70
     0
 10
0.0
 20
0.0
 30
0.0
  3
_CLOSED
  1

  0
LINE
  5
2A
100
AcDbEntity
  8
0
370
    -2
390
0
  6
ByBlock
 62
     0
100
AcDbLine
 10
-1.0
 20
0.166667
 30
0.0
 11
0.0
 21
0.0
 31
0.0
  0
LINE
  5
2B
100
AcDbEntity
  8
0
370
    -2
390
0
  6
ByBlock
 62
     0
100
AcDbLine
 10
0.0
 20
0.0
 30
0.0
 11
-1.0
 21
-0.166667
 31
0.0
  0
LINE
  5
2C
100
AcDbEntity
  8
0
370
    -2
390
0
  6
ByBlock
 62
     0
100
AcDbLine
 10
-1.0
 20
0.166667
 30
0.0
 11
-1.0
 21
-0.166667
 31
0.0
  0
LINE
  5
2D
100
AcDbEntity
  8
0
370
    -2
390
0
  6
ByBlock
 62
     0
100
AcDbLine
 10
0.0
 20
0.0
 30
0.0
 11
-1.0
 21
0.0
 31
0.0
  0
ENDBLK
  5
2E
100
AcDbEntity
  8
0
390
0
100
AcDbBlockEnd
  0
BLOCK
  5
24C
100
AcDbEntity
  8
0
390
0
100
AcDbBlockBegin
  2
MAU
 70
     0
 10
0.0
 20
0.0
 30
0.0
  3
MAU
  1

  0
LINE
  5
24D
100
AcDbEntity
  8
0
370
     0
390
0
  6
Continuous
 62
     2
100
AcDbLine
 10
0.0
 20
0.0
 30
0.0
 11
-0.024965
 21
-0.169856
 31
0.0
  0
LINE
  5
24E
100
AcDbEntity
  8
0
370
     0
390
0
  6
Continuous
 62
     2
100
AcDbLine
 10
0.0
 20
0.0
 30
0.0
 11
0.022192
 21
-0.169856
 31
0.0
  0
LINE
  5
24F
100
AcDbEntity
  8
0
370
     0
390
0
  6
Continuous
 62
     2
100
AcDbLine
 10
0.022192
 20
-0.169856
 30
0.0
 11
-0.024965
 21
-0.169856
 31
0.0
  0
LINE
  5
250
100
AcDbEntity
  8
0
370
     0
390
0
  6
Continuous
 62
     7
100
AcDbLine
 10
-0.015773
 20
-0.160825
 30
0.0
 11
0.013481
 21
-0.160825
 31
0.0
  0
LINE
  5
251
100
AcDbEntity
  8
0
370
     0
390
0
  6
Continuous
 62
     7
100
AcDbLine
 10
0.013481
 20
-0.160825
 30
0.0
 11
-0.000196
 21
-0.036413
 31
0.0
  0
LINE
  5
252
100
AcDbEntity
  8
0
370
     0
390
0
  6
Continuous
 62
     7
100
AcDbLine
 10
-0.015773
 20
-0.160825
 30
0.0
 11
-0.000196
 21
-0.036413
 31
0.0
  0
LINE
  5
253
100
AcDbEntity
  8
0
370
     0
390
0
  6
Continuous
 62
     7
100
AcDbLine
 10
-0.006656
 20
-0.149436
 30
0.0
 11
-0.000576
 21
-0.078031
 31
0.0
  0
LINE
  5
254
100
AcDbEntity
  8
0
370
     0
390
0
  6
Continuous
 62
     7
100
AcDbLine
 10
-0.006656
 20
-0.149436
 30
0.0
 11
0.005122
 21
-0.149436
 31
0.0
  0
LINE
  5
255
100
AcDbEntity
  8
0
370
     0
390
0
  6
Continuous
 62
     7
100
AcDbLine
 10
0.005122
 20
-0.149436
 30
0.0
 11
-0.000576
 21
-0.078031
 31
0.0
  0
LINE
  5
256
100
AcDbEntity
  8
0
370
     0
390
0
  6
Continuous
 62
     7
100
AcDbLine
 10
-0.000957
 20
-0.142427
 30
0.0
 11
-0.000957
 21
-0.119647
 31
0.0
  0
ENDBLK
  5
257
100
AcDbEntity
  8
0
390
0
100
AcDbBlockEnd
  0
BLOCK
  5
25B
100
AcDbEntity
  8
0
390
0
100
AcDbBlockBegin
  2
MAL
 70
     0
 10
0.0
 20
0.0
 30
0.0
  3
MAL
  1

  0
LINE
  5
25C
100
AcDbEntity
  8
0
370
     0
390
0
  6
Continuous
 62
     2
100
AcDbLine
 10
0.0
 20
0.0
 30
0.0
 11
0.169856
 21
0.024965
 31
0.0
  0
LINE
  5
25D
100
AcDbEntity
  8
0
370
     0
390
0
  6
Continuous
 62
     2
100
AcDbLine
 10
0.0
 20
0.0
 30
0.0
 11
0.169856
 21
-0.022192
 31
0.0
  0
LINE
  5
25E
100
AcDbEntity
  8
0
370
     0
390
0
  6
Continuous
 62
     2
100
AcDbLine
 10
0.169856
 20
-0.022192
 30
0.0
 11
0.169856
 21
0.024965
 31
0.0
  0
LINE
  5
25F
100
AcDbEntity
  8
0
370
     0
390
0
  6
Continuous
 62
     7
100
AcDbLine
 10
0.160825
 20
0.015773
 30
0.0
 11
0.160825
 21
-0.013481
 31
0.0
  0
LINE
  5
260
100
AcDbEntity
  8
0
370
     0
390
0
  6
Continuous
 62
     7
100
AcDbLine
 10
0.160825
 20
-0.013481
 30
0.0
 11
0.036413
 21
0.000196
 31
0.0
  0
LINE
  5
261
100
AcDbEntity
  8
0
370
     0
390
0
  6
Continuous
 62
     7
100
AcDbLine
 10
0.160825
 20
0.015773
 30
0.0
 11
0.036413
 21
0.000196
 31
0.0
  0
LINE
  5
262
100
AcDbEntity
  8
0
370
     0
390
0
  6
Continuous
 62
     7
100
AcDbLine
 10
0.149436
 20
0.006656
 30
0.0
 11
0.078031
 21
0.000576
 31
0.0
  0
LINE
  5
263
100
AcDbEntity
  8
0
370
     0
390
0
  6
Continuous
 62
     7
100
AcDbLine
 10
0.149436
 20
0.006656
 30
0.0
 11
0.149436
 21
-0.005122
 31
0.0
  0
LINE
  5
264
100
AcDbEntity
  8
0
370
     0
390
0
  6
Continuous
 62
     7
100
AcDbLine
 10
0.149436
 20
-0.005122
 30
0.0
 11
0.078031
 21
0.000576
 31
0.0
  0
LINE
  5
265
100
AcDbEntity
  8
0
370
     0
390
0
  6
Continuous
 62
     7
100
AcDbLine
 10
0.142427
 20
0.000957
 30
0.0
 11
0.119647
 21
0.000957
 31
0.0
  0
ENDBLK
  5
266
100
AcDbEntity
  8
0
390
0
100
AcDbBlockEnd
  0
BLOCK
  5
2D6
100
AcDbEntity
  8
0
390
0
100
AcDbBlockBegin
  2
ARROW
 70
     0
 10
0.0
 20
0.0
 30
0.0
  3
ARROW
  1

  0
LINE
  5
2D8
100
AcDbEntity
  8
9
370
     0
390
0
  6
Continuous
 62
     5
100
AcDbLine
 10
0.0
 20
0.0
 30
0.0
 11
-0.160849
 21
0.031523
 31
0.0
  0
LINE
  5
2D9
100
AcDbEntity
  8
9
370
     0
390
0
  6
Continuous
 62
     5
100
AcDbLine
 10
-0.160849
 20
0.031523
 30
0.0
 11
-0.160849
 21
-0.035463
 31
0.0
  0
LINE
  5
2DA
100
AcDbEntity
  8
9
370
     0
390
0
  6
Continuous
 62
     5
100
AcDbLine
 10
0.0
 20
0.0
 30
0.0
 11
-0.160849
 21
-0.035463
 31
0.0
  0
HATCH
  5
2DB
100
AcDbEntity
  8
9
370
     0
390
0
  6
Continuous
 62
     5
100
AcDbHatch
 10
0.0
 20
0.0
 30
0.0
210
0.0
220
0.0
230
1.0
  2
SOLID
 70
     1
 71
     0
 91
        1
 92
        1
 93
        3
 72
     1
 10
0.0
 20
0.0
 11
-0.1608486175537109
 21
0.0315227508544922
 72
     1
 10
-0.1608486175537109
 20
0.0315227508544922
 11
-0.1608486175537109
 21
-0.0354633331298828
 72
     1
 10
-0.1608486175537109
 20
-0.0354633331298828
 11
0.0
 21
0.0
 97
        0
 75
     0
 76
     1
 98
        1
 10
0.0
 20
0.0
  0
ENDBLK
  5
2DC
100
AcDbEntity
  8
0
390
0
100
AcDbBlockEnd
  0
BLOCK
  5
3E8
100
AcDbEntity
  8
0
390
0
100
AcDbBlockBegin
  2
REV
 70
     0
 10
0.0
 20
0.0
 30
0.0
  3
REV
  1

  0
TEXT
  5
3E9
100
AcDbEntity
  8
4
370
     0
390
0
  6
Continuous
 62
     7
100
AcDbText
 10
0.024755
 20
0.020219
 30
0.0
 40
0.035
  1
---
  7
Vcadd_SIMP
100
AcDbText
  0
TEXT
  5
3EA
100
AcDbEntity
  8
4
370
     0
390
0
  6
Continuous
 62
     7
100
AcDbText
 10
0.143589
 20
0.026049
 30
0.0
 40
0.035
  1
ADDED PAGE 3 OF 3
 41
0.9
  7
Vcadd_SIMP
100
AcDbText
  0
TEXT
  5
3EB
100
AcDbEntity
  8
4
370
     0
390
0
  6
Continuous
 62
     7
100
AcDbText
 10
1.578146
 20
0.020219
 30
0.0
 40
0.035
  1
RJB
  7
Vcadd_SIMP
100
AcDbText
  0
TEXT
  5
3EC
100
AcDbEntity
  8
4
370
     0
390
0
  6
Continuous
 62
     7
100
AcDbText
 10
1.31724
 20
0.020219
 30
0.0
 40
0.035
  1
30DEC02
  7
Vcadd_SIMP
100
AcDbText
  0
ENDBLK
  5
3ED
100
AcDbEntity
  8
0
390
0
100
AcDbBlockEnd
  0
ENDSEC
  0
SECTION
  2
ENTITIES
  0
VIEWPORT
  5
31
100
AcDbEntity
 67
     1
  8
0
390
0
  6
Continuous
 62
     0
100
AcDbViewport
 10
4.5
 20
3.259162
 30
0.0
 40
12.857143
 41
9.311892
 68
     1
 69
     1
 12
762.9316
 22
546.5183
 13
1169.457242
 23
377.488
 14
0.5
 24
0.5
 15
12.0
 25
12.0
 16
0.0
 26
0.0
 36
1.0
 17
0.0
 27
0.0
 37
0.0
 42
50.0
 43
-55.0
 44
-55.0
 45
1084.5
 50
0.0
 51
0.0
 72
   500
 90
        0
340
0
  1

281
     0
 71
     1
 74
     0
110
0.0
120
0.0
130
0.0
111
1.0
121
0.0
131
0.0
112
0.0
122
1.0
132
0.0
345
0
346
0
 79
     0
146
0.0
  0
TEXT
  5
32
100
AcDbEntity
  8
0
370
    15
390
0
  6
Continuous
 62
     7
100
AcDbText
 10
38.975122
 20
8.482389
 30
0.0
 40
0.062
  1
  
 50
270.0
  7
Vcadd_SIMP
100
AcDbText
  0
TEXT
  5
33
100
AcDbEntity
  8
0
370
    15
390
0
  6
Continuous
 62
     7
100
AcDbText
 10
38.685904
 20
8.476358
 30
0.0
 40
0.062
  1
  
 50
270.0
  7
Vcadd_SIMP
100
AcDbText
  0
LINE
  5
34
100
AcDbEntity
  8
0
370
    15
390
0
  6
Continuous
 62
     2
100
AcDbLine
 10
40.029125
 20
3.697288
 30
0.0
 11
40.029125
 21
14.322289
 31
0.0
  0
LINE
  5
35
100
AcDbEntity
  8
0
370
    15
390
0
  6
Continuous
 62
     2
100
AcDbLine
 10
40.029125
 20
14.322289
 30
0.0
 11
38.654125
 21
14.322289
 31
0.0
  0
LINE
  5
36
100
AcDbEntity
  8
0
370
    15
390
0
  6
Continuous
 62
     7
100
AcDbLine
 10
40.029125
 20
3.697288
 30
0.0
 11
40.029125
 21
3.697288
 31
0.0
  0
LINE
  5
37
100
AcDbEntity
  8
0
370
    15
390
0
  6
Continuous
 62
     7
100
AcDbLine
 10
40.029125
 20
6.447288
 30
0.0
 11
38.654125
 21
6.447288
 31
0.0
  0
LINE
  5
38
100
AcDbEntity
  8
0
370
    15
390
0
  6
Continuous
 62
     7
100
AcDbLine
 10
40.029125
 20
9.447288
 30
0.0
 11
38.654125
 21
9.447288
 31
0.0
  0
LINE
  5
39
100
AcDbEntity
  8
0
370
    15
390
0
  6
Continuous
 62
     7
100
AcDbLine
 10
40.029125
 20
10.447288
 30
0.0
 11
38.654125
 21
10.447288
 31
0.0
  0
LINE
  5
3A
100
AcDbEntity
  8
0
370
    15
390
0
  6
Continuous
 62
     7
100
AcDbLine
 10
40.029125
 20
10.697288
 30
0.0
 11
38.654125
 21
10.697288
 31
0.0
  0
LINE
  5
3B
100
AcDbEntity
  8
0
370
    15
390
0
  6
Continuous
 62
     7
100
AcDbLine
 10
40.029125
 20
10.947288
 30
0.0
 11
38.654125
 21
10.947288
 31
0.0
  0
LINE
  5
3C
100
AcDbEntity
  8
0
370
    15
390
0
  6
Continuous
 62
     7
100
AcDbLine
 10
40.029125
 20
11.197288
 30
0.0
 11
38.654125
 21
11.197288
 31
0.0
  0
LINE
  5
3D
100
AcDbEntity
  8
0
370
    15
390
0
  6
Continuous
 62
     7
100
AcDbLine
 10
40.029125
 20
11.697288
 30
0.0
 11
38.654125
 21
11.697288
 31
0.0
  0
LINE
  5
3E
100
AcDbEntity
  8
0
370
    15
390
0
  6
Continuous
 62
     7
100
AcDbLine
 10
40.029125
 20
14.072288
 30
0.0
 11
38.654125
 21
14.072288
 31
0.0
  0
LINE
  5
3F
100
AcDbEntity
  8
0
370
    15
390
0
  6
Continuous
 62
     7
100
AcDbLine
 10
38.810127
 20
14.322289
 30
0.0
 11
38.810127
 21
10.447288
 31
0.0
  0
LINE
  5
40
100
AcDbEntity
  8
0
370
    15
390
0
  6
Continuous
 62
     7
100
AcDbLine
 10
38.935127
 20
9.447288
 30
0.0
 11
38.935127
 21
7.822288
 31
0.0
  0
LINE
  5
41
100
AcDbEntity
  8
0
370
    15
390
0
  6
Continuous
 62
     7
100
AcDbLine
 10
39.216126
 20
9.447288
 30
0.0
 11
39.216126
 21
7.822288
 31
0.0
  0
LINE
  5
42
100
AcDbEntity
  8
0
370
    15
390
0
  6
Continuous
 62
     7
100
AcDbLine
 10
39.216126
 20
7.822288
 30
0.0
 11
39.216126
 21
6.447288
 31
0.0
  0
LINE
  5
43
100
AcDbEntity
  8
0
370
    15
390
0
  6
Continuous
 62
     7
100
AcDbLine
 10
39.591126
 20
9.447288
 30
0.0
 11
39.591126
 21
6.447288
 31
0.0
  0
LINE
  5
44
100
AcDbEntity
  8
0
370
    15
390
0
  6
Continuous
 62
     7
100
AcDbLine
 10
39.216126
 20
7.822288
 30
0.0
 11
38.654125
 21
7.822288
 31
0.0
  0
LINE
  5
45
100
AcDbEntity
  8
0
370
    15
390
0
  6
Continuous
 62
     7
100
AcDbLine
 10
39.216126
 20
7.822288
 30
0.0
 11
39.591126
 21
7.822288
 31
0.0
  0
LINE
  5
46
100
AcDbEntity
  8
0
370
    15
390
0
  6
Continuous
 62
     7
100
AcDbLine
 10
39.591126
 20
9.072288
 30
0.0
 11
39.216126
 21
9.072288
 31
0.0
  0
LINE
  5
47
100
AcDbEntity
  8
0
370
    15
390
0
  6
Continuous
 62
     7
100
AcDbLine
 10
38.654125
 20
8.905288
 30
0.0
 11
38.935127
 21
8.905288
 31
0.0
  0
LINE
  5
48
100
AcDbEntity
  8
0
370
    15
390
0
  6
Continuous
 62
     7
100
AcDbLine
 10
38.654125
 20
8.363289
 30
0.0
 11
38.935127
 21
8.363289
 31
0.0
  0
LINE
  5
49
100
AcDbEntity
  8
0
370
    15
390
0
  6
Continuous
 62
     7
100
AcDbLine
 10
38.935127
 20
8.363289
 30
0.0
 11
39.216126
 21
8.363289
 31
0.0
  0
LINE
  5
4A
100
AcDbEntity
  8
0
370
    15
390
0
  6
Continuous
 62
     7
100
AcDbLine
 10
38.935127
 20
8.905288
 30
0.0
 11
39.216126
 21
8.905288
 31
0.0
  0
LINE
  5
4B
100
AcDbEntity
  8
0
370
    15
390
0
  6
Continuous
 62
     7
100
AcDbLine
 10
39.591126
 20
6.447288
 30
0.0
 11
39.591126
 21
3.697288
 31
0.0
  0
LINE
  5
4C
100
AcDbEntity
  8
0
370
    15
390
0
  6
Continuous
 62
     7
100
AcDbLine
 10
40.029125
 20
5.885288
 30
0.0
 11
39.591126
 21
5.885288
 31
0.0
  0
LINE
  5
4D
100
AcDbEntity
  8
0
370
    15
390
0
  6
Continuous
 62
     7
100
AcDbLine
 10
48.28429
 20
6.447288
 30
0.0
 11
48.28429
 21
3.697288
 31
0.0
  0
LINE
  5
4E
100
AcDbEntity
  8
0
370
    15
390
0
  6
Continuous
 62
     7
100
AcDbLine
 10
48.28429
 20
5.885288
 30
0.0
 11
48.656479
 21
5.885288
 31
0.0
  0
LINE
  5
4F
100
AcDbEntity
  8
0
370
    15
390
0
  6
Continuous
 62
     7
100
AcDbLine
 10
48.28429
 20
6.447288
 30
0.0
 11
48.65929
 21
6.447288
 31
0.0
  0
LINE
  5
50
100
AcDbEntity
  8
0
370
    15
390
0
  6
Continuous
 62
     7
100
AcDbLine
 10
38.951798
 20
7.313488
 30
0.0
 11
38.828068
 21
7.025985
 31
0.0
  0
ARC
  5
51
100
AcDbEntity
  8
0
370
    15
390
0
  6
Continuous
 62
     7
100
AcDbCircle
 10
39.128288
 20
6.896782
 30
0.0
 40
0.32684
100
AcDbArc
 50
156.690208
 51
236.832606
  0
ARC
  5
52
100
AcDbEntity
  8
0
370
    15
390
0
  6
Continuous
 62
     7
100
AcDbCircle
 10
38.642892
 20
7.416089
 30
0.0
 40
0.325496
100
AcDbArc
 50
341.621883
 51
418.314185
  0
LINE
  5
53
100
AcDbEntity
  8
0
370
    15
390
0
  6
Continuous
 62
     7
100
AcDbLine
 10
38.949051
 20
7.185985
 30
0.0
 11
38.854359
 21
7.235363
 31
0.0
  0
LINE
  5
54
100
AcDbEntity
  8
0
370
    15
390
0
  6
Continuous
 62
     7
100
AcDbLine
 10
38.921642
 20
7.127121
 30
0.0
 11
38.830532
 21
7.178484
 31
0.0
  0
LINE
  5
55
100
AcDbEntity
  8
0
370
    15
390
0
  6
Continuous
 62
     6
100
AcDbLine
 10
38.654125
 20
19.700993
 30
0.0
 11
38.654125
 21
3.697288
 31
0.0
  0
LINE
  5
56
100
AcDbEntity
  8
0
370
    15
390
0
  6
Continuous
 62
     6
100
AcDbLine
 10
38.654125
 20
3.697288
 30
0.0
 11
48.65929
 21
3.697288
 31
0.0
  0
LINE
  5
57
100
AcDbEntity
  8
0
370
    15
390
0
  6
Continuous
 62
     6
100
AcDbLine
 10
48.65929
 20
3.697288
 30
0.0
 11
48.65929
 21
19.700993
 31
0.0
  0
LINE
  5
58
100
AcDbEntity
  8
0
370
    15
390
0
  6
Continuous
 62
     6
100
AcDbLine
 10
48.65929
 20
19.700993
 30
0.0
 11
38.654125
 21
19.700993
 31
0.0
  0
LINE
  5
59
100
AcDbEntity
  8
0
370
    15
390
0
  6
Continuous
 62
     7
100
AcDbLine
 10
38.966126
 20
14.072288
 30
0.0
 11
38.966126
 21
11.697288
 31
0.0
  0
LINE
  5
5A
100
AcDbEntity
  8
0
370
    15
390
0
  6
Continuous
 62
     7
100
AcDbLine
 10
39.122128
 20
10.447288
 30
0.0
 11
39.122128
 21
14.322289
 31
0.0
  0
LINE
  5
5B
100
AcDbEntity
  8
0
370
    15
390
0
  6
Continuous
 62
     7
100
AcDbLine
 10
39.434128
 20
11.697288
 30
0.0
 11
39.434128
 21
14.072288
 31
0.0
  0
LINE
  5
5C
100
AcDbEntity
  8
1
370
    15
390
0
  6
Continuous
 62
     1
100
AcDbLine
 10
45.125614
 20
14.544152
 30
0.0
 11
45.176113
 21
14.594655
 31
0.0
  0
LINE
  5
5D
100
AcDbEntity
  8
1
370
    15
390
0
  6
Continuous
 62
     1
100
AcDbLine
 10
45.249111
 20
14.813653
 30
0.0
 11
45.216114
 21
14.813653
 31
0.0
  0
LINE
  5
5E
100
AcDbEntity
  8
1
370
    15
390
0
  6
Continuous
 62
     1
100
AcDbLine
 10
45.176113
 20
14.594655
 30
0.0
 11
45.176113
 21
14.773652
 31
0.0
  0
LINE
  5
60
100
AcDbEntity
  8
1
370
    15
390
0
  6
LT22
 62
     1
100
AcDbLine
 10
45.163113
 20
14.581654
 30
0.0
 11
45.163113
 21
13.938652
 31
0.0
  0
LINE
  5
61
100
AcDbEntity
  8
1
370
    15
390
0
  6
Continuous
 62
     7
100
AcDbLine
 10
44.218113
 20
13.858978
 30
0.0
 11
44.218113
 21
13.688925
 31
0.0
  0
LINE
  5
62
100
AcDbEntity
  8
1
370
    15
390
0
  6
Continuous
 62
     7
100
AcDbLine
 10
44.218113
 20
13.305143
 30
0.0
 11
44.218113
 21
13.478851
 31
0.0
  0
ARC
  5
63
100
AcDbEntity
  8
1
370
    15
390
0
  6
Continuous
 62
     1
100
AcDbCircle
 10
45.21611
 20
14.773655
 30
0.0
 40
0.039997
100
AcDbArc
 50
89.994808
 51
179.999727
  0
LINE
  5
64
100
AcDbEntity
  8
1
370
    15
390
0
  6
Continuous
 62
     1
100
AcDbLine
 10
45.125614
 20
12.797653
 30
0.0
 11
45.125614
 21
14.544152
 31
0.0
  0
LINE
  5
65
100
AcDbEntity
  8
1
370
    15
390
0
  6
Continuous
 62
     7
100
AcDbLine
 10
44.218113
 20
10.948658
 30
0.0
 11
44.218113
 21
13.213718
 31
0.0
  0
LINE
  5
66
100
AcDbEntity
  8
1
370
    15
390
0
  6
Continuous
 62
     7
100
AcDbLine
 10
44.218113
 20
10.665045
 30
0.0
 11
44.218113
 21
10.875467
 31
0.0
  0
LINE
  5
67
100
AcDbEntity
  8
2
370
    15
390
0
  6
Continuous
 62
     7
100
AcDbLine
 10
45.085743
 20
14.60294
 30
0.0
 11
45.171749
 21
14.60294
 31
0.0
  0
LINE
  5
68
100
AcDbEntity
  8
2
370
    15
390
0
  6
Continuous
 62
     7
100
AcDbLine
 10
45.085743
 20
14.60294
 30
0.0
 11
45.085743
 21
14.645943
 31
0.0
  0
ARC
  5
69
100
AcDbEntity
  8
2
370
    15
390
0
  6
Continuous
 62
     7
100
AcDbCircle
 10
45.095746
 20
14.645939
 30
0.0
 40
0.010003
100
AcDbArc
 50
90.0
 51
179.975605
  0
ARC
  5
6A
100
AcDbEntity
  8
2
370
    15
390
0
  6
Continuous
 62
     7
100
AcDbCircle
 10
45.161747
 20
14.645939
 30
0.0
 40
0.010003
100
AcDbArc
 50
0.024395
 51
90.0
  0
LINE
  5
6B
100
AcDbEntity
  8
2
370
    15
390
0
  6
Continuous
 62
     7
100
AcDbLine
 10
45.171749
 20
14.60294
 30
0.0
 11
45.171749
 21
14.645943
 31
0.0
  0
ARC
  5
6C
100
AcDbEntity
  8
2
370
    15
390
0
  6
Continuous
 62
     7
100
AcDbCircle
 10
45.128746
 20
14.777002
 30
0.0
 40
0.125478
100
AcDbArc
 50
254.751717
 51
285.248283
  0
LINE
  5
6D
100
AcDbEntity
  8
2
370
    15
390
0
  6
Continuous
 62
     7
100
AcDbLine
 10
45.085743
 20
14.60294
 30
0.0
 11
45.171749
 21
14.60294
 31
0.0
  0
LINE
  5
6E
100
AcDbEntity
  8
2
370
    15
390
0
  6
Continuous
 62
     7
100
AcDbLine
 10
45.085743
 20
14.60294
 30
0.0
 11
45.085743
 21
14.645943
 31
0.0
  0
ARC
  5
6F
100
AcDbEntity
  8
2
370
    15
390
0
  6
Continuous
 62
     7
100
AcDbCircle
 10
45.095746
 20
14.645939
 30
0.0
 40
0.010003
100
AcDbArc
 50
90.0
 51
179.975605
  0
ARC
  5
70
100
AcDbEntity
  8
2
370
    15
390
0
  6
Continuous
 62
     7
100
AcDbCircle
 10
45.161747
 20
14.645939
 30
0.0
 40
0.010003
100
AcDbArc
 50
0.024395
 51
90.0
  0
LINE
  5
71
100
AcDbEntity
  8
2
370
    15
390
0
  6
Continuous
 62
     7
100
AcDbLine
 10
45.171749
 20
14.60294
 30
0.0
 11
45.171749
 21
14.645943
 31
0.0
  0
ARC
  5
72
100
AcDbEntity
  8
2
370
    15
390
0
  6
Continuous
 62
     7
100
AcDbCircle
 10
45.128746
 20
14.777002
 30
0.0
 40
0.125478
100
AcDbArc
 50
254.751717
 51
285.248283
  0
LINE
  5
73
100
AcDbEntity
  8
2
370
    15
390
0
  6
Continuous
 62
     7
100
AcDbLine
 10
45.059177
 20
14.002651
 30
0.0
 11
45.159184
 21
14.102653
 31
0.0
  0
LINE
  5
74
100
AcDbEntity
  8
2
370
    15
390
0
  6
Continuous
 62
     7
100
AcDbLine
 10
45.159184
 20
14.102653
 30
0.0
 11
45.159184
 21
14.570653
 31
0.0
  0
LINE
  5
75
100
AcDbEntity
  8
2
370
    15
390
0
  6
Continuous
 62
     7
100
AcDbLine
 10
45.159184
 20
14.570653
 30
0.0
 11
45.107182
 21
14.598653
 31
0.0
  0
LINE
  5
76
100
AcDbEntity
  8
2
370
    15
390
0
  6
Continuous
 62
     7
100
AcDbLine
 10
45.107182
 20
14.598653
 30
0.0
 11
45.083683
 21
14.598653
 31
0.0
  0
LINE
  5
77
100
AcDbEntity
  8
2
370
    15
390
0
  6
Continuous
 62
     7
100
AcDbLine
 10
45.085682
 20
14.766656
 30
0.0
 11
45.173183
 21
14.766656
 31
0.0
  0
LINE
  5
78
100
AcDbEntity
  8
2
370
    15
390
0
  6
Continuous
 62
     7
100
AcDbLine
 10
45.173183
 20
14.766656
 30
0.0
 11
45.173183
 21
14.813653
 31
0.0
  0
LINE
  5
79
100
AcDbEntity
  8
2
370
    15
390
0
  6
Continuous
 62
     7
100
AcDbLine
 10
45.173183
 20
14.813653
 30
0.0
 11
45.24918
 21
14.813653
 31
0.0
  0
LINE
  5
7A
100
AcDbEntity
  8
2
370
    15
390
0
  6
Continuous
 62
     7
100
AcDbLine
 10
45.24918
 20
14.813653
 30
0.0
 11
45.24918
 21
14.813653
 31
0.0
  0
LINE
  5
7B
100
AcDbEntity
  8
2
370
    15
390
0
  6
Continuous
 62
     7
100
AcDbLine
 10
45.083683
 20
14.599023
 30
0.0
 11
45.083683
 21
14.598653
 31
0.0
  0
LINE
  5
7C
100
AcDbEntity
  8
2
370
    15
390
0
  6
Continuous
 62
     7
100
AcDbLine
 10
45.085682
 20
14.766656
 30
0.0
 11
45.083683
 21
14.766656
 31
0.0
  0
LINE
  5
7D
100
AcDbEntity
  8
2
370
    15
390
0
  6
Continuous
 62
     7
100
AcDbLine
 10
45.083683
 20
14.766656
 30
0.0
 11
45.083683
 21
14.598759
 31
0.0
  0
LINE
  5
7E
100
AcDbEntity
  8
2
370
    15
390
0
  6
Continuous
 62
     7
100
AcDbLine
 10
45.24918
 20
14.813653
 30
0.0
 11
45.24918
 21
15.003655
 31
0.0
  0
LINE
  5
7F
100
AcDbEntity
  8
2
370
    15
390
0
  6
Continuous
 62
     7
100
AcDbLine
 10
45.24918
 20
15.003655
 30
0.0
 11
45.14468
 21
15.063653
 31
0.0
  0
LINE
  5
80
100
AcDbEntity
  8
2
370
    15
390
0
  6
LT22
 62
     7
100
AcDbLine
 10
45.107182
 20
14.050655
 30
0.0
 11
45.107182
 21
14.598653
 31
0.0
  0
LINE
  5
81
100
AcDbEntity
  8
2
370
    15
390
0
  6
Continuous
 62
     7
100
AcDbLine
 10
45.059177
 20
14.002651
 30
0.0
 11
45.059177
 21
13.764654
 31
0.0
  0
LINE
  5
82
100
AcDbEntity
  8
2
370
    15
390
0
  6
Continuous
 62
     7
100
AcDbLine
 10
45.059177
 20
13.764654
 30
0.0
 11
45.047176
 21
13.752653
 31
0.0
  0
LINE
  5
83
100
AcDbEntity
  8
2
370
    15
390
0
  6
Continuous
 62
     7
100
AcDbLine
 10
44.721798
 20
8.336477
 30
0.0
 11
44.731792
 21
8.346475
 31
0.0
  0
ARC
  5
84
100
AcDbEntity
  8
2
370
    15
390
0
  6
Continuous
 62
     7
100
AcDbCircle
 10
45.151392
 20
13.440626
 30
0.0
 40
0.26618
100
AcDbArc
 50
144.345534
 51
215.654466
  0
LINE
  5
85
100
AcDbEntity
  8
2
370
    15
390
0
  6
Continuous
 62
     7
100
AcDbLine
 10
44.935612
 20
13.595781
 30
0.0
 11
44.935612
 21
13.595781
 31
0.0
  0
LINE
  5
86
100
AcDbEntity
  8
2
370
    15
390
0
  6
Continuous
 62
     7
100
AcDbLine
 10
44.935612
 20
13.595781
 30
0.0
 11
44.935612
 21
13.595781
 31
0.0
  0
LINE
  5
87
100
AcDbEntity
  8
2
370
    15
390
0
  6
Continuous
 62
     7
100
AcDbLine
 10
44.935612
 20
13.595781
 30
0.0
 11
44.935612
 21
13.595781
 31
0.0
  0
ARC
  5
88
100
AcDbEntity
  8
2
370
    15
390
0
  6
Continuous
 62
     7
100
AcDbCircle
 10
45.151402
 20
11.782388
 30
0.0
 40
0.266186
100
AcDbArc
 50
144.345944
 51
215.654056
  0
ARC
  5
89
100
AcDbEntity
  8
2
370
    15
390
0
  6
Continuous
 62
     7
100
AcDbCircle
 10
45.151378
 20
10.122697
 30
0.0
 40
0.266166
100
AcDbArc
 50
144.343186
 51
215.656814
  0
LINE
  5
8A
100
AcDbEntity
  8
2
370
    15
390
0
  6
Continuous
 62
     7
100
AcDbLine
 10
45.100113
 20
12.76404
 30
0.0
 11
45.100113
 21
12.67004
 31
0.0
  0
LINE
  5
8B
100
AcDbEntity
  8
2
370
    15
390
0
  6
Continuous
 62
     7
100
AcDbLine
 10
45.100113
 20
12.43004
 30
0.0
 11
45.100113
 21
12.33604
 31
0.0
  0
LINE
  5
8C
100
AcDbEntity
  8
2
370
    15
390
0
  6
Continuous
 62
     7
100
AcDbLine
 10
45.100113
 20
12.33604
 30
0.0
 11
45.100113
 21
12.33604
 31
0.0
  0
LINE
  5
8D
100
AcDbEntity
  8
2
370
    15
390
0
  6
Continuous
 62
     7
100
AcDbLine
 10
45.052113
 20
9.761041
 30
0.0
 11
45.052113
 21
9.667042
 31
0.0
  0
LINE
  5
8E
100
AcDbEntity
  8
2
370
    15
390
0
  6
Continuous
 62
     7
100
AcDbLine
 10
45.052113
 20
9.43004
 30
0.0
 11
45.052113
 21
9.33604
 31
0.0
  0
LINE
  5
8F
100
AcDbEntity
  8
2
370
    15
390
0
  6
Continuous
 62
     7
100
AcDbLine
 10
45.052113
 20
9.43004
 30
0.0
 11
45.052113
 21
9.43004
 31
0.0
  0
LINE
  5
90
100
AcDbEntity
  8
2
370
    15
390
0
  6
Continuous
 62
     7
100
AcDbLine
 10
45.052113
 20
9.43004
 30
0.0
 11
45.052113
 21
9.43004
 31
0.0
  0
LINE
  5
91
100
AcDbEntity
  8
2
370
    15
390
0
  6
Continuous
 62
     7
100
AcDbLine
 10
45.076111
 20
11.261041
 30
0.0
 11
45.076111
 21
11.16704
 31
0.0
  0
LINE
  5
92
100
AcDbEntity
  8
2
370
    15
390
0
  6
Continuous
 62
     7
100
AcDbLine
 10
45.076111
 20
10.83604
 30
0.0
 11
45.076111
 21
10.93004
 31
0.0
  0
LINE
  5
93
100
AcDbEntity
  8
2
370
    15
390
0
  6
Continuous
 62
     7
100
AcDbLine
 10
45.076111
 20
10.93004
 30
0.0
 11
45.076111
 21
10.93004
 31
0.0
  0
LINE
  5
94
100
AcDbEntity
  8
2
370
    15
390
0
  6
Continuous
 62
     7
100
AcDbLine
 10
45.075611
 20
11.26404
 30
0.0
 11
45.075611
 21
11.26404
 31
0.0
  0
LINE
  5
95
100
AcDbEntity
  8
2
370
    15
390
0
  6
Continuous
 62
     7
100
AcDbLine
 10
45.052113
 20
9.761041
 30
0.0
 11
45.029114
 21
9.761041
 31
0.0
  0
ARC
  5
96
100
AcDbEntity
  8
2
370
    15
390
0
  6
Continuous
 62
     7
100
AcDbCircle
 10
45.029114
 20
9.855043
 30
0.0
 40
0.094002
100
AcDbArc
 50
180.001363
 51
270.0
  0
ARC
  5
97
100
AcDbEntity
  8
2
370
    15
390
0
  6
Continuous
 62
     7
100
AcDbCircle
 10
45.029117
 20
10.742035
 30
0.0
 40
0.094005
100
AcDbArc
 50
90.002186
 51
179.996652
  0
LINE
  5
98
100
AcDbEntity
  8
2
370
    15
390
0
  6
Continuous
 62
     7
100
AcDbLine
 10
45.076111
 20
10.83604
 30
0.0
 11
45.029114
 21
10.83604
 31
0.0
  0
ARC
  5
99
100
AcDbEntity
  8
2
370
    15
390
0
  6
Continuous
 62
     7
100
AcDbCircle
 10
45.029114
 20
11.358042
 30
0.0
 40
0.094002
100
AcDbArc
 50
180.001363
 51
270.0
  0
LINE
  5
9A
100
AcDbEntity
  8
2
370
    15
390
0
  6
Continuous
 62
     7
100
AcDbLine
 10
45.075611
 20
11.26404
 30
0.0
 11
45.029114
 21
11.26404
 31
0.0
  0
ARC
  5
9B
100
AcDbEntity
  8
2
370
    15
390
0
  6
Continuous
 62
     7
100
AcDbCircle
 10
45.029111
 20
12.242041
 30
0.0
 40
0.093999
100
AcDbArc
 50
90.0
 51
180.000621
  0
LINE
  5
9C
100
AcDbEntity
  8
2
370
    15
390
0
  6
Continuous
 62
     7
100
AcDbLine
 10
45.100113
 20
12.33604
 30
0.0
 11
45.02911
 21
12.33604
 31
0.0
  0
ARC
  5
9D
100
AcDbEntity
  8
2
370
    15
390
0
  6
Continuous
 62
     7
100
AcDbCircle
 10
45.029108
 20
12.858035
 30
0.0
 40
0.093996
100
AcDbArc
 50
179.997394
 51
270.001443
  0
LINE
  5
9E
100
AcDbEntity
  8
2
370
    15
390
0
  6
Continuous
 62
     7
100
AcDbLine
 10
45.100113
 20
12.76404
 30
0.0
 11
45.02911
 21
12.76404
 31
0.0
  0
LINE
  5
9F
100
AcDbEntity
  8
2
370
    15
390
0
  6
Continuous
 62
     7
100
AcDbLine
 10
45.014111
 20
12.67004
 30
0.0
 11
45.014111
 21
12.43404
 31
0.0
  0
LINE
  5
A0
100
AcDbEntity
  8
2
370
    15
390
0
  6
Continuous
 62
     7
100
AcDbLine
 10
45.014111
 20
12.43404
 30
0.0
 11
45.100113
 21
12.43404
 31
0.0
  0
LINE
  5
A1
100
AcDbEntity
  8
2
370
    15
390
0
  6
Continuous
 62
     7
100
AcDbLine
 10
45.100113
 20
12.67004
 30
0.0
 11
45.014111
 21
12.67004
 31
0.0
  0
LINE
  5
A2
100
AcDbEntity
  8
2
370
    15
390
0
  6
Continuous
 62
     7
100
AcDbLine
 10
44.990112
 20
11.16704
 30
0.0
 11
44.990112
 21
10.93004
 31
0.0
  0
LINE
  5
A3
100
AcDbEntity
  8
2
370
    15
390
0
  6
Continuous
 62
     7
100
AcDbLine
 10
44.990112
 20
10.93004
 30
0.0
 11
45.076115
 21
10.93004
 31
0.0
  0
LINE
  5
A4
100
AcDbEntity
  8
2
370
    15
390
0
  6
Continuous
 62
     7
100
AcDbLine
 10
45.076111
 20
11.16704
 30
0.0
 11
44.990112
 21
11.16704
 31
0.0
  0
LINE
  5
A5
100
AcDbEntity
  8
2
370
    15
390
0
  6
Continuous
 62
     7
100
AcDbLine
 10
45.052113
 20
9.667042
 30
0.0
 11
44.966114
 21
9.667042
 31
0.0
  0
LINE
  5
A6
100
AcDbEntity
  8
2
370
    15
390
0
  6
Continuous
 62
     7
100
AcDbLine
 10
44.966114
 20
9.667042
 30
0.0
 11
44.966114
 21
9.43004
 31
0.0
  0
LINE
  5
A7
100
AcDbEntity
  8
2
370
    15
390
0
  6
Continuous
 62
     7
100
AcDbLine
 10
44.966114
 20
9.43004
 30
0.0
 11
45.052113
 21
9.43004
 31
0.0
  0
LINE
  5
A8
100
AcDbEntity
  8
2
370
    15
390
0
  6
Continuous
 62
     7
100
AcDbLine
 10
44.935112
 20
12.85804
 30
0.0
 11
44.935112
 21
12.85804
 31
0.0
  0
LINE
  5
A9
100
AcDbEntity
  8
2
370
    15
390
0
  6
Continuous
 62
     7
100
AcDbLine
 10
45.032112
 20
9.307041
 30
0.0
 11
45.052113
 21
9.327041
 31
0.0
  0
LINE
  5
AA
100
AcDbEntity
  8
2
370
    15
390
0
  6
Continuous
 62
     7
100
AcDbLine
 10
44.935112
 20
11.627231
 30
0.0
 11
44.935112
 21
11.35804
 31
0.0
  0
LINE
  5
AB
100
AcDbEntity
  8
2
370
    15
390
0
  6
Continuous
 62
     7
100
AcDbLine
 10
44.935112
 20
10.279541
 30
0.0
 11
44.935112
 21
10.74204
 31
0.0
  0
LINE
  5
AC
100
AcDbEntity
  8
2
370
    15
390
0
  6
Continuous
 62
     7
100
AcDbLine
 10
44.935112
 20
9.96754
 30
0.0
 11
44.935112
 21
9.855041
 31
0.0
  0
LINE
  5
AD
100
AcDbEntity
  8
2
370
    15
390
0
  6
Continuous
 62
     7
100
AcDbLine
 10
44.935108
 20
13.595781
 30
0.0
 11
44.935108
 21
13.595781
 31
0.0
  0
LINE
  5
AE
100
AcDbEntity
  8
2
370
    15
390
0
  6
Continuous
 62
     7
100
AcDbLine
 10
44.935108
 20
13.27577
 30
0.0
 11
44.935108
 21
13.27577
 31
0.0
  0
LINE
  5
AF
100
AcDbEntity
  8
2
370
    15
390
0
  6
Continuous
 62
     7
100
AcDbLine
 10
44.935112
 20
11.627233
 30
0.0
 11
44.935112
 21
11.627231
 31
0.0
  0
LINE
  5
B0
100
AcDbEntity
  8
2
370
    15
390
0
  6
Continuous
 62
     7
100
AcDbLine
 10
44.935112
 20
10.27931
 30
0.0
 11
44.935112
 21
10.279541
 31
0.0
  0
LINE
  5
B1
100
AcDbEntity
  8
2
370
    15
390
0
  6
Continuous
 62
     7
100
AcDbLine
 10
44.935112
 20
9.968996
 30
0.0
 11
44.935112
 21
9.96754
 31
0.0
  0
LINE
  5
B2
100
AcDbEntity
  8
2
370
    15
390
0
  6
Continuous
 62
     7
100
AcDbLine
 10
45.052113
 20
9.43004
 30
0.0
 11
45.052113
 21
9.327041
 31
0.0
  0
LINE
  5
B3
100
AcDbEntity
  8
2
370
    15
390
0
  6
Continuous
 62
     7
100
AcDbLine
 10
44.935112
 20
11.937544
 30
0.0
 11
44.935112
 21
12.24204
 31
0.0
  0
LINE
  5
B4
100
AcDbEntity
  8
2
370
    15
390
0
  6
Continuous
 62
     7
100
AcDbLine
 10
44.935108
 20
13.285471
 30
0.0
 11
44.935112
 21
12.85804
 31
0.0
  0
ELLIPSE
  5
B5
100
AcDbEntity
  8
2
370
    15
390
0
  6
Continuous
 62
     7
100
AcDbEllipse
 10
44.725464
 20
10.124384
 30
0.0
 11
0.0
 21
0.1560001373291016
 31
0.0
210
0.0
220
0.0
230
1.0
 40
0.559171
 41
0.0
 42
6.2831853071795862
  0
LINE
  5
B6
100
AcDbEntity
  8
2
370
    15
390
0
  6
Continuous
 62
     7
100
AcDbLine
 10
44.700726
 20
10.124384
 30
0.0
 11
44.750202
 21
10.124384
 31
0.0
  0
LINE
  5
B7
100
AcDbEntity
  8
2
370
    15
390
0
  6
Continuous
 62
     7
100
AcDbLine
 10
44.725464
 20
10.099643
 30
0.0
 11
44.725464
 21
10.149124
 31
0.0
  0
LINE
  5
B8
100
AcDbEntity
  8
2
370
    15
390
0
  6
Continuous
 62
     7
100
AcDbLine
 10
44.777874
 20
10.124384
 30
0.0
 11
44.834187
 21
10.124384
 31
0.0
  0
LINE
  5
B9
100
AcDbEntity
  8
2
370
    15
390
0
  6
Continuous
 62
     7
100
AcDbLine
 10
44.725464
 20
10.298452
 30
0.0
 11
44.725464
 21
10.176796
 31
0.0
  0
LINE
  5
BA
100
AcDbEntity
  8
2
370
    15
390
0
  6
Continuous
 62
     7
100
AcDbLine
 10
44.725464
 20
9.950485
 30
0.0
 11
44.725464
 21
10.071972
 31
0.0
  0
LINE
  5
BB
100
AcDbEntity
  8
2
370
    15
390
0
  6
Continuous
 62
     7
100
AcDbLine
 10
44.171608
 20
10.124384
 30
0.0
 11
44.264618
 21
10.124384
 31
0.0
  0
LINE
  5
BC
100
AcDbEntity
  8
2
370
    15
390
0
  6
Continuous
 62
     7
100
AcDbLine
 10
44.67305
 20
10.124384
 30
0.0
 11
44.31982
 21
10.124384
 31
0.0
  0
ELLIPSE
  5
BD
100
AcDbEntity
  8
2
370
    15
390
0
  6
Continuous
 62
     7
100
AcDbEllipse
 10
44.725464
 20
11.778385
 30
0.0
 11
0.0
 21
0.1560001373291016
 31
0.0
210
0.0
220
0.0
230
1.0
 40
0.559171
 41
0.0
 42
6.2831853071795862
  0
LINE
  5
BE
100
AcDbEntity
  8
2
370
    15
390
0
  6
Continuous
 62
     7
100
AcDbLine
 10
44.700726
 20
11.778385
 30
0.0
 11
44.750202
 21
11.778385
 31
0.0
  0
LINE
  5
BF
100
AcDbEntity
  8
2
370
    15
390
0
  6
Continuous
 62
     7
100
AcDbLine
 10
44.725464
 20
11.753647
 30
0.0
 11
44.725464
 21
11.803125
 31
0.0
  0
LINE
  5
C0
100
AcDbEntity
  8
2
370
    15
390
0
  6
Continuous
 62
     7
100
AcDbLine
 10
44.777874
 20
11.778385
 30
0.0
 11
44.834187
 21
11.778385
 31
0.0
  0
LINE
  5
C1
100
AcDbEntity
  8
2
370
    15
390
0
  6
Continuous
 62
     7
100
AcDbLine
 10
44.725464
 20
11.952453
 30
0.0
 11
44.725464
 21
11.830797
 31
0.0
  0
LINE
  5
C2
100
AcDbEntity
  8
2
370
    15
390
0
  6
Continuous
 62
     7
100
AcDbLine
 10
44.725464
 20
11.604486
 30
0.0
 11
44.725464
 21
11.725973
 31
0.0
  0
LINE
  5
C3
100
AcDbEntity
  8
2
370
    15
390
0
  6
Continuous
 62
     7
100
AcDbLine
 10
44.171608
 20
11.778385
 30
0.0
 11
44.264618
 21
11.778385
 31
0.0
  0
LINE
  5
C4
100
AcDbEntity
  8
2
370
    15
390
0
  6
Continuous
 62
     7
100
AcDbLine
 10
44.67305
 20
11.778385
 30
0.0
 11
44.31982
 21
11.778385
 31
0.0
  0
ELLIPSE
  5
C5
100
AcDbEntity
  8
2
370
    15
390
0
  6
Continuous
 62
     7
100
AcDbEllipse
 10
44.725464
 20
13.440628
 30
0.0
 11
0.0
 21
0.1560001373291016
 31
0.0
210
0.0
220
0.0
230
1.0
 40
0.559171
 41
0.0
 42
6.2831853071795862
  0
LINE
  5
C6
100
AcDbEntity
  8
2
370
    15
390
0
  6
Continuous
 62
     7
100
AcDbLine
 10
44.700726
 20
13.440626
 30
0.0
 11
44.750202
 21
13.440626
 31
0.0
  0
LINE
  5
C7
100
AcDbEntity
  8
2
370
    15
390
0
  6
Continuous
 62
     7
100
AcDbLine
 10
44.725464
 20
13.415888
 30
0.0
 11
44.725464
 21
13.465366
 31
0.0
  0
LINE
  5
C8
100
AcDbEntity
  8
2
370
    15
390
0
  6
Continuous
 62
     7
100
AcDbLine
 10
44.777874
 20
13.440626
 30
0.0
 11
44.834187
 21
13.440626
 31
0.0
  0
LINE
  5
C9
100
AcDbEntity
  8
2
370
    15
390
0
  6
Continuous
 62
     7
100
AcDbLine
 10
44.725464
 20
13.614694
 30
0.0
 11
44.725464
 21
13.49304
 31
0.0
  0
LINE
  5
CA
100
AcDbEntity
  8
2
370
    15
390
0
  6
Continuous
 62
     7
100
AcDbLine
 10
44.725464
 20
13.266729
 30
0.0
 11
44.725464
 21
13.388216
 31
0.0
  0
LINE
  5
CB
100
AcDbEntity
  8
2
370
    15
390
0
  6
Continuous
 62
     7
100
AcDbLine
 10
44.171608
 20
13.440626
 30
0.0
 11
44.264618
 21
13.440626
 31
0.0
  0
LINE
  5
CC
100
AcDbEntity
  8
2
370
    15
390
0
  6
Continuous
 62
     7
100
AcDbLine
 10
44.67305
 20
13.440626
 30
0.0
 11
44.31982
 21
13.440626
 31
0.0
  0
LINE
  5
CD
100
AcDbEntity
  8
2
370
    15
390
0
  6
Continuous
 62
     7
100
AcDbLine
 10
44.935112
 20
13.752653
 30
0.0
 11
44.935108
 21
13.595781
 31
0.0
  0
LINE
  5
CE
100
AcDbEntity
  8
2
370
    15
390
0
  6
Continuous
 62
     7
100
AcDbLine
 10
45.052349
 20
9.649935
 30
0.0
 11
44.966351
 21
9.649935
 31
0.0
  0
LINE
  5
CF
100
AcDbEntity
  8
2
370
    15
390
0
  6
Continuous
 62
     7
100
AcDbLine
 10
45.052349
 20
9.649935
 30
0.0
 11
45.052349
 21
9.606933
 31
0.0
  0
ARC
  5
D0
100
AcDbEntity
  8
2
370
    15
390
0
  6
Continuous
 62
     7
100
AcDbCircle
 10
45.04235
 20
9.606934
 30
0.0
 40
0.009999
100
AcDbArc
 50
270.005736
 51
359.994264
  0
ARC
  5
D1
100
AcDbEntity
  8
2
370
    15
390
0
  6
Continuous
 62
     7
100
AcDbCircle
 10
44.97635
 20
9.606934
 30
0.0
 40
0.009999
100
AcDbArc
 50
180.005736
 51
269.994264
  0
LINE
  5
D2
100
AcDbEntity
  8
2
370
    15
390
0
  6
Continuous
 62
     7
100
AcDbLine
 10
44.966351
 20
9.649935
 30
0.0
 11
44.966351
 21
9.606933
 31
0.0
  0
ARC
  5
D3
100
AcDbEntity
  8
2
370
    15
390
0
  6
Continuous
 62
     7
100
AcDbCircle
 10
45.00935
 20
9.475875
 30
0.0
 40
0.125478
100
AcDbArc
 50
74.751717
 51
105.248283
  0
LINE
  5
D4
100
AcDbEntity
  8
2
370
    15
390
0
  6
Continuous
 62
     7
100
AcDbLine
 10
44.966351
 20
9.447353
 30
0.0
 11
45.052349
 21
9.447353
 31
0.0
  0
LINE
  5
D5
100
AcDbEntity
  8
2
370
    15
390
0
  6
Continuous
 62
     7
100
AcDbLine
 10
44.966351
 20
9.447353
 30
0.0
 11
44.966351
 21
9.490352
 31
0.0
  0
ARC
  5
D6
100
AcDbEntity
  8
2
370
    15
390
0
  6
Continuous
 62
     7
100
AcDbCircle
 10
44.976353
 20
9.490352
 30
0.0
 40
0.010003
100
AcDbArc
 50
90.024395
 51
179.997461
  0
ARC
  5
D7
100
AcDbEntity
  8
2
370
    15
390
0
  6
Continuous
 62
     7
100
AcDbCircle
 10
45.042347
 20
9.490352
 30
0.0
 40
0.010003
100
AcDbArc
 50
0.002539
 51
89.975605
  0
LINE
  5
D8
100
AcDbEntity
  8
2
370
    15
390
0
  6
Continuous
 62
     7
100
AcDbLine
 10
45.052349
 20
9.447353
 30
0.0
 11
45.052349
 21
9.490352
 31
0.0
  0
ARC
  5
D9
100
AcDbEntity
  8
2
370
    15
390
0
  6
Continuous
 62
     7
100
AcDbCircle
 10
45.00935
 20
9.621307
 30
0.0
 40
0.125373
100
AcDbArc
 50
254.738705
 51
285.261295
  0
LINE
  5
DA
100
AcDbEntity
  8
2
370
    15
390
0
  6
Continuous
 62
     7
100
AcDbLine
 10
45.076111
 20
11.148845
 30
0.0
 11
44.990112
 21
11.148845
 31
0.0
  0
LINE
  5
DB
100
AcDbEntity
  8
2
370
    15
390
0
  6
Continuous
 62
     7
100
AcDbLine
 10
45.076111
 20
11.148845
 30
0.0
 11
45.076111
 21
11.105846
 31
0.0
  0
ARC
  5
DC
100
AcDbEntity
  8
2
370
    15
390
0
  6
Continuous
 62
     7
100
AcDbCircle
 10
45.066112
 20
11.105845
 30
0.0
 40
0.009999
100
AcDbArc
 50
270.005736
 51
360.005193
  0
ARC
  5
DD
100
AcDbEntity
  8
2
370
    15
390
0
  6
Continuous
 62
     7
100
AcDbCircle
 10
45.000105
 20
11.105839
 30
0.0
 40
0.009993
100
AcDbArc
 50
179.957498
 51
270.031573
  0
LINE
  5
DE
100
AcDbEntity
  8
2
370
    15
390
0
  6
Continuous
 62
     7
100
AcDbLine
 10
44.990112
 20
11.148845
 30
0.0
 11
44.990112
 21
11.105846
 31
0.0
  0
ARC
  5
DF
100
AcDbEntity
  8
2
370
    15
390
0
  6
Continuous
 62
     7
100
AcDbCircle
 10
45.033112
 20
10.97484
 30
0.0
 40
0.125426
100
AcDbArc
 50
74.745211
 51
105.254789
  0
LINE
  5
E0
100
AcDbEntity
  8
2
370
    15
390
0
  6
Continuous
 62
     7
100
AcDbLine
 10
44.990112
 20
10.946264
 30
0.0
 11
45.076111
 21
10.946264
 31
0.0
  0
LINE
  5
E1
100
AcDbEntity
  8
2
370
    15
390
0
  6
Continuous
 62
     7
100
AcDbLine
 10
44.990112
 20
10.946264
 30
0.0
 11
44.990112
 21
10.989265
 31
0.0
  0
ARC
  5
E2
100
AcDbEntity
  8
2
370
    15
390
0
  6
Continuous
 62
     7
100
AcDbCircle
 10
45.000115
 20
10.989263
 30
0.0
 40
0.010003
100
AcDbArc
 50
90.024396
 51
179.986533
  0
ARC
  5
E3
100
AcDbEntity
  8
2
370
    15
390
0
  6
Continuous
 62
     7
100
AcDbCircle
 10
45.066108
 20
10.989263
 30
0.0
 40
0.010003
100
AcDbArc
 50
0.013467
 51
89.975604
  0
LINE
  5
E4
100
AcDbEntity
  8
2
370
    15
390
0
  6
Continuous
 62
     7
100
AcDbLine
 10
45.076111
 20
10.946264
 30
0.0
 11
45.076111
 21
10.989265
 31
0.0
  0
ARC
  5
E5
100
AcDbEntity
  8
2
370
    15
390
0
  6
Continuous
 62
     7
100
AcDbCircle
 10
45.033112
 20
11.120272
 30
0.0
 40
0.125426
100
AcDbArc
 50
254.745211
 51
285.254789
  0
LINE
  5
E6
100
AcDbEntity
  8
2
370
    15
390
0
  6
Continuous
 62
     7
100
AcDbLine
 10
45.100113
 20
12.654007
 30
0.0
 11
45.014111
 21
12.654007
 31
0.0
  0
LINE
  5
E7
100
AcDbEntity
  8
2
370
    15
390
0
  6
Continuous
 62
     7
100
AcDbLine
 10
45.100113
 20
12.654007
 30
0.0
 11
45.100113
 21
12.611006
 31
0.0
  0
ARC
  5
E8
100
AcDbEntity
  8
2
370
    15
390
0
  6
Continuous
 62
     7
100
AcDbCircle
 10
45.09011
 20
12.611008
 30
0.0
 40
0.010003
100
AcDbArc
 50
270.0
 51
359.986537
  0
ARC
  5
E9
100
AcDbEntity
  8
2
370
    15
390
0
  6
Continuous
 62
     7
100
AcDbCircle
 10
45.024113
 20
12.611008
 30
0.0
 40
0.010003
100
AcDbArc
 50
180.013463
 51
270.0
  0
LINE
  5
EA
100
AcDbEntity
  8
2
370
    15
390
0
  6
Continuous
 62
     7
100
AcDbLine
 10
45.014111
 20
12.654007
 30
0.0
 11
45.014111
 21
12.611006
 31
0.0
  0
ARC
  5
EB
100
AcDbEntity
  8
2
370
    15
390
0
  6
Continuous
 62
     7
100
AcDbCircle
 10
45.057112
 20
12.480013
 30
0.0
 40
0.125411
100
AcDbArc
 50
74.74434
 51
105.25566
  0
LINE
  5
EC
100
AcDbEntity
  8
2
370
    15
390
0
  6
Continuous
 62
     7
100
AcDbLine
 10
45.014111
 20
12.451425
 30
0.0
 11
45.100113
 21
12.451425
 31
0.0
  0
LINE
  5
ED
100
AcDbEntity
  8
2
370
    15
390
0
  6
Continuous
 62
     7
100
AcDbLine
 10
45.014111
 20
12.451425
 30
0.0
 11
45.014111
 21
12.494425
 31
0.0
  0
ARC
  5
EE
100
AcDbEntity
  8
2
370
    15
390
0
  6
Continuous
 62
     7
100
AcDbCircle
 10
45.02411
 20
12.494425
 30
0.0
 40
0.009999
100
AcDbArc
 50
89.983882
 51
180.005191
  0
ARC
  5
EF
100
AcDbEntity
  8
2
370
    15
390
0
  6
Continuous
 62
     7
100
AcDbCircle
 10
45.090114
 20
12.494425
 30
0.0
 40
0.009999
100
AcDbArc
 50
359.994809
 51
450.016118
  0
LINE
  5
F0
100
AcDbEntity
  8
2
370
    15
390
0
  6
Continuous
 62
     7
100
AcDbLine
 10
45.100113
 20
12.451425
 30
0.0
 11
45.100113
 21
12.494425
 31
0.0
  0
ARC
  5
F1
100
AcDbEntity
  8
2
370
    15
390
0
  6
Continuous
 62
     7
100
AcDbCircle
 10
45.057112
 20
12.625417
 30
0.0
 40
0.125411
100
AcDbArc
 50
254.74434
 51
285.25566
  0
LINE
  5
F2
100
AcDbEntity
  8
2
370
    15
390
0
  6
Continuous
 62
     7
100
AcDbLine
 10
44.731792
 20
9.307041
 30
0.0
 11
44.731792
 21
8.346475
 31
0.0
  0
LINE
  5
F3
100
AcDbEntity
  8
2
370
    15
390
0
  6
Continuous
 62
     7
100
AcDbLine
 10
44.218113
 20
15.064027
 30
0.0
 11
45.143383
 21
15.0644
 31
0.0
  0
LINE
  5
F4
100
AcDbEntity
  8
2
370
    15
390
0
  6
Continuous
 62
     7
100
AcDbLine
 10
44.218113
 20
15.003655
 30
0.0
 11
45.24918
 21
15.003655
 31
0.0
  0
LINE
  5
F5
100
AcDbEntity
  8
2
370
    15
390
0
  6
Continuous
 62
     7
100
AcDbLine
 10
44.218113
 20
14.766656
 30
0.0
 11
45.083683
 21
14.766656
 31
0.0
  0
LINE
  5
F6
100
AcDbEntity
  8
2
370
    15
390
0
  6
Continuous
 62
     7
100
AcDbLine
 10
44.218113
 20
14.813653
 30
0.0
 11
45.173183
 21
14.813653
 31
0.0
  0
LINE
  5
F7
100
AcDbEntity
  8
2
370
    15
390
0
  6
Continuous
 62
     7
100
AcDbLine
 10
44.218113
 20
14.570653
 30
0.0
 11
45.159184
 21
14.570653
 31
0.0
  0
LINE
  5
F8
100
AcDbEntity
  8
2
370
    15
390
0
  6
Continuous
 62
     7
100
AcDbLine
 10
44.218113
 20
14.599023
 30
0.0
 11
45.083683
 21
14.599023
 31
0.0
  0
LINE
  5
F9
100
AcDbEntity
  8
2
370
    15
390
0
  6
Continuous
 62
     7
100
AcDbLine
 10
44.218113
 20
14.102653
 30
0.0
 11
45.159184
 21
14.102653
 31
0.0
  0
LINE
  5
FA
100
AcDbEntity
  8
2
370
    15
390
0
  6
Continuous
 62
     7
100
AcDbLine
 10
44.218113
 20
14.002651
 30
0.0
 11
45.059177
 21
14.002651
 31
0.0
  0
LINE
  5
FB
100
AcDbEntity
  8
2
370
    15
390
0
  6
Continuous
 62
     7
100
AcDbLine
 10
44.218113
 20
13.764654
 30
0.0
 11
45.059177
 21
13.764654
 31
0.0
  0
LINE
  5
FC
100
AcDbEntity
  8
2
370
    15
390
0
  6
Continuous
 62
     7
100
AcDbLine
 10
44.218113
 20
13.752653
 30
0.0
 11
45.047176
 21
13.752653
 31
0.0
  0
LINE
  5
FD
100
AcDbEntity
  8
2
370
    15
390
0
  6
Continuous
 62
     7
100
AcDbLine
 10
44.218113
 20
12.76404
 30
0.0
 11
45.02911
 21
12.76404
 31
0.0
  0
LINE
  5
FE
100
AcDbEntity
  8
2
370
    15
390
0
  6
Continuous
 62
     7
100
AcDbLine
 10
44.218113
 20
12.67004
 30
0.0
 11
45.014111
 21
12.67004
 31
0.0
  0
LINE
  5
FF
100
AcDbEntity
  8
2
370
    15
390
0
  6
Continuous
 62
     7
100
AcDbLine
 10
44.218113
 20
12.43404
 30
0.0
 11
45.014111
 21
12.43404
 31
0.0
  0
LINE
  5
100
100
AcDbEntity
  8
2
370
    15
390
0
  6
Continuous
 62
     7
100
AcDbLine
 10
44.218113
 20
12.33604
 30
0.0
 11
45.02911
 21
12.33604
 31
0.0
  0
LINE
  5
101
100
AcDbEntity
  8
2
370
    15
390
0
  6
Continuous
 62
     7
100
AcDbLine
 10
44.218113
 20
11.26404
 30
0.0
 11
45.029114
 21
11.26404
 31
0.0
  0
LINE
  5
102
100
AcDbEntity
  8
2
370
    15
390
0
  6
Continuous
 62
     7
100
AcDbLine
 10
44.218113
 20
11.16704
 30
0.0
 11
44.990112
 21
11.16704
 31
0.0
  0
LINE
  5
103
100
AcDbEntity
  8
2
370
    15
390
0
  6
Continuous
 62
     7
100
AcDbLine
 10
44.218113
 20
10.93004
 30
0.0
 11
44.990112
 21
10.93004
 31
0.0
  0
LINE
  5
104
100
AcDbEntity
  8
2
370
    15
390
0
  6
Continuous
 62
     7
100
AcDbLine
 10
44.218113
 20
10.83604
 30
0.0
 11
45.029114
 21
10.83604
 31
0.0
  0
LINE
  5
105
100
AcDbEntity
  8
2
370
    15
390
0
  6
Continuous
 62
     7
100
AcDbLine
 10
44.218113
 20
9.761041
 30
0.0
 11
45.029114
 21
9.761041
 31
0.0
  0
LINE
  5
106
100
AcDbEntity
  8
2
370
    15
390
0
  6
Continuous
 62
     7
100
AcDbLine
 10
44.218113
 20
9.667042
 30
0.0
 11
44.966114
 21
9.667042
 31
0.0
  0
LINE
  5
107
100
AcDbEntity
  8
2
370
    15
390
0
  6
Continuous
 62
     7
100
AcDbLine
 10
44.218113
 20
9.43004
 30
0.0
 11
44.966114
 21
9.43004
 31
0.0
  0
LINE
  5
108
100
AcDbEntity
  8
2
370
    15
390
0
  6
Continuous
 62
     7
100
AcDbLine
 10
44.218113
 20
9.33604
 30
0.0
 11
45.052113
 21
9.33604
 31
0.0
  0
LINE
  5
109
100
AcDbEntity
  8
2
370
    15
390
0
  6
Continuous
 62
     7
100
AcDbLine
 10
44.218113
 20
9.307041
 30
0.0
 11
45.032112
 21
9.307041
 31
0.0
  0
LINE
  5
10A
100
AcDbEntity
  8
2
370
    15
390
0
  6
Continuous
 62
     7
100
AcDbLine
 10
44.218113
 20
8.346475
 30
0.0
 11
44.731792
 21
8.346475
 31
0.0
  0
LINE
  5
10B
100
AcDbEntity
  8
2
370
    15
390
0
  6
Continuous
 62
     7
100
AcDbLine
 10
44.218113
 20
8.336477
 30
0.0
 11
44.72179
 21
8.336477
 31
0.0
  0
ARC
  5
10C
100
AcDbEntity
  8
2
370
    15
390
0
  6
Continuous
 62
     7
100
AcDbCircle
 10
44.218111
 20
13.440628
 30
0.0
 40
0.156
100
AcDbArc
 50
270.000701
 51
449.999299
  0
ARC
  5
10D
100
AcDbEntity
  8
2
370
    15
390
0
  6
Continuous
 62
     7
100
AcDbCircle
 10
44.218111
 20
11.778385
 30
0.0
 40
0.156
100
AcDbArc
 50
270.000701
 51
449.999299
  0
ARC
  5
10E
100
AcDbEntity
  8
2
370
    15
390
0
  6
Continuous
 62
     7
100
AcDbCircle
 10
44.218111
 20
10.124384
 30
0.0
 40
0.156
100
AcDbArc
 50
270.000701
 51
449.999299
  0
LINE
  5
10F
100
AcDbEntity
  8
1
370
    15
390
0
  6
Continuous
 62
     7
100
AcDbLine
 10
44.218113
 20
8.057621
 30
0.0
 11
44.218113
 21
10.591854
 31
0.0
  0
LINE
  5
110
100
AcDbEntity
  8
1
370
    15
390
0
  6
Continuous
 62
     7
100
AcDbLine
 10
43.310612
 20
14.544152
 30
0.0
 11
43.260113
 21
14.594655
 31
0.0
  0
LINE
  5
111
100
AcDbEntity
  8
1
370
    15
390
0
  6
LT22
 62
     7
100
AcDbLine
 10
43.273113
 20
14.581654
 30
0.0
 11
43.273113
 21
13.938652
 31
0.0
  0
LINE
  5
112
100
AcDbEntity
  8
1
370
    15
390
0
  6
Continuous
 62
     7
100
AcDbLine
 10
44.218113
 20
13.858978
 30
0.0
 11
44.218113
 21
13.688925
 31
0.0
  0
LINE
  5
113
100
AcDbEntity
  8
1
370
    15
390
0
  6
Continuous
 62
     7
100
AcDbLine
 10
43.310612
 20
12.797653
 30
0.0
 11
43.310612
 21
14.544152
 31
0.0
  0
LINE
  5
114
100
AcDbEntity
  8
1
370
    15
390
0
  6
Continuous
 62
     7
100
AcDbLine
 10
43.187111
 20
15.426408
 30
0.0
 11
43.187111
 21
14.813653
 31
0.0
  0
LINE
  5
115
100
AcDbEntity
  8
1
370
    15
390
0
  6
Continuous
 62
     7
100
AcDbLine
 10
43.246109
 20
14.813653
 30
0.0
 11
43.187111
 21
14.813653
 31
0.0
  0
LINE
  5
116
100
AcDbEntity
  8
1
370
    15
390
0
  6
Continuous
 62
     7
100
AcDbLine
 10
43.260113
 20
14.789403
 30
0.0
 11
43.260113
 21
14.594655
 31
0.0
  0
LINE
  5
117
100
AcDbEntity
  8
1
370
    15
390
0
  6
Continuous
 62
     1
100
AcDbLine
 10
45.101112
 20
12.755214
 30
0.0
 11
45.125614
 21
12.797653
 31
0.0
  0
LINE
  5
118
100
AcDbEntity
  8
1
370
    15
390
0
  6
Continuous
 62
     1
100
AcDbLine
 10
45.101112
 20
12.755214
 30
0.0
 11
45.101112
 21
11.297653
 31
0.0
  0
LINE
  5
119
100
AcDbEntity
  8
1
370
    15
390
0
  6
Continuous
 62
     1
100
AcDbLine
 10
45.07761
 20
11.25695
 30
0.0
 11
45.101112
 21
11.297653
 31
0.0
  0
LINE
  5
11A
100
AcDbEntity
  8
1
370
    15
390
0
  6
Continuous
 62
     1
100
AcDbLine
 10
45.07761
 20
11.25695
 30
0.0
 11
45.07761
 21
9.797653
 31
0.0
  0
LINE
  5
11B
100
AcDbEntity
  8
1
370
    15
390
0
  6
Continuous
 62
     1
100
AcDbLine
 10
45.054112
 20
9.75695
 30
0.0
 11
45.07761
 21
9.797653
 31
0.0
  0
LINE
  5
11C
100
AcDbEntity
  8
1
370
    15
390
0
  6
Continuous
 62
     1
100
AcDbLine
 10
45.054112
 20
9.756948
 30
0.0
 11
45.054112
 21
9.305654
 31
0.0
  0
LINE
  5
11D
100
AcDbEntity
  8
1
370
    15
390
0
  6
Continuous
 62
     1
100
AcDbLine
 10
45.388245
 20
15.175427
 30
0.0
 11
45.388245
 21
15.047345
 31
0.0
  0
LINE
  5
11E
100
AcDbEntity
  8
1
370
    15
390
0
  6
Continuous
 62
     1
100
AcDbLine
 10
45.388245
 20
15.047345
 30
0.0
 11
45.406548
 21
14.84607
 31
0.0
  0
LINE
  5
11F
100
AcDbEntity
  8
1
370
    15
390
0
  6
Continuous
 62
     1
100
AcDbLine
 10
45.406548
 20
14.84607
 30
0.0
 11
45.388245
 21
14.772877
 31
0.0
  0
LINE
  5
120
100
AcDbEntity
  8
1
370
    15
390
0
  6
Continuous
 62
     1
100
AcDbLine
 10
45.388245
 20
14.772877
 30
0.0
 11
45.379093
 21
14.644795
 31
0.0
  0
LINE
  5
121
100
AcDbEntity
  8
1
370
    15
390
0
  6
Continuous
 62
     1
100
AcDbLine
 10
45.379093
 20
14.644795
 30
0.0
 11
45.36079
 21
14.553307
 31
0.0
  0
LINE
  5
122
100
AcDbEntity
  8
1
370
    15
390
0
  6
Continuous
 62
     1
100
AcDbLine
 10
45.36079
 20
14.553307
 30
0.0
 11
45.333336
 21
14.44352
 31
0.0
  0
LINE
  5
123
100
AcDbEntity
  8
1
370
    15
390
0
  6
Continuous
 62
     1
100
AcDbLine
 10
45.333336
 20
14.44352
 30
0.0
 11
45.315029
 21
14.333733
 31
0.0
  0
LINE
  5
124
100
AcDbEntity
  8
1
370
    15
390
0
  6
Continuous
 62
     1
100
AcDbLine
 10
45.315029
 20
14.333733
 30
0.0
 11
45.315029
 21
14.20565
 31
0.0
  0
LINE
  5
125
100
AcDbEntity
  8
1
370
    15
390
0
  6
Continuous
 62
     1
100
AcDbLine
 10
45.315029
 20
14.20565
 30
0.0
 11
45.315029
 21
14.114162
 31
0.0
  0
LINE
  5
126
100
AcDbEntity
  8
1
370
    15
390
0
  6
Continuous
 62
     1
100
AcDbLine
 10
45.315029
 20
14.114162
 30
0.0
 11
45.342487
 21
13.967781
 31
0.0
  0
LINE
  5
127
100
AcDbEntity
  8
1
370
    15
390
0
  6
Continuous
 62
     1
100
AcDbLine
 10
45.342487
 20
13.967781
 30
0.0
 11
45.342487
 21
13.876289
 31
0.0
  0
LINE
  5
128
100
AcDbEntity
  8
1
370
    15
390
0
  6
Continuous
 62
     1
100
AcDbLine
 10
45.342487
 20
13.876289
 30
0.0
 11
45.333336
 21
13.748209
 31
0.0
  0
LINE
  5
129
100
AcDbEntity
  8
1
370
    15
390
0
  6
Continuous
 62
     1
100
AcDbLine
 10
45.333336
 20
13.748209
 30
0.0
 11
45.315029
 21
13.647569
 31
0.0
  0
LINE
  5
12A
100
AcDbEntity
  8
1
370
    15
390
0
  6
Continuous
 62
     1
100
AcDbLine
 10
45.278423
 20
13.309063
 30
0.0
 11
45.296726
 21
13.171831
 31
0.0
  0
LINE
  5
12B
100
AcDbEntity
  8
1
370
    15
390
0
  6
Continuous
 62
     1
100
AcDbLine
 10
45.296726
 20
13.171831
 30
0.0
 11
45.315029
 21
13.089491
 31
0.0
  0
LINE
  5
12C
100
AcDbEntity
  8
1
370
    15
390
0
  6
Continuous
 62
     1
100
AcDbLine
 10
45.315029
 20
13.089491
 30
0.0
 11
45.324181
 21
12.888216
 31
0.0
  0
LINE
  5
12D
100
AcDbEntity
  8
1
370
    15
390
0
  6
Continuous
 62
     1
100
AcDbLine
 10
45.324181
 20
12.888216
 30
0.0
 11
45.315029
 21
12.714388
 31
0.0
  0
LINE
  5
12E
100
AcDbEntity
  8
1
370
    15
390
0
  6
Continuous
 62
     1
100
AcDbLine
 10
45.315029
 20
12.714388
 30
0.0
 11
45.315029
 21
12.632047
 31
0.0
  0
LINE
  5
12F
100
AcDbEntity
  8
1
370
    15
390
0
  6
Continuous
 62
     1
100
AcDbLine
 10
45.315029
 20
12.632047
 30
0.0
 11
45.315029
 21
12.558857
 31
0.0
  0
LINE
  5
130
100
AcDbEntity
  8
1
370
    15
390
0
  6
Continuous
 62
     1
100
AcDbLine
 10
45.315029
 20
12.558857
 30
0.0
 11
45.315029
 21
12.467367
 31
0.0
  0
LINE
  5
131
100
AcDbEntity
  8
1
370
    15
390
0
  6
Continuous
 62
     1
100
AcDbLine
 10
45.315029
 20
12.467367
 30
0.0
 11
45.287575
 21
12.375879
 31
0.0
  0
LINE
  5
132
100
AcDbEntity
  8
1
370
    15
390
0
  6
Continuous
 62
     1
100
AcDbLine
 10
45.287575
 20
12.375879
 30
0.0
 11
45.287575
 21
12.247795
 31
0.0
  0
LINE
  5
133
100
AcDbEntity
  8
1
370
    15
390
0
  6
Continuous
 62
     1
100
AcDbLine
 10
45.287575
 20
12.247795
 30
0.0
 11
45.287575
 21
12.13801
 31
0.0
  0
LINE
  5
134
100
AcDbEntity
  8
1
370
    15
390
0
  6
Continuous
 62
     1
100
AcDbLine
 10
45.315029
 20
11.808651
 30
0.0
 11
45.315029
 21
11.73546
 31
0.0
  0
LINE
  5
135
100
AcDbEntity
  8
1
370
    15
390
0
  6
Continuous
 62
     1
100
AcDbLine
 10
45.315029
 20
11.73546
 30
0.0
 11
45.315029
 21
11.671417
 31
0.0
  0
LINE
  5
136
100
AcDbEntity
  8
1
370
    15
390
0
  6
Continuous
 62
     1
100
AcDbLine
 10
45.315029
 20
11.671417
 30
0.0
 11
45.305878
 21
11.589079
 31
0.0
  0
LINE
  5
137
100
AcDbEntity
  8
1
370
    15
390
0
  6
Continuous
 62
     1
100
AcDbLine
 10
45.305878
 20
11.589079
 30
0.0
 11
45.296726
 21
11.479292
 31
0.0
  0
LINE
  5
138
100
AcDbEntity
  8
1
370
    15
390
0
  6
Continuous
 62
     1
100
AcDbLine
 10
45.296726
 20
11.479292
 30
0.0
 11
45.296726
 21
11.387804
 31
0.0
  0
LINE
  5
139
100
AcDbEntity
  8
1
370
    15
390
0
  6
Continuous
 62
     1
100
AcDbLine
 10
45.296726
 20
11.387804
 30
0.0
 11
45.287575
 21
11.296314
 31
0.0
  0
LINE
  5
13A
100
AcDbEntity
  8
1
370
    15
390
0
  6
Continuous
 62
     1
100
AcDbLine
 10
45.287575
 20
11.296314
 30
0.0
 11
45.278423
 21
11.177379
 31
0.0
  0
LINE
  5
13B
100
AcDbEntity
  8
1
370
    15
390
0
  6
Continuous
 62
     1
100
AcDbLine
 10
45.278423
 20
11.177379
 30
0.0
 11
45.278423
 21
11.003551
 31
0.0
  0
LINE
  5
13C
100
AcDbEntity
  8
1
370
    15
390
0
  6
Continuous
 62
     1
100
AcDbLine
 10
45.278423
 20
11.003551
 30
0.0
 11
45.287575
 21
10.838873
 31
0.0
  0
LINE
  5
13D
100
AcDbEntity
  8
1
370
    15
390
0
  6
Continuous
 62
     1
100
AcDbLine
 10
45.287575
 20
10.838873
 30
0.0
 11
45.296726
 21
10.77483
 31
0.0
  0
LINE
  5
13E
100
AcDbEntity
  8
1
370
    15
390
0
  6
Continuous
 62
     1
100
AcDbLine
 10
45.296726
 20
10.77483
 30
0.0
 11
45.278423
 21
10.619299
 31
0.0
  0
LINE
  5
13F
100
AcDbEntity
  8
1
370
    15
390
0
  6
Continuous
 62
     1
100
AcDbLine
 10
45.278423
 20
10.619299
 30
0.0
 11
45.278423
 21
10.564407
 31
0.0
  0
LINE
  5
140
100
AcDbEntity
  8
1
370
    15
390
0
  6
Continuous
 62
     1
100
AcDbLine
 10
45.278423
 20
10.161857
 30
0.0
 11
45.305878
 21
10.088667
 31
0.0
  0
LINE
  5
141
100
AcDbEntity
  8
1
370
    15
390
0
  6
Continuous
 62
     1
100
AcDbLine
 10
45.305878
 20
10.088667
 30
0.0
 11
45.315029
 21
9.997177
 31
0.0
  0
LINE
  5
142
100
AcDbEntity
  8
1
370
    15
390
0
  6
Continuous
 62
     1
100
AcDbLine
 10
45.315029
 20
9.997177
 30
0.0
 11
45.315029
 21
9.878242
 31
0.0
  0
LINE
  5
143
100
AcDbEntity
  8
1
370
    15
390
0
  6
Continuous
 62
     1
100
AcDbLine
 10
45.315029
 20
9.878242
 30
0.0
 11
45.324181
 21
9.786754
 31
0.0
  0
LINE
  5
144
100
AcDbEntity
  8
1
370
    15
390
0
  6
Continuous
 62
     1
100
AcDbLine
 10
45.324181
 20
9.786754
 30
0.0
 11
45.315029
 21
9.66782
 31
0.0
  0
LINE
  5
145
100
AcDbEntity
  8
1
370
    15
390
0
  6
Continuous
 62
     1
100
AcDbLine
 10
45.315029
 20
9.66782
 30
0.0
 11
45.296726
 21
9.530586
 31
0.0
  0
LINE
  5
146
100
AcDbEntity
  8
1
370
    15
390
0
  6
Continuous
 62
     1
100
AcDbLine
 10
45.296726
 20
9.530586
 30
0.0
 11
45.278423
 21
9.411651
 31
0.0
  0
LINE
  5
147
100
AcDbEntity
  8
1
370
    15
390
0
  6
Continuous
 62
     1
100
AcDbLine
 10
45.324505
 20
14.063652
 30
0.0
 11
45.125614
 21
14.063652
 31
0.0
  0
LINE
  5
148
100
AcDbEntity
  8
1
370
    15
390
0
  6
Continuous
 62
     1
100
AcDbLine
 10
45.320255
 20
12.813654
 30
0.0
 11
45.125614
 21
12.813654
 31
0.0
  0
LINE
  5
149
100
AcDbEntity
  8
1
370
    15
390
0
  6
Continuous
 62
     1
100
AcDbLine
 10
45.287575
 20
12.313654
 30
0.0
 11
45.101112
 21
12.313654
 31
0.0
  0
LINE
  5
14A
100
AcDbEntity
  8
1
370
    15
390
0
  6
Continuous
 62
     1
100
AcDbLine
 10
45.28891
 20
11.313654
 30
0.0
 11
45.101112
 21
11.313654
 31
0.0
  0
LINE
  5
14B
100
AcDbEntity
  8
1
370
    15
390
0
  6
Continuous
 62
     1
100
AcDbLine
 10
45.29118
 20
10.813654
 30
0.0
 11
45.07761
 21
10.813654
 31
0.0
  0
LINE
  5
14C
100
AcDbEntity
  8
1
370
    15
390
0
  6
Continuous
 62
     1
100
AcDbLine
 10
45.321491
 20
9.813654
 30
0.0
 11
45.07761
 21
9.813654
 31
0.0
  0
LINE
  5
14D
100
AcDbEntity
  8
1
370
    15
390
0
  6
Continuous
 62
     1
100
AcDbLine
 10
45.125614
 20
14.534569
 30
0.0
 11
45.396355
 21
14.805314
 31
0.0
  0
LINE
  5
14E
100
AcDbEntity
  8
1
370
    15
390
0
  6
Continuous
 62
     1
100
AcDbLine
 10
45.125614
 20
14.446179
 30
0.0
 11
45.383316
 21
14.703881
 31
0.0
  0
LINE
  5
14F
100
AcDbEntity
  8
1
370
    15
390
0
  6
Continuous
 62
     1
100
AcDbLine
 10
45.316437
 20
14.10667
 30
0.0
 11
45.273418
 21
14.063652
 31
0.0
  0
LINE
  5
150
100
AcDbEntity
  8
1
370
    15
390
0
  6
Continuous
 62
     1
100
AcDbLine
 10
45.315029
 20
14.193657
 30
0.0
 11
45.185028
 21
14.063652
 31
0.0
  0
LINE
  5
151
100
AcDbEntity
  8
1
370
    15
390
0
  6
Continuous
 62
     1
100
AcDbLine
 10
45.315029
 20
14.282044
 30
0.0
 11
45.125614
 21
14.092624
 31
0.0
  0
LINE
  5
152
100
AcDbEntity
  8
1
370
    15
390
0
  6
Continuous
 62
     1
100
AcDbLine
 10
45.322372
 20
14.377774
 30
0.0
 11
45.125614
 21
14.181015
 31
0.0
  0
LINE
  5
153
100
AcDbEntity
  8
1
370
    15
390
0
  6
Continuous
 62
     1
100
AcDbLine
 10
45.34454
 20
14.488332
 30
0.0
 11
45.125614
 21
14.269402
 31
0.0
  0
LINE
  5
154
100
AcDbEntity
  8
1
370
    15
390
0
  6
Continuous
 62
     1
100
AcDbLine
 10
45.370709
 20
14.602887
 30
0.0
 11
45.125614
 21
14.357793
 31
0.0
  0
LINE
  5
155
100
AcDbEntity
  8
1
370
    15
390
0
  6
Continuous
 62
     1
100
AcDbLine
 10
45.287575
 20
12.370235
 30
0.0
 11
45.230991
 21
12.313654
 31
0.0
  0
LINE
  5
156
100
AcDbEntity
  8
1
370
    15
390
0
  6
Continuous
 62
     1
100
AcDbLine
 10
45.315029
 20
12.486078
 30
0.0
 11
45.142605
 21
12.313654
 31
0.0
  0
LINE
  5
157
100
AcDbEntity
  8
1
370
    15
390
0
  6
Continuous
 62
     1
100
AcDbLine
 10
45.101112
 20
12.714103
 30
0.0
 11
45.200665
 21
12.813654
 31
0.0
  0
LINE
  5
158
100
AcDbEntity
  8
1
370
    15
390
0
  6
Continuous
 62
     1
100
AcDbLine
 10
45.101112
 20
12.625713
 30
0.0
 11
45.289051
 21
12.813654
 31
0.0
  0
LINE
  5
159
100
AcDbEntity
  8
1
370
    15
390
0
  6
Continuous
 62
     1
100
AcDbLine
 10
45.101112
 20
12.537325
 30
0.0
 11
45.317078
 21
12.753292
 31
0.0
  0
LINE
  5
15A
100
AcDbEntity
  8
1
370
    15
390
0
  6
Continuous
 62
     1
100
AcDbLine
 10
45.101112
 20
12.448936
 30
0.0
 11
45.315029
 21
12.662857
 31
0.0
  0
LINE
  5
15B
100
AcDbEntity
  8
1
370
    15
390
0
  6
Continuous
 62
     1
100
AcDbLine
 10
45.101112
 20
12.360548
 30
0.0
 11
45.315029
 21
12.574466
 31
0.0
  0
LINE
  5
15C
100
AcDbEntity
  8
1
370
    15
390
0
  6
Continuous
 62
     1
100
AcDbLine
 10
45.286072
 20
10.865925
 30
0.0
 11
45.233799
 21
10.813654
 31
0.0
  0
LINE
  5
15D
100
AcDbEntity
  8
1
370
    15
390
0
  6
Continuous
 62
     1
100
AcDbLine
 10
45.281418
 20
10.949659
 30
0.0
 11
45.145412
 21
10.813654
 31
0.0
  0
LINE
  5
15E
100
AcDbEntity
  8
1
370
    15
390
0
  6
Continuous
 62
     1
100
AcDbLine
 10
45.101112
 20
11.299682
 30
0.0
 11
45.115082
 21
11.313654
 31
0.0
  0
LINE
  5
15F
100
AcDbEntity
  8
1
370
    15
390
0
  6
Continuous
 62
     1
100
AcDbLine
 10
45.07761
 20
11.187793
 30
0.0
 11
45.203472
 21
11.313654
 31
0.0
  0
LINE
  5
160
100
AcDbEntity
  8
1
370
    15
390
0
  6
Continuous
 62
     1
100
AcDbLine
 10
45.07761
 20
11.099405
 30
0.0
 11
45.288662
 21
11.310459
 31
0.0
  0
LINE
  5
161
100
AcDbEntity
  8
1
370
    15
390
0
  6
Continuous
 62
     1
100
AcDbLine
 10
45.07761
 20
11.011017
 30
0.0
 11
45.281296
 21
11.2147
 31
0.0
  0
LINE
  5
162
100
AcDbEntity
  8
1
370
    15
390
0
  6
Continuous
 62
     1
100
AcDbLine
 10
45.07761
 20
10.922628
 30
0.0
 11
45.278423
 21
11.123441
 31
0.0
  0
LINE
  5
163
100
AcDbEntity
  8
1
370
    15
390
0
  6
Continuous
 62
     1
100
AcDbLine
 10
45.07761
 20
10.834242
 30
0.0
 11
45.278423
 21
11.035053
 31
0.0
  0
LINE
  5
164
100
AcDbEntity
  8
1
370
    15
390
0
  6
Continuous
 62
     1
100
AcDbLine
 10
45.145252
 20
9.813654
 30
0.0
 11
45.055183
 21
9.723585
 31
0.0
  0
LINE
  5
165
100
AcDbEntity
  8
1
370
    15
390
0
  6
Continuous
 62
     1
100
AcDbLine
 10
45.233639
 20
9.813654
 30
0.0
 11
45.055183
 21
9.635196
 31
0.0
  0
LINE
  5
166
100
AcDbEntity
  8
1
370
    15
390
0
  6
Continuous
 62
     1
100
AcDbLine
 10
45.321541
 20
9.813165
 30
0.0
 11
45.055183
 21
9.546808
 31
0.0
  0
LINE
  5
167
100
AcDbEntity
  8
1
370
    15
390
0
  6
Continuous
 62
     1
100
AcDbLine
 10
44.874111
 20
9.305654
 30
0.0
 11
45.054112
 21
9.305654
 31
0.0
  0
LINE
  5
168
100
AcDbEntity
  8
1
370
    15
390
0
  6
Continuous
 62
     1
100
AcDbLine
 10
44.874111
 20
9.100572
 30
0.0
 11
45.29538
 21
9.521841
 31
0.0
  0
LINE
  5
169
100
AcDbEntity
  8
1
370
    15
390
0
  6
Continuous
 62
     1
100
AcDbLine
 10
44.874111
 20
9.012184
 30
0.0
 11
45.279305
 21
9.417375
 31
0.0
  0
LINE
  5
16A
100
AcDbEntity
  8
1
370
    15
390
0
  6
Continuous
 62
     1
100
AcDbLine
 10
44.968838
 20
8.718935
 30
0.0
 11
44.932385
 21
8.684316
 31
0.0
  0
LINE
  5
16B
100
AcDbEntity
  8
1
370
    15
390
0
  6
Continuous
 62
     1
100
AcDbLine
 10
44.932385
 20
8.684316
 30
0.0
 11
44.903225
 21
8.651521
 31
0.0
  0
LINE
  5
16C
100
AcDbEntity
  8
1
370
    15
390
0
  6
Continuous
 62
     1
100
AcDbLine
 10
44.903225
 20
8.651521
 30
0.0
 11
44.874111
 21
8.635124
 31
0.0
  0
LINE
  5
16D
100
AcDbEntity
  8
1
370
    15
390
0
  6
Continuous
 62
     1
100
AcDbLine
 10
44.874111
 20
8.635124
 30
0.0
 11
44.874111
 21
9.305654
 31
0.0
  0
LINE
  5
16E
100
AcDbEntity
  8
1
370
    15
390
0
  6
Continuous
 62
     1
100
AcDbLine
 10
45.054112
 20
9.457348
 30
0.0
 11
45.319237
 21
9.722473
 31
0.0
  0
LINE
  5
16F
100
AcDbEntity
  8
1
370
    15
390
0
  6
Continuous
 62
     1
100
AcDbLine
 10
44.902416
 20
9.305654
 30
0.0
 11
44.874111
 21
9.277349
 31
0.0
  0
LINE
  5
170
100
AcDbEntity
  8
1
370
    15
390
0
  6
Continuous
 62
     1
100
AcDbLine
 10
45.054112
 20
9.368961
 30
0.0
 11
45.309193
 21
9.62404
 31
0.0
  0
LINE
  5
171
100
AcDbEntity
  8
1
370
    15
390
0
  6
Continuous
 62
     1
100
AcDbLine
 10
44.990807
 20
9.305654
 30
0.0
 11
44.874111
 21
9.188961
 31
0.0
  0
LINE
  5
172
100
AcDbEntity
  8
1
370
    15
390
0
  6
Continuous
 62
     1
100
AcDbLine
 10
45.227921
 20
14.813653
 30
0.0
 11
45.176113
 21
14.761845
 31
0.0
  0
LINE
  5
173
100
AcDbEntity
  8
1
370
    15
390
0
  6
Continuous
 62
     1
100
AcDbLine
 10
45.347309
 20
14.844655
 30
0.0
 11
45.176113
 21
14.673455
 31
0.0
  0
LINE
  5
174
100
AcDbEntity
  8
1
370
    15
390
0
  6
Continuous
 62
     1
100
AcDbLine
 10
45.258923
 20
14.844655
 30
0.0
 11
45.249111
 21
14.834843
 31
0.0
  0
LINE
  5
175
100
AcDbEntity
  8
1
370
    15
390
0
  6
Continuous
 62
     1
100
AcDbLine
 10
45.249111
 20
14.844655
 30
0.0
 11
45.249111
 21
14.813653
 31
0.0
  0
ELLIPSE
  5
176
100
AcDbEntity
  8
1
370
    15
390
0
  6
Continuous
 62
     1
100
AcDbEllipse
 10
45.1294
 20
14.709265
 30
0.0
 11
0.0003986358642578
 21
0.0577411651611328
 31
0.0
210
0.0
220
0.0
230
1.0
 40
0.800548
 41
0.0
 42
6.2831853071795862
  0
ELLIPSE
  5
177
100
AcDbEntity
  8
1
370
    15
390
0
  6
Continuous
 62
     1
100
AcDbEllipse
 10
45.056589
 20
12.552485
 30
0.0
 11
-0.0008563995361328
 21
0.0513696670532227
 31
0.0
210
0.0
220
0.0
230
1.0
 40
0.841919
 41
0.0
 42
6.2831853071795862
  0
ELLIPSE
  5
178
100
AcDbEntity
  8
1
370
    15
390
0
  6
Continuous
 62
     1
100
AcDbEllipse
 10
45.032944
 20
11.047653
 30
0.0
 11
0.0
 21
0.0519065856933594
 31
0.0
210
0.0
220
0.0
230
1.0
 40
0.835746
 41
0.0
 42
6.2831853071795862
  0
ELLIPSE
  5
179
100
AcDbEntity
  8
1
370
    15
390
0
  6
Continuous
 62
     1
100
AcDbEllipse
 10
45.009283
 20
9.54861
 30
0.0
 11
-0.0006504058837891
 21
0.0523815155029297
 31
0.0
210
0.0
220
0.0
230
1.0
 40
0.826457
 41
0.0
 42
6.2831853071795862
  0
LINE
  5
17A
100
AcDbEntity
  8
1
370
    15
390
0
  6
Continuous
 62
     1
100
AcDbLine
 10
45.278423
 20
9.411651
 30
0.0
 11
45.257645
 21
9.361246
 31
0.0
  0
LINE
  5
17B
100
AcDbEntity
  8
1
370
    15
390
0
  6
Continuous
 62
     1
100
AcDbLine
 10
45.257645
 20
9.361246
 30
0.0
 11
45.234596
 21
9.300506
 31
0.0
  0
LINE
  5
17C
100
AcDbEntity
  8
1
370
    15
390
0
  6
Continuous
 62
     1
100
AcDbLine
 10
45.234596
 20
9.300506
 30
0.0
 11
45.232502
 21
9.260711
 31
0.0
  0
LINE
  5
17D
100
AcDbEntity
  8
1
370
    15
390
0
  6
Continuous
 62
     1
100
AcDbLine
 10
45.232502
 20
9.260711
 30
0.0
 11
45.232502
 21
9.206255
 31
0.0
  0
LINE
  5
17E
100
AcDbEntity
  8
1
370
    15
390
0
  6
Continuous
 62
     1
100
AcDbLine
 10
45.232502
 20
9.206255
 30
0.0
 11
45.224121
 21
9.160177
 31
0.0
  0
LINE
  5
17F
100
AcDbEntity
  8
1
370
    15
390
0
  6
Continuous
 62
     1
100
AcDbLine
 10
45.224121
 20
9.160177
 30
0.0
 11
45.211548
 21
9.122476
 31
0.0
  0
LINE
  5
180
100
AcDbEntity
  8
1
370
    15
390
0
  6
Continuous
 62
     1
100
AcDbLine
 10
45.211548
 20
9.122476
 30
0.0
 11
45.198978
 21
9.080587
 31
0.0
  0
LINE
  5
181
100
AcDbEntity
  8
1
370
    15
390
0
  6
Continuous
 62
     1
100
AcDbLine
 10
45.198978
 20
9.080587
 30
0.0
 11
45.190598
 21
9.02613
 31
0.0
  0
LINE
  5
182
100
AcDbEntity
  8
1
370
    15
390
0
  6
Continuous
 62
     1
100
AcDbLine
 10
45.190598
 20
9.02613
 30
0.0
 11
45.178028
 21
8.965391
 31
0.0
  0
LINE
  5
183
100
AcDbEntity
  8
1
370
    15
390
0
  6
Continuous
 62
     1
100
AcDbLine
 10
45.178028
 20
8.965391
 30
0.0
 11
45.150791
 21
8.910934
 31
0.0
  0
LINE
  5
184
100
AcDbEntity
  8
1
370
    15
390
0
  6
Continuous
 62
     1
100
AcDbLine
 10
45.150791
 20
8.910934
 30
0.0
 11
45.113079
 21
8.856477
 31
0.0
  0
LINE
  5
185
100
AcDbEntity
  8
1
370
    15
390
0
  6
Continuous
 62
     1
100
AcDbLine
 10
44.968838
 20
8.718935
 30
0.0
 11
45.018795
 21
8.753849
 31
0.0
  0
LINE
  5
186
100
AcDbEntity
  8
1
370
    15
390
0
  6
Continuous
 62
     1
100
AcDbLine
 10
45.018795
 20
8.753849
 30
0.0
 11
45.046032
 21
8.768511
 31
0.0
  0
LINE
  5
187
100
AcDbEntity
  8
1
370
    15
390
0
  6
Continuous
 62
     1
100
AcDbLine
 10
45.046032
 20
8.768511
 30
0.0
 11
45.077461
 21
8.820873
 31
0.0
  0
LINE
  5
188
100
AcDbEntity
  8
1
370
    15
390
0
  6
Continuous
 62
     1
100
AcDbLine
 10
45.077461
 20
8.820873
 30
0.0
 11
45.113079
 21
8.856477
 31
0.0
  0
LINE
  5
189
100
AcDbEntity
  8
1
370
    15
390
0
  6
Continuous
 62
     1
100
AcDbLine
 10
45.175179
 20
8.959696
 30
0.0
 11
44.874111
 21
8.658626
 31
0.0
  0
LINE
  5
18A
100
AcDbEntity
  8
1
370
    15
390
0
  6
Continuous
 62
     1
100
AcDbLine
 10
45.190746
 20
9.063652
 30
0.0
 11
44.874111
 21
8.747017
 31
0.0
  0
LINE
  5
18B
100
AcDbEntity
  8
1
370
    15
390
0
  6
Continuous
 62
     1
100
AcDbLine
 10
45.229733
 20
9.191028
 30
0.0
 11
44.874111
 21
8.835407
 31
0.0
  0
LINE
  5
18C
100
AcDbEntity
  8
1
370
    15
390
0
  6
Continuous
 62
     1
100
AcDbLine
 10
45.233696
 20
9.28338
 30
0.0
 11
44.874111
 21
8.923795
 31
0.0
  0
LINE
  5
18D
100
AcDbEntity
  8
1
370
    15
390
0
  6
LT22
 62
     1
100
AcDbLine
 10
45.374111
 20
15.251652
 30
0.0
 11
45.143383
 21
15.251652
 31
0.0
  0
LINE
  5
18E
100
AcDbEntity
  8
1
370
    15
390
0
  6
LT22
 62
     1
100
AcDbLine
 10
45.374111
 20
15.251652
 30
0.0
 11
45.249111
 21
15.179486
 31
0.0
  0
LINE
  5
18F
100
AcDbEntity
  8
1
370
    15
390
0
  6
LT22
 62
     1
100
AcDbLine
 10
45.249111
 20
14.844655
 30
0.0
 11
45.249111
 21
15.179486
 31
0.0
  0
LINE
  5
190
100
AcDbEntity
  8
1
370
    15
390
0
  6
LT22
 62
     1
100
AcDbLine
 10
45.249111
 20
15.179486
 30
0.0
 11
45.143383
 21
15.179486
 31
0.0
  0
LINE
  5
191
100
AcDbEntity
  8
1
370
    15
390
0
  6
Continuous
 62
     1
100
AcDbLine
 10
45.388245
 20
15.175427
 30
0.0
 11
45.392963
 21
15.231374
 31
0.0
  0
LINE
  5
192
100
AcDbEntity
  8
1
370
    15
390
0
  6
Continuous
 62
     1
100
AcDbLine
 10
45.392963
 20
15.231374
 30
0.0
 11
45.40744
 21
15.329877
 31
0.0
  0
LINE
  5
193
100
AcDbEntity
  8
1
370
    15
390
0
  6
Continuous
 62
     1
100
AcDbLine
 10
45.40744
 20
15.329877
 30
0.0
 11
45.419022
 21
15.417123
 31
0.0
  0
LINE
  5
194
100
AcDbEntity
  8
1
370
    15
390
0
  6
Continuous
 62
     1
100
AcDbLine
 10
45.419022
 20
15.417123
 30
0.0
 11
45.410336
 21
15.501553
 31
0.0
  0
LINE
  5
195
100
AcDbEntity
  8
1
370
    15
390
0
  6
Continuous
 62
     1
100
AcDbLine
 10
45.410336
 20
15.501553
 30
0.0
 11
45.40165
 21
15.605687
 31
0.0
  0
LINE
  5
196
100
AcDbEntity
  8
1
370
    15
390
0
  6
Continuous
 62
     1
100
AcDbLine
 10
45.40165
 20
15.605687
 30
0.0
 11
45.374111
 21
15.605687
 31
0.0
  0
LINE
  5
197
100
AcDbEntity
  8
1
370
    15
390
0
  6
LT22
 62
     1
100
AcDbLine
 10
45.374111
 20
15.605687
 30
0.0
 11
45.374111
 21
15.251652
 31
0.0
  0
LINE
  5
198
100
AcDbEntity
  8
1
370
    15
390
0
  6
LT22
 62
     1
100
AcDbLine
 10
43.291111
 20
14.817353
 30
0.0
 11
43.291111
 21
14.626652
 31
0.0
  0
LINE
  5
199
100
AcDbEntity
  8
1
370
    15
390
0
  6
LT22
 62
     1
100
AcDbLine
 10
43.291111
 20
14.817353
 30
0.0
 11
43.21611
 21
14.860654
 31
0.0
  0
LINE
  5
19A
100
AcDbEntity
  8
1
370
    15
390
0
  6
LT22
 62
     1
100
AcDbLine
 10
43.339611
 20
14.598653
 30
0.0
 11
43.291111
 21
14.626652
 31
0.0
  0
LINE
  5
19B
100
AcDbEntity
  8
1
370
    15
390
0
  6
Continuous
 62
     7
100
AcDbLine
 10
43.33511
 20
12.755214
 30
0.0
 11
43.310612
 21
12.797653
 31
0.0
  0
LINE
  5
19C
100
AcDbEntity
  8
1
370
    15
390
0
  6
Continuous
 62
     7
100
AcDbLine
 10
43.33511
 20
12.755214
 30
0.0
 11
43.33511
 21
11.297653
 31
0.0
  0
LINE
  5
19D
100
AcDbEntity
  8
1
370
    15
390
0
  6
Continuous
 62
     7
100
AcDbLine
 10
43.358612
 20
11.25695
 30
0.0
 11
43.33511
 21
11.297653
 31
0.0
  0
LINE
  5
19E
100
AcDbEntity
  8
1
370
    15
390
0
  6
Continuous
 62
     7
100
AcDbLine
 10
43.358612
 20
11.25695
 30
0.0
 11
43.358612
 21
9.797653
 31
0.0
  0
LINE
  5
19F
100
AcDbEntity
  8
1
370
    15
390
0
  6
Continuous
 62
     7
100
AcDbLine
 10
43.382111
 20
9.75695
 30
0.0
 11
43.358612
 21
9.797653
 31
0.0
  0
LINE
  5
1A0
100
AcDbEntity
  8
1
370
    15
390
0
  6
Continuous
 62
     7
100
AcDbLine
 10
43.382111
 20
9.756948
 30
0.0
 11
43.382111
 21
9.305654
 31
0.0
  0
LINE
  5
1A1
100
AcDbEntity
  8
1
370
    15
390
0
  6
LT22
 62
     1
100
AcDbLine
 10
43.216114
 20
15.426408
 30
0.0
 11
43.21611
 21
14.860654
 31
0.0
  0
LINE
  5
1A2
100
AcDbEntity
  8
1
370
    15
390
0
  6
Continuous
 62
     7
100
AcDbLine
 10
43.260113
 20
14.789403
 30
0.0
 11
43.246109
 21
14.813653
 31
0.0
  0
CIRCLE
  5
1A4
100
AcDbEntity
  8
1
370
    15
390
0
  6
DIVIDE
 62
     1
100
AcDbCircle
 10
43.250023
 20
14.803776
 30
0.0
 40
0.072035
  0
LINE
  5
1A5
100
AcDbEntity
  8
1
370
    15
390
0
  6
LT22
 62
     1
100
AcDbLine
 10
43.339611
 20
12.829653
 30
0.0
 11
43.339611
 21
14.598653
 31
0.0
  0
LINE
  5
1A6
100
AcDbEntity
  8
1
370
    15
390
0
  6
LT22
 62
     1
100
AcDbLine
 10
43.364613
 20
12.81522
 30
0.0
 11
43.339611
 21
12.829653
 31
0.0
  0
LINE
  5
1A7
100
AcDbEntity
  8
1
370
    15
390
0
  6
LT22
 62
     1
100
AcDbLine
 10
43.364613
 20
12.81522
 30
0.0
 11
43.364613
 21
11.329653
 31
0.0
  0
LINE
  5
1A8
100
AcDbEntity
  8
1
370
    15
390
0
  6
LT22
 62
     1
100
AcDbLine
 10
43.388111
 20
11.316086
 30
0.0
 11
43.364613
 21
11.329653
 31
0.0
  0
LINE
  5
1A9
100
AcDbEntity
  8
1
370
    15
390
0
  6
LT22
 62
     1
100
AcDbLine
 10
43.388111
 20
11.316086
 30
0.0
 11
43.388111
 21
9.829653
 31
0.0
  0
LINE
  5
1AA
100
AcDbEntity
  8
1
370
    15
390
0
  6
LT22
 62
     1
100
AcDbLine
 10
43.41161
 20
9.816086
 30
0.0
 11
43.388111
 21
9.829653
 31
0.0
  0
LINE
  5
1AB
100
AcDbEntity
  8
1
370
    15
390
0
  6
LT22
 62
     1
100
AcDbLine
 10
43.41161
 20
9.816086
 30
0.0
 11
43.41161
 21
9.454653
 31
0.0
  0
LINE
  5
1AC
100
AcDbEntity
  8
1
370
    15
390
0
  6
DIVIDE
 62
     1
100
AcDbLine
 10
43.958435
 20
8.022337
 30
0.0
 11
43.562111
 21
8.251152
 31
0.0
  0
LINE
  5
1AD
100
AcDbEntity
  8
1
370
    15
390
0
  6
DIVIDE
 62
     1
100
AcDbLine
 10
43.958435
 20
8.022337
 30
0.0
 11
43.975052
 21
8.026062
 31
0.0
  0
LINE
  5
1AE
100
AcDbEntity
  8
1
370
    15
390
0
  6
DIVIDE
 62
     1
100
AcDbLine
 10
43.975052
 20
8.026062
 30
0.0
 11
43.984058
 21
8.032816
 31
0.0
  0
LINE
  5
1AF
100
AcDbEntity
  8
1
370
    15
390
0
  6
DIVIDE
 62
     1
100
AcDbLine
 10
43.984058
 20
8.032816
 30
0.0
 11
43.999825
 21
8.032816
 31
0.0
  0
LINE
  5
1B0
100
AcDbEntity
  8
1
370
    15
390
0
  6
DIVIDE
 62
     1
100
AcDbLine
 10
43.999825
 20
8.032816
 30
0.0
 11
44.015591
 21
8.035068
 31
0.0
  0
LINE
  5
1B1
100
AcDbEntity
  8
1
370
    15
390
0
  6
DIVIDE
 62
     1
100
AcDbLine
 10
44.015591
 20
8.035068
 30
0.0
 11
44.031353
 21
8.032816
 31
0.0
  0
LINE
  5
1B2
100
AcDbEntity
  8
1
370
    15
390
0
  6
DIVIDE
 62
     1
100
AcDbLine
 10
44.031353
 20
8.032816
 30
0.0
 11
44.047119
 21
8.028314
 31
0.0
  0
LINE
  5
1B3
100
AcDbEntity
  8
1
370
    15
390
0
  6
DIVIDE
 62
     1
100
AcDbLine
 10
44.047119
 20
8.028314
 30
0.0
 11
44.05838
 21
8.026062
 31
0.0
  0
LINE
  5
1B4
100
AcDbEntity
  8
1
370
    15
390
0
  6
DIVIDE
 62
     1
100
AcDbLine
 10
44.05838
 20
8.026062
 30
0.0
 11
44.074146
 21
8.028314
 31
0.0
  0
LINE
  5
1B5
100
AcDbEntity
  8
1
370
    15
390
0
  6
DIVIDE
 62
     1
100
AcDbLine
 10
44.074146
 20
8.028314
 30
0.0
 11
44.092163
 21
8.039572
 31
0.0
  0
LINE
  5
1B6
100
AcDbEntity
  8
1
370
    15
390
0
  6
DIVIDE
 62
     1
100
AcDbLine
 10
44.092163
 20
8.039572
 30
0.0
 11
44.116936
 21
8.050829
 31
0.0
  0
LINE
  5
1B7
100
AcDbEntity
  8
1
370
    15
390
0
  6
DIVIDE
 62
     1
100
AcDbLine
 10
44.116936
 20
8.050829
 30
0.0
 11
44.139458
 21
8.050829
 31
0.0
  0
LINE
  5
1B8
100
AcDbEntity
  8
1
370
    15
390
0
  6
DIVIDE
 62
     1
100
AcDbLine
 10
44.139458
 20
8.050829
 30
0.0
 11
44.155224
 21
8.050829
 31
0.0
  0
LINE
  5
1B9
100
AcDbEntity
  8
1
370
    15
390
0
  6
DIVIDE
 62
     1
100
AcDbLine
 10
44.155224
 20
8.050829
 30
0.0
 11
44.173241
 21
8.044073
 31
0.0
  0
LINE
  5
1BA
100
AcDbEntity
  8
1
370
    15
390
0
  6
DIVIDE
 62
     1
100
AcDbLine
 10
44.173241
 20
8.044073
 30
0.0
 11
44.189007
 21
8.032816
 31
0.0
  0
LINE
  5
1BB
100
AcDbEntity
  8
1
370
    15
390
0
  6
DIVIDE
 62
     1
100
AcDbLine
 10
44.189007
 20
8.032816
 30
0.0
 11
44.218113
 21
8.030565
 31
0.0
  0
LINE
  5
1BC
100
AcDbEntity
  8
1
370
    15
390
0
  6
LT22
 62
     1
100
AcDbLine
 10
43.41161
 20
9.454653
 30
0.0
 11
44.218113
 21
8.989021
 31
0.0
  0
LINE
  5
1BD
100
AcDbEntity
  8
1
370
    15
390
0
  6
Continuous
 62
     7
100
AcDbLine
 10
43.382111
 20
9.305654
 30
0.0
 11
43.669685
 21
9.305654
 31
0.0
  0
LINE
  5
1BE
100
AcDbEntity
  8
1
370
    15
390
0
  6
DIVIDE
 62
     1
100
AcDbLine
 10
43.562111
 20
9.305654
 30
0.0
 11
43.562111
 21
8.251152
 31
0.0
  0
LINE
  5
1BF
100
AcDbEntity
  8
1
370
    15
390
0
  6
Continuous
 62
     1
100
AcDbLine
 10
45.278423
 20
10.253345
 30
0.0
 11
45.278423
 21
10.161857
 31
0.0
  0
LINE
  5
1C0
100
AcDbEntity
  8
3
370
    15
390
0
  6
Continuous
 62
     1
100
AcDbLine
 10
43.321377
 20
14.813653
 30
0.0
 11
43.945206
 21
14.813653
 31
0.0
  0
LINE
  5
1C1
100
AcDbEntity
  8
3
370
    15
390
0
  6
Continuous
 62
     1
100
AcDbLine
 10
43.449169
 20
14.533265
 30
0.0
 11
43.449169
 21
14.813653
 31
0.0
  0
LINE
  5
1C2
100
AcDbEntity
  8
3
370
    15
390
0
  6
Continuous
 62
     1
100
AcDbLine
 10
43.26611
 20
14.860654
 30
0.0
 11
43.697189
 21
14.860654
 31
0.0
  0
LINE
  5
1C3
100
AcDbEntity
  8
4
370
    15
390
0
  6
Continuous
 62
     7
100
AcDbLine
 10
42.580277
 20
15.034531
 30
0.0
 11
42.660305
 21
15.202866
 31
0.0
  0
LINE
  5
1C4
100
AcDbEntity
  8
3
370
    15
390
0
  6
Continuous
 62
     1
100
AcDbLine
 10
42.496193
 20
15.12003
 30
0.0
 11
41.830257
 21
15.12003
 31
0.0
  0
LINE
  5
1C5
100
AcDbEntity
  8
4
370
    15
390
0
  6
Continuous
 62
     7
100
AcDbLine
 10
42.580277
 20
9.445802
 30
0.0
 11
42.660305
 21
9.614137
 31
0.0
  0
LINE
  5
1C6
100
AcDbEntity
  8
3
370
    15
390
0
  6
Continuous
 62
     1
100
AcDbLine
 10
42.496193
 20
9.531301
 30
0.0
 11
41.830257
 21
9.531301
 31
0.0
  0
LINE
  5
1C7
100
AcDbEntity
  8
3
370
    15
390
0
  6
Continuous
 62
     1
100
AcDbLine
 10
43.382111
 20
9.305654
 30
0.0
 11
43.00874
 21
8.933801
 31
0.0
  0
LINE
  5
1C8
100
AcDbEntity
  8
3
370
    15
390
0
  6
Continuous
 62
     1
100
AcDbLine
 10
42.671818
 20
8.933801
 30
0.0
 11
43.00874
 21
8.933801
 31
0.0
  0
LINE
  5
1C9
100
AcDbEntity
  8
3
370
    15
390
0
  6
Continuous
 62
     1
100
AcDbLine
 10
43.358612
 20
11.25695
 30
0.0
 11
43.051765
 21
11.062179
 31
0.0
  0
LINE
  5
1CA
100
AcDbEntity
  8
2
370
    15
390
0
  6
Continuous
 62
     7
100
AcDbLine
 10
45.025379
 20
16.001652
 30
0.0
 11
45.143383
 21
15.933655
 31
0.0
  0
ARC
  5
1CB
100
AcDbEntity
  8
2
370
    15
390
0
  6
Continuous
 62
     7
100
AcDbCircle
 10
44.911096
 20
15.570934
 30
0.0
 40
0.43072
100
AcDbArc
 50
62.727362
 51
122.63462
  0
ARC
  5
1CC
100
AcDbEntity
  8
2
370
    15
390
0
  6
Continuous
 62
     7
100
AcDbCircle
 10
44.216322
 20
14.394793
 30
0.0
 40
1.606861
100
AcDbArc
 50
73.272153
 51
89.936121
  0
LINE
  5
1CD
100
AcDbEntity
  8
2
370
    15
390
0
  6
Continuous
 62
     7
100
AcDbLine
 10
44.218113
 20
16.001652
 30
0.0
 11
45.025379
 21
16.001652
 31
0.0
  0
LINE
  5
1CE
100
AcDbEntity
  8
2
370
    15
390
0
  6
Continuous
 62
     7
100
AcDbLine
 10
44.678818
 20
15.064213
 30
0.0
 11
44.678818
 21
15.933655
 31
0.0
  0
LINE
  5
1CF
100
AcDbEntity
  8
2
370
    15
390
0
  6
Continuous
 62
     7
100
AcDbLine
 10
45.143383
 20
15.0644
 30
0.0
 11
45.143383
 21
15.933655
 31
0.0
  0
LINE
  5
1D0
100
AcDbEntity
  8
1
370
    15
390
0
  6
Continuous
 62
     7
100
AcDbLine
 10
44.218113
 20
13.579418
 30
0.0
 11
44.218113
 21
16.001652
 31
0.0
  0
LINE
  5
1D1
100
AcDbEntity
  8
3
370
    15
390
0
  6
Continuous
 62
     1
100
AcDbLine
 10
43.260113
 20
14.594655
 30
0.0
 11
43.414589
 21
14.594655
 31
0.0
  0
LINE
  5
1D2
100
AcDbEntity
  8
3
370
    15
390
0
  6
Continuous
 62
     1
100
AcDbLine
 10
43.310612
 20
14.544152
 30
0.0
 11
43.414589
 21
14.544152
 31
0.0
  0
LINE
  5
1D3
100
AcDbEntity
  8
3
370
    15
390
0
  6
Continuous
 62
     1
100
AcDbLine
 10
43.273113
 20
13.938652
 30
0.0
 11
43.414589
 21
13.938652
 31
0.0
  0
LINE
  5
1D4
100
AcDbEntity
  8
3
370
    15
390
0
  6
Continuous
 62
     1
100
AcDbLine
 10
43.260113
 20
14.789403
 30
0.0
 11
43.414589
 21
14.789403
 31
0.0
  0
LINE
  5
1D5
100
AcDbEntity
  8
3
370
    15
390
0
  6
Continuous
 62
     1
100
AcDbLine
 10
43.33511
 20
12.755214
 30
0.0
 11
43.443943
 21
12.755214
 31
0.0
  0
LINE
  5
1D6
100
AcDbEntity
  8
3
370
    15
390
0
  6
Continuous
 62
     1
100
AcDbLine
 10
43.310612
 20
12.797653
 30
0.0
 11
43.443943
 21
12.797653
 31
0.0
  0
LINE
  5
1D7
100
AcDbEntity
  8
3
370
    15
390
0
  6
Continuous
 62
     1
100
AcDbLine
 10
43.358612
 20
11.25695
 30
0.0
 11
43.443943
 21
11.25695
 31
0.0
  0
LINE
  5
1D8
100
AcDbEntity
  8
3
370
    15
390
0
  6
Continuous
 62
     1
100
AcDbLine
 10
43.33511
 20
11.297653
 30
0.0
 11
43.443943
 21
11.297653
 31
0.0
  0
LINE
  5
1D9
100
AcDbEntity
  8
3
370
    15
390
0
  6
Continuous
 62
     1
100
AcDbLine
 10
43.382111
 20
9.756948
 30
0.0
 11
43.443943
 21
9.756948
 31
0.0
  0
LINE
  5
1DA
100
AcDbEntity
  8
3
370
    15
390
0
  6
Continuous
 62
     1
100
AcDbLine
 10
43.358612
 20
9.797653
 30
0.0
 11
43.443943
 21
9.797653
 31
0.0
  0
TEXT
  5
1DB
100
AcDbEntity
  8
0
370
    15
390
0
  6
Continuous
 62
     7
100
AcDbText
 10
38.700382
 20
14.286111
 30
0.0
 40
0.065844
  1
LET
 50
270.0
  7
Vcadd_SIMP
100
AcDbText
  0
TEXT
  5
1DC
100
AcDbEntity
  8
0
370
    15
390
0
  6
Continuous
 62
     7
100
AcDbText
 10
38.700405
 20
13.178829
 30
0.0
 40
0.065844
  1
REVISION 
 50
270.0
  7
Vcadd_SIMP
100
AcDbText
  0
TEXT
  5
1DD
100
AcDbEntity
  8
0
370
    15
390
0
  6
Continuous
 62
     7
100
AcDbText
 10
38.698376
 20
11.577661
 30
0.0
 40
0.065844
  1
DATE 
 50
270.0
  7
Vcadd_SIMP
100
AcDbText
  0
TEXT
  5
1DE
100
AcDbEntity
  8
0
370
    15
390
0
  6
Continuous
 62
     7
100
AcDbText
 10
38.69854
 20
11.163639
 30
0.0
 40
0.065844
  1
DRN 
 50
270.0
  7
Vcadd_SIMP
100
AcDbText
  0
TEXT
  5
1DF
100
AcDbEntity
  8
0
370
    15
390
0
  6
Continuous
 62
     7
100
AcDbText
 10
38.698212
 20
10.916168
 30
0.0
 40
0.065844
  1
CHK 
 50
270.0
  7
Vcadd_SIMP
100
AcDbText
  0
TEXT
  5
1E0
100
AcDbEntity
  8
0
370
    15
390
0
  6
Continuous
 62
     7
100
AcDbText
 10
38.69854
 20
10.667141
 30
0.0
 40
0.065844
  1
REL
 50
270.0
  7
Vcadd_SIMP
100
AcDbText
  0
TEXT
  5
1E1
100
AcDbEntity
  8
0
370
    15
390
0
  6
Continuous
 62
     7
100
AcDbText
 10
39.909649
 20
9.408943
 30
0.0
 40
0.062
  1
TITLE
 50
270.0
  7
Vcadd_SIMP
100
AcDbText
  0
TEXT
  5
1E2
100
AcDbEntity
  8
0
370
    15
390
0
  6
Continuous
 62
     7
100
AcDbText
 10
39.909679
 20
6.407755
 30
0.0
 40
0.062
  1
REVISION
 50
270.0
  7
Vcadd_SIMP
100
AcDbText
  0
TEXT
  5
1E3
100
AcDbEntity
  8
0
370
    15
390
0
  6
Continuous
 62
     7
100
AcDbText
 10
39.489536
 20
9.417459
 30
0.0
 40
0.062
  1
SCALE
 50
270.0
  7
Vcadd_SIMP
100
AcDbText
  0
TEXT
  5
1E4
100
AcDbEntity
  8
0
370
    15
390
0
  6
Continuous
 62
     7
100
AcDbText
 10
39.489536
 20
9.417459
 30
0.0
 40
0.062
  1
      REF.                
 50
270.0
  7
Vcadd_SIMP
100
AcDbText
  0
TEXT
  5
1E5
100
AcDbEntity
  8
0
370
    15
390
0
  6
Continuous
 62
     7
100
AcDbText
 10
39.489536
 20
7.78368
 30
0.0
 40
0.062
  1
MATERIAL
 50
270.0
  7
Vcadd_SIMP
100
AcDbText
  0
TEXT
  5
1E6
100
AcDbEntity
  8
0
370
    15
390
0
  6
Continuous
 62
     7
100
AcDbText
 10
39.122185
 20
9.412393
 30
0.0
 40
0.062
  1
DRAWN    
 50
270.0
  7
Vcadd_SIMP
100
AcDbText
  0
TEXT
  5
1E7
100
AcDbEntity
  8
0
370
    15
390
0
  6
Continuous
 62
     7
100
AcDbText
 10
39.122185
 20
8.876705
 30
0.0
 40
0.062
  1
CHECK 
 50
270.0
  7
Vcadd_SIMP
100
AcDbText
  0
TEXT
  5
1E8
100
AcDbEntity
  8
0
370
    15
390
0
  6
Continuous
 62
     7
100
AcDbText
 10
39.122185
 20
8.335951
 30
0.0
 40
0.062
  1
RELEASE
 50
270.0
  7
Vcadd_SIMP
100
AcDbText
  0
TEXT
  5
1E9
100
AcDbEntity
  8
0
370
    15
390
0
  6
Continuous
 62
     7
100
AcDbText
 10
38.832966
 20
9.406362
 30
0.0
 40
0.062
  1
DATE     
 50
270.0
  7
Vcadd_SIMP
100
AcDbText
  0
TEXT
  5
1EA
100
AcDbEntity
  8
0
370
    15
390
0
  6
Continuous
 62
     7
100
AcDbText
 10
38.832966
 20
8.870674
 30
0.0
 40
0.062
  1
DATE  
 50
270.0
  7
Vcadd_SIMP
100
AcDbText
  0
TEXT
  5
1EB
100
AcDbEntity
  8
0
370
    15
390
0
  6
Continuous
 62
     7
100
AcDbText
 10
38.832966
 20
8.32992
 30
0.0
 40
0.062
  1
DATE
 50
270.0
  7
Vcadd_SIMP
100
AcDbText
  0
TEXT
  5
1EC
100
AcDbEntity
  8
0
370
    15
390
0
  6
Continuous
 62
     7
100
AcDbText
 10
39.122185
 20
7.786943
 30
0.0
 40
0.062
  1
HEAT TREAT & FINISH
 50
270.0
  7
Vcadd_SIMP
100
AcDbText
  0
TEXT
  5
1ED
100
AcDbEntity
  8
0
370
    15
390
0
  6
Continuous
 62
     7
100
AcDbText
 10
39.909679
 20
6.221754
 30
0.0
 40
0.062
  1
      PART NO.
 50
270.0
  7
Vcadd_SIMP
100
AcDbText
  0
TEXT
  5
1EE
100
AcDbEntity
  8
0
370
    15
390
0
  6
Continuous
 62
     7
100
AcDbText
 10
48.538727
 20
6.420208
 30
0.0
 40
0.062
  1
REVISION PART NO.
 50
270.0
  7
Vcadd_SIMP
100
AcDbText
  0
TEXT
  5
1EF
100
AcDbEntity
  8
0
370
    15
390
0
  6
Continuous
 62
     7
100
AcDbText
 10
38.986179
 20
9.256271
 30
0.0
 40
0.094
  1
RG
 50
270.0
  7
Vcadd_SIMP
100
AcDbText
  0
TEXT
  5
1F0
100
AcDbEntity
  8
0
370
    15
390
0
  6
Continuous
 62
     7
100
AcDbText
 10
38.695946
 20
9.365055
 30
0.0
 40
0.062
  1
3-9-88 
 50
270.0
  7
Vcadd_SIMP
100
AcDbText
  0
TEXT
  5
1F1
100
AcDbEntity
  8
4
370
    15
390
0
  6
Continuous
 62
     7
100
AcDbText
 10
42.562588
 20
15.049695
 30
0.0
 40
0.16275
  1
O
  7
Vcadd_SIMP
100
AcDbText
  0
TEXT
  5
1F2
100
AcDbEntity
  8
4
370
    15
390
0
  6
Continuous
 62
     7
100
AcDbText
 10
42.562588
 20
9.460966
 30
0.0
 40
0.16275
  1
O
  7
Vcadd_SIMP
100
AcDbText
  0
LINE
  5
1F3
100
AcDbEntity
  8
0
370
    15
390
0
  6
Continuous
 62
     7
100
AcDbLine
 10
40.029131
 20
3.697288
 30
0.0
 11
40.029131
 21
3.697288
 31
0.0
  0
LINE
  5
1F4
100
AcDbEntity
  8
4
370
    15
390
0
  6
Continuous
 62
     7
100
AcDbLine
 10
43.704444
 20
6.978751
 30
0.0
 11
44.07191
 21
6.978751
 31
0.0
  0
LINE
  5
1F5
100
AcDbEntity
  8
4
370
    15
390
0
  6
Continuous
 62
     7
100
AcDbLine
 10
44.07191
 20
6.978751
 30
0.0
 11
44.07191
 21
7.310338
 31
0.0
  0
LINE
  5
1F6
100
AcDbEntity
  8
4
370
    15
390
0
  6
Continuous
 62
     7
100
AcDbLine
 10
44.07191
 20
7.310338
 30
0.0
 11
43.704444
 21
7.310338
 31
0.0
  0
LINE
  5
1F7
100
AcDbEntity
  8
4
370
    15
390
0
  6
Continuous
 62
     7
100
AcDbLine
 10
43.704444
 20
7.310338
 30
0.0
 11
43.704444
 21
6.978751
 31
0.0
  0
CIRCLE
  5
1F8
100
AcDbEntity
  8
4
370
    15
390
0
  6
Continuous
 62
     7
100
AcDbCircle
 10
43.888177
 20
7.144545
 30
0.0
 40
0.129336
  0
CIRCLE
  5
1F9
100
AcDbEntity
  8
4
370
    15
390
0
  6
Continuous
 62
     7
100
AcDbCircle
 10
43.888177
 20
7.144545
 30
0.0
 40
0.057001
  0
HATCH
  5
1FA
100
AcDbEntity
  8
4
370
     0
390
0
  6
Continuous
 62
     7
100
AcDbHatch
 10
0.0
 20
0.0
 30
0.0
210
0.0
220
0.0
230
1.0
  2
SOLID
 70
     1
 71
     0
 91
        1
 92
        1
 93
        1
 72
     2
 10
43.888176832550776
 20
7.1445446606587666
 40
0.0570005946738519
 50
0.0
 51
360.0
 73
     1
 97
        0
 75
     0
 76
     1
 98
        1
 10
0.0
 20
0.0
  0
LINE
  5
1FB
100
AcDbEntity
  8
4
370
    15
390
0
  6
Continuous
 62
     7
100
AcDbLine
 10
44.07191
 20
7.310338
 30
0.0
 11
45.055496
 21
7.310338
 31
0.0
  0
LINE
  5
1FC
100
AcDbEntity
  8
4
370
    15
390
0
  6
Continuous
 62
     7
100
AcDbLine
 10
44.07191
 20
6.978751
 30
0.0
 11
45.055496
 21
6.978751
 31
0.0
  0
LINE
  5
1FD
100
AcDbEntity
  8
4
370
    15
390
0
  6
Continuous
 62
     7
100
AcDbLine
 10
45.055496
 20
7.310338
 30
0.0
 11
45.055496
 21
6.978751
 31
0.0
  0
LINE
  5
1FE
100
AcDbEntity
  8
4
370
    15
390
0
  6
Continuous
 62
     7
100
AcDbLine
 10
45.055496
 20
6.978751
 30
0.0
 11
45.422962
 21
6.978751
 31
0.0
  0
LINE
  5
1FF
100
AcDbEntity
  8
4
370
    15
390
0
  6
Continuous
 62
     7
100
AcDbLine
 10
45.422962
 20
6.978751
 30
0.0
 11
45.422962
 21
7.310338
 31
0.0
  0
LINE
  5
200
100
AcDbEntity
  8
4
370
    15
390
0
  6
Continuous
 62
     7
100
AcDbLine
 10
45.422962
 20
7.310338
 30
0.0
 11
45.055496
 21
7.310338
 31
0.0
  0
TEXT
  5
201
100
AcDbEntity
  8
4
370
    15
390
0
  6
Continuous
 62
     7
100
AcDbText
 10
45.102106
 20
7.016956
 30
0.0
 40
0.24
  1
A
  7
Vcadd_SIMP
 72
     1
 11
45.240106
 21
7.016956
 31
0.0
100
AcDbText
  0
LINE
  5
202
100
AcDbEntity
  8
3
370
    15
390
0
  6
Continuous
 62
     1
100
AcDbLine
 10
43.945206
 20
14.813653
 30
0.0
 11
43.945206
 21
17.192506
 31
0.0
  0
LINE
  5
203
100
AcDbEntity
  8
3
370
    15
390
0
  6
Continuous
 62
     1
100
AcDbLine
 10
43.697189
 20
14.860654
 30
0.0
 11
43.697189
 21
17.650635
 31
0.0
  0
LINE
  5
204
100
AcDbEntity
  8
3
370
    15
390
0
  6
Continuous
 62
     1
100
AcDbLine
 10
43.449169
 20
14.860654
 30
0.0
 11
43.449169
 21
18.108636
 31
0.0
  0
LINE
  5
205
100
AcDbEntity
  8
3
370
    15
390
0
  6
Continuous
 62
     1
100
AcDbLine
 10
44.068922
 20
17.192506
 30
0.0
 11
43.945206
 21
17.192506
 31
0.0
  0
LINE
  5
206
100
AcDbEntity
  8
3
370
    15
390
0
  6
Continuous
 62
     1
100
AcDbLine
 10
44.068922
 20
17.650635
 30
0.0
 11
43.697189
 21
17.650635
 31
0.0
  0
LINE
  5
207
100
AcDbEntity
  8
3
370
    15
390
0
  6
Continuous
 62
     1
100
AcDbLine
 10
44.884895
 20
11.813654
 30
0.0
 11
47.817916
 21
11.813654
 31
0.0
  0
LINE
  5
208
100
AcDbEntity
  8
1
370
    15
390
0
  6
Continuous
 62
     1
100
AcDbLine
 10
45.278423
 20
13.375068
 30
0.0
 11
45.278423
 21
13.309063
 31
0.0
  0
LINE
  5
209
100
AcDbEntity
  8
1
370
    15
390
0
  6
Continuous
 62
     1
100
AcDbLine
 10
45.287575
 20
12.13801
 30
0.0
 11
45.29432
 21
12.030123
 31
0.0
  0
TEXT
  5
20A
100
AcDbEntity
  8
0
370
    15
390
0
  6
Continuous
 62
     7
100
AcDbText
 10
39.308662
 20
9.399282
 30
0.0
 40
0.094
  1
1:1
 50
270.0
  7
Vcadd_SIMP
100
AcDbText
  0
TEXT
  5
20B
100
AcDbEntity
  8
4
370
    15
390
0
  6
Continuous
 62
     7
100
AcDbText
 10
41.035281
 20
14.846547
 30
0.0
 40
0.142
  1
L.S.
  7
Vcadd_SIMP
100
AcDbText
  0
LINE
  5
20C
100
AcDbEntity
  8
3
370
    15
390
0
  6
Continuous
 62
     1
100
AcDbLine
 10
43.277161
 20
12.797653
 30
0.0
 11
40.969092
 21
12.797656
 31
0.0
  0
LINE
  5
20D
100
AcDbEntity
  8
1
370
    15
390
0
  6
Continuous
 62
     1
100
AcDbLine
 10
43.295883
 20
11.297653
 30
0.0
 11
40.969092
 21
11.297653
 31
0.0
  0
LINE
  5
20E
100
AcDbEntity
  8
3
370
    15
390
0
  6
Continuous
 62
     1
100
AcDbLine
 10
43.319351
 20
9.797653
 30
0.0
 11
40.969092
 21
9.797653
 31
0.0
  0
LINE
  5
20F
100
AcDbEntity
  8
3
370
    15
390
0
  6
Continuous
 62
     1
100
AcDbLine
 10
43.308865
 20
9.305654
 30
0.0
 11
40.969092
 21
9.305654
 31
0.0
  0
LINE
  5
210
100
AcDbEntity
  8
3
370
    15
390
0
  6
Continuous
 62
     1
100
AcDbLine
 10
43.051765
 20
11.062179
 30
0.0
 11
42.933486
 21
11.062179
 31
0.0
  0
LINE
  5
211
100
AcDbEntity
  8
3
370
    15
390
0
  6
Continuous
 62
     1
100
AcDbLine
 10
43.33511
 20
12.755214
 30
0.0
 11
43.028263
 21
12.560444
 31
0.0
  0
LINE
  5
212
100
AcDbEntity
  8
3
370
    15
390
0
  6
Continuous
 62
     1
100
AcDbLine
 10
43.028263
 20
12.560444
 30
0.0
 11
42.909983
 21
12.560444
 31
0.0
  0
LINE
  5
213
100
AcDbEntity
  8
4
370
    15
390
0
  6
Continuous
 62
     1
100
AcDbLine
 10
43.382111
 20
9.756948
 30
0.0
 11
43.170567
 21
9.614348
 31
0.0
  0
TEXT
  5
214
100
AcDbEntity
  8
4
370
    15
390
0
  6
Continuous
 62
     7
100
AcDbText
 10
41.964667
 20
11.11461
 30
0.0
 40
0.142
  1
**
  7
Vcadd_SIMP
100
AcDbText
  0
TEXT
  5
215
100
AcDbEntity
  8
4
370
    15
390
0
  6
Continuous
 62
     7
100
AcDbText
 10
41.964667
 20
12.617419
 30
0.0
 40
0.142
  1
**
  7
Vcadd_SIMP
100
AcDbText
  0
LINE
  5
216
100
AcDbEntity
  8
3
370
    15
390
0
  6
Continuous
 62
     1
100
AcDbLine
 10
43.382111
 20
9.531301
 30
0.0
 11
42.726197
 21
9.531301
 31
0.0
  0
LINE
  5
217
100
AcDbEntity
  8
3
370
    15
390
0
  6
Continuous
 62
     1
100
AcDbLine
 10
43.187111
 20
15.12003
 30
0.0
 11
42.726197
 21
15.12003
 31
0.0
  0
LINE
  5
218
100
AcDbEntity
  8
4
370
    15
390
0
  6
Continuous
 62
     1
100
AcDbLine
 10
42.790139
 20
9.589723
 30
0.0
 11
42.840913
 21
9.529072
 31
0.0
  0
LINE
  5
219
100
AcDbEntity
  8
4
370
    15
390
0
  6
Continuous
 62
     1
100
AcDbLine
 10
42.840913
 20
9.529072
 30
0.0
 11
43.017087
 21
9.738329
 31
0.0
  0
LINE
  5
21A
100
AcDbEntity
  8
4
370
    15
390
0
  6
Continuous
 62
     1
100
AcDbLine
 10
43.017087
 20
9.738329
 30
0.0
 11
42.913644
 21
9.738329
 31
0.0
  0
LINE
  5
21B
100
AcDbEntity
  8
3
370
    15
390
0
  6
Continuous
 62
     1
100
AcDbLine
 10
42.96562
 20
9.943665
 30
0.0
 11
42.803067
 21
9.943665
 31
0.0
  0
TEXT
  5
21C
100
AcDbEntity
  8
4
370
    15
390
0
  6
Continuous
 62
     7
100
AcDbText
 10
41.834248
 20
10.029348
 30
0.0
 40
0.142
  1
**
  7
Vcadd_SIMP
100
AcDbText
  0
LINE
  5
21D
100
AcDbEntity
  8
4
370
    15
390
0
  6
Continuous
 62
     1
100
AcDbLine
 10
43.170567
 20
9.614348
 30
0.0
 11
42.96562
 21
9.943665
 31
0.0
  0
LINE
  5
21E
100
AcDbEntity
  8
4
370
    15
390
0
  6
Continuous
 62
     7
100
AcDbLine
 10
42.580277
 20
10.603272
 30
0.0
 11
42.660305
 21
10.771606
 31
0.0
  0
LINE
  5
21F
100
AcDbEntity
  8
3
370
    15
390
0
  6
Continuous
 62
     1
100
AcDbLine
 10
42.496193
 20
10.688772
 30
0.0
 11
41.830257
 21
10.688772
 31
0.0
  0
TEXT
  5
220
100
AcDbEntity
  8
4
370
    15
390
0
  6
Continuous
 62
     7
100
AcDbText
 10
42.562588
 20
10.618437
 30
0.0
 40
0.16275
  1
O
  7
Vcadd_SIMP
100
AcDbText
  0
LINE
  5
221
100
AcDbEntity
  8
3
370
    15
390
0
  6
Continuous
 62
     1
100
AcDbLine
 10
43.358612
 20
10.688772
 30
0.0
 11
42.726197
 21
10.688772
 31
0.0
  0
LINE
  5
222
100
AcDbEntity
  8
4
370
    15
390
0
  6
Continuous
 62
     1
100
AcDbLine
 10
42.790139
 20
10.750725
 30
0.0
 11
42.840913
 21
10.690073
 31
0.0
  0
LINE
  5
223
100
AcDbEntity
  8
4
370
    15
390
0
  6
Continuous
 62
     1
100
AcDbLine
 10
42.840913
 20
10.690073
 30
0.0
 11
43.017087
 21
10.89933
 31
0.0
  0
LINE
  5
224
100
AcDbEntity
  8
4
370
    15
390
0
  6
Continuous
 62
     1
100
AcDbLine
 10
43.017087
 20
10.89933
 30
0.0
 11
42.913644
 21
10.89933
 31
0.0
  0
ARC
  5
225
100
AcDbEntity
  8
4
370
    15
390
0
  6
Continuous
 62
     1
100
AcDbCircle
 10
43.358612
 20
9.797653
 30
0.0
 40
0.769022
100
AcDbArc
 50
120.0
 51
141.09948
  0
ARC
  5
226
100
AcDbEntity
  8
4
370
    15
390
0
  6
Continuous
 62
     1
100
AcDbCircle
 10
43.358612
 20
9.797653
 30
0.0
 40
0.769022
100
AcDbArc
 50
68.514323
 51
90.0
  0
LINE
  5
227
100
AcDbEntity
  8
4
370
    15
390
0
  6
Continuous
 62
     1
100
AcDbLine
 10
43.308726
 20
9.884058
 30
0.0
 11
42.915108
 21
10.565825
 31
0.0
  0
LINE
  5
228
100
AcDbEntity
  8
4
370
    15
390
0
  6
Continuous
 62
     1
100
AcDbLine
 10
45.125165
 20
10.274785
 30
0.0
 11
45.125165
 21
10.274785
 31
0.0
  0
TEXT
  5
229
100
AcDbEntity
  8
4
370
    15
390
0
  6
Continuous
 62
     7
100
AcDbText
 10
42.333087
 20
10.239665
 30
0.0
 40
0.142
  1
30^  
  7
Vcadd_SIMP
100
AcDbText
  0
TEXT
  5
22A
100
AcDbEntity
  8
4
370
    15
390
0
  6
Continuous
 62
     7
100
AcDbText
 10
42.661125
 20
10.1253
 30
0.0
 40
0.142
  1
**
  7
Vcadd_SIMP
100
AcDbText
  0
ARC
  5
22B
100
AcDbEntity
  8
4
370
    15
390
0
  6
Continuous
 62
     1
100
AcDbCircle
 10
43.33511
 20
11.297653
 30
0.0
 40
0.769022
100
AcDbArc
 50
120.0
 51
141.09948
  0
ARC
  5
22C
100
AcDbEntity
  8
4
370
    15
390
0
  6
Continuous
 62
     1
100
AcDbCircle
 10
43.33511
 20
11.297653
 30
0.0
 40
0.769022
100
AcDbArc
 50
68.514323
 51
90.0
  0
LINE
  5
22D
100
AcDbEntity
  8
4
370
    15
390
0
  6
Continuous
 62
     1
100
AcDbLine
 10
43.285224
 20
11.384058
 30
0.0
 11
42.891606
 21
12.065825
 31
0.0
  0
TEXT
  5
22E
100
AcDbEntity
  8
4
370
    15
390
0
  6
Continuous
 62
     7
100
AcDbText
 10
42.309584
 20
11.739665
 30
0.0
 40
0.142
  1
30^  
  7
Vcadd_SIMP
100
AcDbText
  0
TEXT
  5
22F
100
AcDbEntity
  8
4
370
    15
390
0
  6
Continuous
 62
     7
100
AcDbText
 10
42.637623
 20
11.6253
 30
0.0
 40
0.142
  1
**
  7
Vcadd_SIMP
100
AcDbText
  0
LINE
  5
230
100
AcDbEntity
  8
4
370
    15
390
0
  6
Continuous
 62
     7
100
AcDbLine
 10
42.580277
 20
12.106552
 30
0.0
 11
42.660305
 21
12.274887
 31
0.0
  0
LINE
  5
231
100
AcDbEntity
  8
3
370
    15
390
0
  6
Continuous
 62
     1
100
AcDbLine
 10
42.496193
 20
12.192051
 30
0.0
 11
41.830257
 21
12.192051
 31
0.0
  0
TEXT
  5
232
100
AcDbEntity
  8
4
370
    15
390
0
  6
Continuous
 62
     7
100
AcDbText
 10
42.562588
 20
12.121716
 30
0.0
 40
0.16275
  1
O
  7
Vcadd_SIMP
100
AcDbText
  0
LINE
  5
233
100
AcDbEntity
  8
3
370
    15
390
0
  6
Continuous
 62
     1
100
AcDbLine
 10
42.726197
 20
12.192051
 30
0.0
 11
43.33511
 21
12.192051
 31
0.0
  0
LINE
  5
234
100
AcDbEntity
  8
4
370
    15
390
0
  6
Continuous
 62
     1
100
AcDbLine
 10
42.755044
 20
12.252026
 30
0.0
 11
42.805818
 21
12.191374
 31
0.0
  0
LINE
  5
235
100
AcDbEntity
  8
4
370
    15
390
0
  6
Continuous
 62
     1
100
AcDbLine
 10
42.805818
 20
12.191374
 30
0.0
 11
42.981992
 21
12.400631
 31
0.0
  0
LINE
  5
236
100
AcDbEntity
  8
4
370
    15
390
0
  6
Continuous
 62
     1
100
AcDbLine
 10
42.981992
 20
12.400631
 30
0.0
 11
42.878549
 21
12.400631
 31
0.0
  0
ARC
  5
237
100
AcDbEntity
  8
4
370
    15
390
0
  6
Continuous
 62
     1
100
AcDbCircle
 10
43.310612
 20
12.797653
 30
0.0
 40
0.769022
100
AcDbArc
 50
120.0
 51
141.09948
  0
ARC
  5
238
100
AcDbEntity
  8
4
370
    15
390
0
  6
Continuous
 62
     1
100
AcDbCircle
 10
43.310612
 20
12.797653
 30
0.0
 40
0.769022
100
AcDbArc
 50
68.514323
 51
90.0
  0
LINE
  5
239
100
AcDbEntity
  8
4
370
    15
390
0
  6
Continuous
 62
     1
100
AcDbLine
 10
43.260726
 20
12.884058
 30
0.0
 11
42.867108
 21
13.565825
 31
0.0
  0
TEXT
  5
23A
100
AcDbEntity
  8
4
370
    15
390
0
  6
Continuous
 62
     7
100
AcDbText
 10
42.285086
 20
13.239665
 30
0.0
 40
0.142
  1
30^  
  7
Vcadd_SIMP
100
AcDbText
  0
TEXT
  5
23B
100
AcDbEntity
  8
4
370
    15
390
0
  6
Continuous
 62
     7
100
AcDbText
 10
42.613125
 20
13.1253
 30
0.0
 40
0.142
  1
**
  7
Vcadd_SIMP
100
AcDbText
  0
LINE
  5
23C
100
AcDbEntity
  8
4
370
    15
390
0
  6
Continuous
 62
     7
100
AcDbLine
 10
42.580277
 20
14.451341
 30
0.0
 11
42.660305
 21
14.619676
 31
0.0
  0
TEXT
  5
23D
100
AcDbEntity
  8
4
370
    15
390
0
  6
Continuous
 62
     7
100
AcDbText
 10
42.562588
 20
14.466504
 30
0.0
 40
0.16275
  1
O
  7
Vcadd_SIMP
100
AcDbText
  0
LINE
  5
23E
100
AcDbEntity
  8
4
370
    15
390
0
  6
Continuous
 62
     1
100
AcDbLine
 10
42.755044
 20
14.595605
 30
0.0
 11
42.805818
 21
14.534955
 31
0.0
  0
LINE
  5
23F
100
AcDbEntity
  8
4
370
    15
390
0
  6
Continuous
 62
     1
100
AcDbLine
 10
42.805818
 20
14.534955
 30
0.0
 11
42.981992
 21
14.744211
 31
0.0
  0
LINE
  5
240
100
AcDbEntity
  8
4
370
    15
390
0
  6
Continuous
 62
     1
100
AcDbLine
 10
42.981992
 20
14.744211
 30
0.0
 11
42.878549
 21
14.744211
 31
0.0
  0
LINE
  5
241
100
AcDbEntity
  8
4
370
    15
390
0
  6
Continuous
 62
     1
100
AcDbLine
 10
42.755044
 20
15.179784
 30
0.0
 11
42.805818
 21
15.119134
 31
0.0
  0
LINE
  5
242
100
AcDbEntity
  8
4
370
    15
390
0
  6
Continuous
 62
     1
100
AcDbLine
 10
42.805818
 20
15.119134
 30
0.0
 11
42.981992
 21
15.328389
 31
0.0
  0
LINE
  5
243
100
AcDbEntity
  8
4
370
    15
390
0
  6
Continuous
 62
     1
100
AcDbLine
 10
42.981992
 20
15.328389
 30
0.0
 11
42.878549
 21
15.328389
 31
0.0
  0
LINE
  5
244
100
AcDbEntity
  8
1
370
    15
390
0
  6
Continuous
 62
     7
100
AcDbLine
 10
41.133887
 20
15.666298
 30
0.0
 11
41.269091
 21
15.666298
 31
0.0
  0
LINE
  5
245
100
AcDbEntity
  8
1
370
    15
390
0
  6
Continuous
 62
     7
100
AcDbLine
 10
41.383487
 20
15.468151
 30
0.0
 11
41.269091
 21
15.666298
 31
0.0
  0
CIRCLE
  5
246
100
AcDbEntity
  8
1
370
    15
390
0
  6
Continuous
 62
     1
100
AcDbCircle
 10
41.263129
 20
15.605533
 30
0.0
 40
0.276708
  0
LINE
  5
247
100
AcDbEntity
  8
1
370
    15
390
0
  6
Continuous
 62
     7
100
AcDbLine
 10
41.133887
 20
15.666298
 30
0.0
 11
41.133887
 21
15.852279
 31
0.0
  0
LINE
  5
248
100
AcDbEntity
  8
1
370
    15
390
0
  6
Continuous
 62
     7
100
AcDbLine
 10
41.383487
 20
15.356369
 30
0.0
 11
41.383487
 21
15.468151
 31
0.0
  0
LINE
  5
249
100
AcDbEntity
  8
1
370
    15
390
0
  6
Continuous
 62
     1
100
AcDbLine
 10
41.269091
 20
15.701286
 30
0.0
 11
41.269091
 21
16.224617
 31
0.0
  0
LINE
  5
24A
100
AcDbEntity
  8
1
370
    15
390
0
  6
Continuous
 62
     1
100
AcDbLine
 10
40.988017
 20
16.153133
 30
0.0
 11
41.251941
 21
15.696003
 31
0.0
  0
INSERT
  5
258
100
AcDbEntity
  8
3
370
    40
390
0
  6
Continuous
 62
     1
100
AcDbBlockReference
  2
MAU
 10
41.269091
 20
16.139293
 30
0.0
 42
-1.0
 50
270.0
  0
LINE
  5
259
100
AcDbEntity
  8
3
370
    15
390
0
  6
Continuous
 62
     1
100
AcDbLine
 10
41.521773
 20
16.139293
 30
0.0
 11
41.269091
 21
16.139293
 31
0.0
  0
INSERT
  5
267
100
AcDbEntity
  8
3
370
    53
390
0
  6
Continuous
 62
     1
100
AcDbBlockReference
  2
MAL
 10
41.033091
 20
16.075061
 30
0.0
 42
-1.0
 50
205.0
  0
LINE
  5
268
100
AcDbEntity
  8
3
370
    15
390
0
  6
Continuous
 62
     1
100
AcDbLine
 10
40.819522
 20
15.964572
 30
0.0
 11
41.033091
 21
16.075061
 31
0.0
  0
INSERT
  5
269
100
AcDbEntity
  8
3
370
    40
390
0
  6
Continuous
 62
     1
100
AcDbBlockReference
  2
MAU
 10
41.269091
 20
15.780922
 30
0.0
 42
-1.0
 50
270.0
  0
LINE
  5
26A
100
AcDbEntity
  8
3
370
    15
390
0
  6
Continuous
 62
     1
100
AcDbLine
 10
41.683417
 20
15.780922
 30
0.0
 11
41.269091
 21
15.780922
 31
0.0
  0
LINE
  5
26B
100
AcDbEntity
  8
3
370
    15
390
0
  6
Continuous
 62
     1
100
AcDbLine
 10
42.277198
 20
15.780922
 30
0.0
 11
41.683417
 21
15.780922
 31
0.0
  0
LINE
  5
26C
100
AcDbEntity
  8
4
370
    15
390
0
  6
Continuous
 62
     7
100
AcDbLine
 10
42.349196
 20
15.701213
 30
0.0
 11
42.429225
 21
15.869548
 31
0.0
  0
TEXT
  5
26D
100
AcDbEntity
  8
4
370
    15
390
0
  6
Continuous
 62
     7
100
AcDbText
 10
42.331508
 20
15.716381
 30
0.0
 40
0.16275
  1
O
  7
Vcadd_SIMP
100
AcDbText
  0
TEXT
  5
26E
100
AcDbEntity
  8
4
370
    15
390
0
  6
Continuous
 62
     7
100
AcDbText
 10
41.56692
 20
16.07056
 30
0.0
 40
0.142
  1
30^ **
  7
Vcadd_SIMP
100
AcDbText
  0
LINE
  5
270
100
AcDbEntity
  8
4
370
    15
390
0
  6
LT8
 62
     1
100
AcDbLine
 10
43.225737
 20
14.734325
 30
0.0
 11
42.532799
 21
14.941278
 31
0.0
  0
LINE
  5
271
100
AcDbEntity
  8
4
370
    15
390
0
  6
LT8
 62
     1
100
AcDbLine
 10
41.764792
 20
15.170651
 30
0.0
 11
41.136819
 21
15.358202
 31
0.0
  0
LINE
  5
272
100
AcDbEntity
  8
4
370
    15
390
0
  6
LT8
 62
     1
100
AcDbLine
 10
41.488966
 20
15.797495
 30
0.0
 11
41.405046
 21
15.840966
 31
0.0
  0
LINE
  5
273
100
AcDbEntity
  8
4
370
    15
390
0
  6
LT8
 62
     1
100
AcDbLine
 10
43.290671
 20
14.864195
 30
0.0
 11
42.853572
 21
15.090616
 31
0.0
  0
LINE
  5
274
100
AcDbEntity
  8
4
370
    15
390
0
  6
LT8
 62
     1
100
AcDbLine
 10
42.417564
 20
15.316472
 30
0.0
 11
41.899566
 21
15.5848
 31
0.0
  0
LINE
  5
275
100
AcDbEntity
  8
1
370
    15
390
0
  6
Continuous
 62
     1
100
AcDbLine
 10
45.103336
 20
9.305654
 30
0.0
 11
46.463159
 21
9.305654
 31
0.0
  0
LINE
  5
276
100
AcDbEntity
  8
1
370
    15
390
0
  6
Continuous
 62
     1
100
AcDbLine
 10
45.278423
 20
10.564407
 30
0.0
 11
45.268714
 21
10.501313
 31
0.0
  0
LINE
  5
277
100
AcDbEntity
  8
1
370
    15
390
0
  6
Continuous
 62
     1
100
AcDbLine
 10
45.278423
 20
10.28752
 30
0.0
 11
45.278423
 21
10.253345
 31
0.0
  0
LINE
  5
278
100
AcDbEntity
  8
1
370
    15
390
0
  6
DIVIDE
 62
     1
100
AcDbLine
 10
44.499111
 20
8.268466
 30
0.0
 11
44.218113
 21
8.268466
 31
0.0
  0
LINE
  5
279
100
AcDbEntity
  8
1
370
    15
390
0
  6
DIVIDE
 62
     1
100
AcDbLine
 10
44.483612
 20
8.252967
 30
0.0
 11
44.499111
 21
8.268466
 31
0.0
  0
LINE
  5
27A
100
AcDbEntity
  8
1
370
    15
390
0
  6
DIVIDE
 62
     1
100
AcDbLine
 10
44.483612
 20
8.252967
 30
0.0
 11
44.218113
 21
8.252967
 31
0.0
  0
LINE
  5
27B
100
AcDbEntity
  8
1
370
    15
390
0
  6
DIVIDE
 62
     1
100
AcDbLine
 10
44.499111
 20
8.268466
 30
0.0
 11
44.499111
 21
8.336477
 31
0.0
  0
LINE
  5
27C
100
AcDbEntity
  8
3
370
    15
390
0
  6
Continuous
 62
     1
100
AcDbLine
 10
46.292226
 20
15.09412
 30
0.0
 11
46.292226
 21
14.844655
 31
0.0
  0
LINE
  5
27D
100
AcDbEntity
  8
3
370
    15
390
0
  6
Continuous
 62
     1
100
AcDbLine
 10
46.292226
 20
14.813653
 30
0.0
 11
46.292226
 21
14.388694
 31
0.0
  0
LINE
  5
27E
100
AcDbEntity
  8
3
370
    15
390
0
  6
Continuous
 62
     1
100
AcDbLine
 10
46.417535
 20
14.844655
 30
0.0
 11
45.292542
 21
14.844655
 31
0.0
  0
LINE
  5
27F
100
AcDbEntity
  8
3
370
    15
390
0
  6
Continuous
 62
     1
100
AcDbLine
 10
42.496193
 20
14.53684
 30
0.0
 11
41.762926
 21
14.53684
 31
0.0
  0
LINE
  5
280
100
AcDbEntity
  8
4
370
    15
390
0
  6
Continuous
 62
     1
100
AcDbLine
 10
41.746477
 20
14.640603
 30
0.0
 11
41.545687
 21
14.640603
 31
0.0
  0
LINE
  5
281
100
AcDbEntity
  8
4
370
    15
390
0
  6
Continuous
 62
     1
100
AcDbLine
 10
41.746477
 20
14.640603
 30
0.0
 11
41.545687
 21
14.640603
 31
0.0
  0
LINE
  5
282
100
AcDbEntity
  8
4
370
    15
390
0
  6
Continuous
 62
     1
100
AcDbLine
 10
41.746477
 20
14.433076
 30
0.0
 11
41.545687
 21
14.433076
 31
0.0
  0
LINE
  5
283
100
AcDbEntity
  8
4
370
    15
390
0
  6
Continuous
 62
     1
100
AcDbLine
 10
41.545687
 20
14.433076
 30
0.0
 11
41.522516
 21
14.433076
 31
0.0
  0
LINE
  5
284
100
AcDbEntity
  8
4
370
    15
390
0
  6
Continuous
 62
     1
100
AcDbLine
 10
41.522516
 20
14.433076
 30
0.0
 11
41.522516
 21
14.640603
 31
0.0
  0
LINE
  5
285
100
AcDbEntity
  8
4
370
    15
390
0
  6
Continuous
 62
     1
100
AcDbLine
 10
41.522516
 20
14.640603
 30
0.0
 11
41.580576
 21
14.640603
 31
0.0
  0
LINE
  5
286
100
AcDbEntity
  8
4
370
    15
390
0
  6
Continuous
 62
     1
100
AcDbLine
 10
41.746477
 20
14.433076
 30
0.0
 11
41.762926
 21
14.433076
 31
0.0
  0
LINE
  5
287
100
AcDbEntity
  8
4
370
    15
390
0
  6
Continuous
 62
     1
100
AcDbLine
 10
41.762926
 20
14.433076
 30
0.0
 11
41.762926
 21
14.640603
 31
0.0
  0
LINE
  5
288
100
AcDbEntity
  8
4
370
    15
390
0
  6
Continuous
 62
     1
100
AcDbLine
 10
41.762926
 20
14.640603
 30
0.0
 11
41.689608
 21
14.640603
 31
0.0
  0
TEXT
  5
289
100
AcDbEntity
  8
4
370
    15
390
0
  6
Continuous
 62
     7
100
AcDbText
 10
41.575701
 20
14.470529
 30
0.0
 40
0.142
  1
A
  7
Vcadd_SIMP
100
AcDbText
  0
LINE
  5
28A
100
AcDbEntity
  8
3
370
    15
390
0
  6
Continuous
 62
     1
100
AcDbLine
 10
45.374111
 20
15.490417
 30
0.0
 11
45.765488
 21
15.490417
 31
0.0
  0
LINE
  5
28B
100
AcDbEntity
  8
4
370
    15
390
0
  6
Continuous
 62
     7
100
AcDbLine
 10
46.578407
 20
15.401977
 30
0.0
 11
46.658436
 21
15.570312
 31
0.0
  0
TEXT
  5
28C
100
AcDbEntity
  8
4
370
    15
390
0
  6
Continuous
 62
     7
100
AcDbText
 10
46.560719
 20
15.417141
 30
0.0
 40
0.16275
  1
O
  7
Vcadd_SIMP
100
AcDbText
  0
LINE
  5
28D
100
AcDbEntity
  8
4
370
    15
390
0
  6
Continuous
 62
     1
100
AcDbLine
 10
46.421386
 20
16.277854
 30
0.0
 11
46.239626
 21
16.277854
 31
0.0
  0
LINE
  5
28E
100
AcDbEntity
  8
4
370
    15
390
0
  6
Continuous
 62
     1
100
AcDbLine
 10
46.239626
 20
16.277854
 30
0.0
 11
46.239626
 21
15.663565
 31
0.0
  0
LINE
  5
28F
100
AcDbEntity
  8
4
370
    15
390
0
  6
Continuous
 62
     1
100
AcDbLine
 10
46.239626
 20
15.663565
 30
0.0
 11
46.92169
 21
15.663565
 31
0.0
  0
LINE
  5
290
100
AcDbEntity
  8
4
370
    15
390
0
  6
Continuous
 62
     1
100
AcDbLine
 10
46.92169
 20
15.663565
 30
0.0
 11
46.92169
 21
15.490417
 31
0.0
  0
LINE
  5
291
100
AcDbEntity
  8
4
370
    15
390
0
  6
Continuous
 62
     1
100
AcDbLine
 10
46.754717
 20
15.490417
 30
0.0
 11
46.92169
 21
15.490417
 31
0.0
  0
LINE
  5
292
100
AcDbEntity
  8
3
370
    15
390
0
  6
Continuous
 62
     1
100
AcDbLine
 10
45.701972
 20
16.001652
 30
0.0
 11
45.143383
 21
16.001652
 31
0.0
  0
TEXT
  5
293
100
AcDbEntity
  8
0
370
    15
390
0
  6
Continuous
 62
     7
100
AcDbText
 10
39.328204
 20
8.93219
 30
0.0
 40
0.12
  1
SERIES 4
 50
270.0
  7
Vcadd_SIMP
100
AcDbText
  0
LINE
  5
294
100
AcDbEntity
  8
0
370
    15
390
0
  6
Continuous
 62
     7
100
AcDbLine
 10
39.590126
 20
14.072288
 30
0.0
 11
39.590126
 21
11.697288
 31
0.0
  0
TEXT
  5
295
100
AcDbEntity
  8
0
370
    15
390
0
  6
Continuous
 62
     7
100
AcDbText
 10
38.94064
 20
14.242654
 30
0.0
 40
0.062
  1
G
 50
270.0
  7
Vcadd_SIMP
100
AcDbText
  0
TEXT
  5
296
100
AcDbEntity
  8
0
370
    15
390
0
  6
Continuous
 62
     7
100
AcDbText
 10
39.023559
 20
14.056652
 30
0.0
 40
0.062
  1
REDRAWN TO BE CONSISTENT WITH SIMILAR CAVS
 50
270.0
 41
0.85
  7
Vcadd_SIMP
100
AcDbText
  0
TEXT
  5
297
100
AcDbEntity
  8
0
370
    15
390
0
  6
Continuous
 62
     7
100
AcDbText
 10
38.86314
 20
14.056652
 30
0.0
 40
0.062
  1
.002 CONCENTRICITY WAS .001
 50
270.0
  7
Vcadd_SIMP
100
AcDbText
  0
TEXT
  5
298
100
AcDbEntity
  8
0
370
    15
390
0
  6
Continuous
 62
     7
100
AcDbText
 10
38.94064
 20
11.659658
 30
0.0
 40
0.062
  1
04AUG99
 50
270.0
  7
Vcadd_SIMP
100
AcDbText
  0
TEXT
  5
299
100
AcDbEntity
  8
0
370
    15
390
0
  6
Continuous
 62
     7
100
AcDbText
 10
38.94064
 20
11.163656
 30
0.0
 40
0.062
  1
DAS
 50
270.0
  7
Vcadd_SIMP
100
AcDbText
  0
LINE
  5
29A
100
AcDbEntity
  8
3
370
    15
390
0
  6
Continuous
 62
     1
100
AcDbLine
 10
44.014071
 20
18.108636
 30
0.0
 11
43.449169
 21
18.108636
 31
0.0
  0
TEXT
  5
29B
100
AcDbEntity
  8
4
370
    15
390
0
  6
Continuous
 62
     7
100
AcDbText
 10
43.985056
 20
7.025609
 30
0.0
 40
0.24
  1
0,05
  7
Vcadd_SIMP
 72
     1
 11
44.537056
 21
7.025609
 31
0.0
100
AcDbText
  0
TEXT
  5
29C
100
AcDbEntity
  8
4
370
    15
390
0
  6
Continuous
 62
     7
100
AcDbText
 10
47.832269
 20
13.003272
 30
0.0
 40
0.142
  1
34,92
  7
Vcadd_SIMP
100
AcDbText
  0
TEXT
  5
29D
100
AcDbEntity
  8
4
370
    15
390
0
  6
Continuous
 62
     7
100
AcDbText
 10
47.835615
 20
11.748295
 30
0.0
 40
0.142
  1
76,20
  7
Vcadd_SIMP
100
AcDbText
  0
TEXT
  5
29E
100
AcDbEntity
  8
4
370
    15
390
0
  6
Continuous
 62
     7
100
AcDbText
 10
47.690904
 20
10.252173
 30
0.0
 40
0.142
  1
114,30
  7
Vcadd_SIMP
100
AcDbText
  0
LINE
  5
29F
100
AcDbEntity
  8
3
370
    15
390
0
  6
Continuous
 62
     1
100
AcDbLine
 10
44.935112
 20
10.313654
 30
0.0
 11
47.662149
 21
10.313654
 31
0.0
  0
TEXT
  5
2A0
100
AcDbEntity
  8
4
370
    15
390
0
  6
Continuous
 62
     7
100
AcDbText
 10
47.973455
 20
14.756805
 30
0.0
 40
0.142
  1
0,00
  7
Vcadd_SIMP
100
AcDbText
  0
LINE
  5
2A1
100
AcDbEntity
  8
4
370
    15
390
0
  6
Continuous
 62
     1
100
AcDbLine
 10
46.493916
 20
14.388694
 30
0.0
 11
46.292226
 21
14.388694
 31
0.0
  0
LINE
  5
2A2
100
AcDbEntity
  8
4
370
    15
390
0
  6
Continuous
 62
     1
100
AcDbLine
 10
46.352298
 20
8.251653
 30
0.0
 11
44.584372
 21
8.251653
 31
0.0
  0
TEXT
  5
2A3
100
AcDbEntity
  8
4
370
    15
390
0
  6
Continuous
 62
     7
100
AcDbText
 10
47.837764
 20
16.931319
 30
0.0
 40
0.142
  1
30,18
  7
Vcadd_SIMP
100
AcDbText
  0
TEXT
  5
2A4
100
AcDbEntity
  8
4
370
    15
390
0
  6
Continuous
 62
     7
100
AcDbText
 10
45.791756
 20
15.431648
 30
0.0
 40
0.142
  1
58,72
  7
Vcadd_SIMP
100
AcDbText
  0
LINE
  5
2A5
100
AcDbEntity
  8
4
370
    15
390
0
  6
Continuous
 62
     1
100
AcDbLine
 10
45.432714
 20
15.251652
 30
0.0
 11
47.761121
 21
15.251652
 31
0.0
  0
TEXT
  5
2A6
100
AcDbEntity
  8
4
370
    15
390
0
  6
Continuous
 62
     7
100
AcDbText
 10
47.776609
 20
15.194153
 30
0.0
 40
0.142
  1
11,13*
  7
Vcadd_SIMP
100
AcDbText
  0
TEXT
  5
2A7
100
AcDbEntity
  8
4
370
    15
390
0
  6
Continuous
 62
     7
100
AcDbText
 10
42.568338
 20
12.343862
 30
0.0
 40
0.103
  1
1,6
  7
Vcadd_SIMP
100
AcDbText
  0
TEXT
  5
2A8
100
AcDbEntity
  8
4
370
    15
390
0
  6
Continuous
 62
     7
100
AcDbText
 10
42.603433
 20
10.842561
 30
0.0
 40
0.103
  1
1,6
  7
Vcadd_SIMP
100
AcDbText
  0
TEXT
  5
2A9
100
AcDbEntity
  8
4
370
    15
390
0
  6
Continuous
 62
     7
100
AcDbText
 10
42.566196
 20
9.678795
 30
0.0
 40
0.103
  1
1,6
  7
Vcadd_SIMP
100
AcDbText
  0
TEXT
  5
2AA
100
AcDbEntity
  8
4
370
    15
390
0
  6
Continuous
 62
     7
100
AcDbText
 10
40.253309
 20
12.734155
 30
0.0
 40
0.142
  1
51,21
  7
Vcadd_SIMP
100
AcDbText
  0
TEXT
  5
2AB
100
AcDbEntity
  8
4
370
    15
390
0
  6
Continuous
 62
     7
100
AcDbText
 10
40.249937
 20
11.23765
 30
0.0
 40
0.142
  1
89,31
  7
Vcadd_SIMP
100
AcDbText
  0
TEXT
  5
2AC
100
AcDbEntity
  8
4
370
    15
390
0
  6
Continuous
 62
     7
100
AcDbText
 10
40.107147
 20
9.741344
 30
0.0
 40
0.142
  1
127,41
  7
Vcadd_SIMP
100
AcDbText
  0
TEXT
  5
2AD
100
AcDbEntity
  8
4
370
    15
390
0
  6
Continuous
 62
     7
100
AcDbText
 10
40.106275
 20
9.327969
 30
0.0
 40
0.142
  1
139,90
  7
Vcadd_SIMP
100
AcDbText
  0
TEXT
  5
2AE
100
AcDbEntity
  8
4
370
    15
390
0
  6
Continuous
 62
     7
100
AcDbText
 10
40.106275
 20
9.150469
 30
0.0
 40
0.142
  1
140,00
  7
Vcadd_SIMP
100
AcDbText
  0
LINE
  5
2AF
100
AcDbEntity
  8
3
370
    15
390
0
  6
Continuous
 62
     1
100
AcDbLine
 10
40.922066
 20
9.305654
 30
0.0
 11
40.127618
 21
9.305654
 31
0.0
  0
TEXT
  5
2B0
100
AcDbEntity
  8
4
370
    15
390
0
  6
Continuous
 62
     7
100
AcDbText
 10
41.824616
 20
12.219656
 30
0.0
 40
0.142
  1
44,86
  7
Vcadd_SIMP
100
AcDbText
  0
TEXT
  5
2B1
100
AcDbEntity
  8
4
370
    15
390
0
  6
Continuous
 62
     7
100
AcDbText
 10
41.824616
 20
12.042156
 30
0.0
 40
0.142
  1
44,91
  7
Vcadd_SIMP
100
AcDbText
  0
TEXT
  5
2B2
100
AcDbEntity
  8
4
370
    15
390
0
  6
Continuous
 62
     7
100
AcDbText
 10
41.824616
 20
10.716375
 30
0.0
 40
0.142
  1
43,66
  7
Vcadd_SIMP
100
AcDbText
  0
TEXT
  5
2B3
100
AcDbEntity
  8
4
370
    15
390
0
  6
Continuous
 62
     7
100
AcDbText
 10
41.824616
 20
10.531728
 30
0.0
 40
0.142
  1
43,71
  7
Vcadd_SIMP
100
AcDbText
  0
TEXT
  5
2B4
100
AcDbEntity
  8
4
370
    15
390
0
  6
Continuous
 62
     7
100
AcDbText
 10
41.824616
 20
9.558906
 30
0.0
 40
0.142
  1
42,47
  7
Vcadd_SIMP
100
AcDbText
  0
TEXT
  5
2B5
100
AcDbEntity
  8
4
370
    15
390
0
  6
Continuous
 62
     7
100
AcDbText
 10
41.824616
 20
9.373663
 30
0.0
 40
0.142
  1
42,52
  7
Vcadd_SIMP
100
AcDbText
  0
TEXT
  5
2B6
100
AcDbEntity
  8
4
370
    15
390
0
  6
Continuous
 62
     7
100
AcDbText
 10
42.568338
 20
15.27162
 30
0.0
 40
0.103
  1
1,6
  7
Vcadd_SIMP
100
AcDbText
  0
TEXT
  5
2B7
100
AcDbEntity
  8
4
370
    15
390
0
  6
Continuous
 62
     7
100
AcDbText
 10
42.568338
 20
14.687441
 30
0.0
 40
0.103
  1
1,6
  7
Vcadd_SIMP
100
AcDbText
  0
TEXT
  5
2B8
100
AcDbEntity
  8
4
370
    15
390
0
  6
Continuous
 62
     7
100
AcDbText
 10
41.590911
 20
15.802414
 30
0.0
 40
0.142
  1
49,33
  7
Vcadd_SIMP
100
AcDbText
  0
TEXT
  5
2B9
100
AcDbEntity
  8
4
370
    15
390
0
  6
Continuous
 62
     7
100
AcDbText
 10
41.590911
 20
15.624916
 30
0.0
 40
0.142
  1
49,38
  7
Vcadd_SIMP
100
AcDbText
  0
TEXT
  5
2BA
100
AcDbEntity
  8
4
370
    15
390
0
  6
Continuous
 62
     7
100
AcDbText
 10
40.409065
 20
14.746918
 30
0.0
 40
0.142
  1
0,00
  7
Vcadd_SIMP
100
AcDbText
  0
TEXT
  5
2BB
100
AcDbEntity
  8
4
370
    15
390
0
  6
Continuous
 62
     7
100
AcDbText
 10
41.824616
 20
14.970135
 30
0.0
 40
0.142
  1
52,43
  7
Vcadd_SIMP
100
AcDbText
  0
TEXT
  5
2BC
100
AcDbEntity
  8
4
370
    15
390
0
  6
Continuous
 62
     7
100
AcDbText
 10
41.824616
 20
14.386945
 30
0.0
 40
0.142
  1
48,62
  7
Vcadd_SIMP
100
AcDbText
  0
LINE
  5
2BD
100
AcDbEntity
  8
4
370
    15
390
0
  6
Continuous
 62
     1
100
AcDbLine
 10
43.126678
 20
14.594655
 30
0.0
 11
43.211069
 21
14.323445
 31
0.0
  0
LINE
  5
2BE
100
AcDbEntity
  8
4
370
    15
390
0
  6
Continuous
 62
     1
100
AcDbLine
 10
41.006708
 20
14.323445
 30
0.0
 11
43.211069
 21
14.323445
 31
0.0
  0
LINE
  5
2BF
100
AcDbEntity
  8
4
370
    15
390
0
  6
Continuous
 62
     1
100
AcDbLine
 10
43.219663
 20
14.594655
 30
0.0
 11
43.126678
 21
14.594655
 31
0.0
  0
LINE
  5
2C0
100
AcDbEntity
  8
4
370
    15
390
0
  6
Continuous
 62
     1
100
AcDbLine
 10
43.387616
 20
14.467148
 30
0.0
 11
43.959825
 21
13.894939
 31
0.0
  0
ARC
  5
2C1
100
AcDbEntity
  8
4
370
    15
390
0
  6
Continuous
 62
     1
100
AcDbCircle
 10
43.310612
 20
14.544152
 30
0.0
 40
0.808831
100
AcDbArc
 50
315.0
 51
334.600061
  0
ARC
  5
2C2
100
AcDbEntity
  8
4
370
    15
390
0
  6
Continuous
 62
     1
100
AcDbCircle
 10
43.310612
 20
14.544152
 30
0.0
 40
0.808831
100
AcDbArc
 50
250.441158
 51
270.0
  0
TEXT
  5
2C3
100
AcDbEntity
  8
4
370
    15
390
0
  6
Continuous
 62
     7
100
AcDbText
 10
43.45902
 20
13.76116
 30
0.0
 40
0.142
  1
45^  
  7
Vcadd_SIMP
100
AcDbText
  0
LINE
  5
2C4
100
AcDbEntity
  8
4
370
    15
390
0
  6
Continuous
 62
     7
100
AcDbLine
 10
42.580277
 20
13.551013
 30
0.0
 11
42.660305
 21
13.719348
 31
0.0
  0
LINE
  5
2C5
100
AcDbEntity
  8
3
370
    15
390
0
  6
Continuous
 62
     1
100
AcDbLine
 10
42.496193
 20
13.636514
 30
0.0
 11
41.830257
 21
13.636514
 31
0.0
  0
TEXT
  5
2C6
100
AcDbEntity
  8
4
370
    15
390
0
  6
Continuous
 62
     7
100
AcDbText
 10
42.562588
 20
13.566178
 30
0.0
 40
0.16275
  1
O
  7
Vcadd_SIMP
100
AcDbText
  0
LINE
  5
2C7
100
AcDbEntity
  8
3
370
    15
390
0
  6
Continuous
 62
     1
100
AcDbLine
 10
42.726197
 20
13.636514
 30
0.0
 11
43.310612
 21
13.636514
 31
0.0
  0
TEXT
  5
2C8
100
AcDbEntity
  8
4
370
    15
390
0
  6
Continuous
 62
     7
100
AcDbText
 10
41.824616
 20
13.664119
 30
0.0
 40
0.142
  1
46,05
  7
Vcadd_SIMP
100
AcDbText
  0
TEXT
  5
2C9
100
AcDbEntity
  8
4
370
    15
390
0
  6
Continuous
 62
     7
100
AcDbText
 10
41.824616
 20
13.486617
 30
0.0
 40
0.142
  1
46,15
  7
Vcadd_SIMP
100
AcDbText
  0
LINE
  5
2CA
100
AcDbEntity
  8
3
370
    15
390
0
  6
Continuous
 62
     1
100
AcDbLine
 10
43.260113
 20
14.676732
 30
0.0
 11
42.970202
 21
14.676732
 31
0.0
  0
LINE
  5
2CB
100
AcDbEntity
  8
4
370
    15
390
0
  6
Continuous
 62
     1
100
AcDbLine
 10
42.970202
 20
14.676732
 30
0.0
 11
43.067338
 21
14.53684
 31
0.0
  0
LINE
  5
2CC
100
AcDbEntity
  8
3
370
    15
390
0
  6
Continuous
 62
     1
100
AcDbLine
 10
43.067338
 20
14.53684
 30
0.0
 11
42.726197
 21
14.53684
 31
0.0
  0
TEXT
  5
2CD
100
AcDbEntity
  8
4
370
    15
390
0
  6
Continuous
 62
     7
100
AcDbText
 10
40.409882
 20
14.267856
 30
0.0
 40
0.142
  1
5,56
  7
Vcadd_SIMP
100
AcDbText
  0
TEXT
  5
2CE
100
AcDbEntity
  8
0
370
    15
390
0
  6
Continuous
 62
     7
100
AcDbText
 10
38.937546
 20
10.693304
 30
0.0
 40
0.062
  1
8372
 50
270.0
  7
Vcadd_SIMP
100
AcDbText
  0
TEXT
  5
2CF
100
AcDbEntity
  8
4
370
    15
390
0
  6
Continuous
 62
     7
100
AcDbText
 10
42.031505
 20
12.500669
 30
0.0
 40
0.142
  1
0,50 R
  7
Vcadd_SIMP
100
AcDbText
  0
TEXT
  5
2D0
100
AcDbEntity
  8
4
370
    15
390
0
  6
Continuous
 62
     7
100
AcDbText
 10
42.055007
 20
11.002405
 30
0.0
 40
0.142
  1
0,50 R
  7
Vcadd_SIMP
100
AcDbText
  0
TEXT
  5
2D1
100
AcDbEntity
  8
4
370
    15
390
0
  6
Continuous
 62
     7
100
AcDbText
 10
41.924589
 20
9.88389
 30
0.0
 40
0.142
  1
0,50 R
  7
Vcadd_SIMP
100
AcDbText
  0
TEXT
  5
2D2
100
AcDbEntity
  8
4
370
    15
390
0
  6
Continuous
 62
     7
100
AcDbText
 10
40.678474
 20
8.871761
 30
0.0
 40
0.142
  1
0,50 x 45^  MAX
  7
Vcadd_SIMP
100
AcDbText
  0
LINE
  5
2D3
100
AcDbEntity
  8
4
370
    15
390
0
  6
Continuous
 62
     1
100
AcDbLine
 10
41.049664
 20
15.666298
 30
0.0
 11
40.538691
 21
15.666298
 31
0.0
  0
TEXT
  5
2D4
100
AcDbEntity
  8
4
370
    15
390
0
  6
Continuous
 62
     7
100
AcDbText
 10
40.035254
 20
15.608531
 30
0.0
 40
0.142
  1
L.S.
  7
Vcadd_SIMP
100
AcDbText
  0
INSERT
  5
2DD
100
AcDbEntity
  8
3
370
    15
390
0
  6
Continuous
 62
     7
100
AcDbBlockReference
  2
ARROW
 10
43.449169
 20
14.813653
 30
0.0
 50
90.0
  0
INSERT
  5
2DE
100
AcDbEntity
  8
3
370
    15
390
0
  6
Continuous
 62
     7
100
AcDbBlockReference
  2
ARROW
 10
43.449169
 20
14.860654
 30
0.0
 42
-1.0
 50
270.0
  0
INSERT
  5
2DF
100
AcDbEntity
  8
3
370
    15
390
0
  6
Continuous
 62
     7
100
AcDbBlockReference
  2
ARROW
 10
43.382111
 20
9.305654
 30
0.0
 50
44.883183
  0
INSERT
  5
2E0
100
AcDbEntity
  8
3
370
    15
390
0
  6
Continuous
 62
     7
100
AcDbBlockReference
  2
ARROW
 10
43.358612
 20
11.25695
 30
0.0
 50
32.405285
  0
INSERT
  5
2E1
100
AcDbEntity
  8
0
370
    15
390
0
  6
Continuous
 62
     7
100
AcDbBlockReference
  2
ARROW
 10
43.187111
 20
15.12003
 30
0.0
  0
INSERT
  5
2E2
100
AcDbEntity
  8
0
370
    15
390
0
  6
Continuous
 62
     7
100
AcDbBlockReference
  2
ARROW
 10
43.382111
 20
9.531301
 30
0.0
  0
INSERT
  5
2E3
100
AcDbEntity
  8
0
370
    15
390
0
  6
Continuous
 62
     7
100
AcDbBlockReference
  2
ARROW
 10
43.562111
 20
8.442281
 30
0.0
  0
INSERT
  5
2E4
100
AcDbEntity
  8
3
370
    15
390
0
  6
Continuous
 62
     7
100
AcDbBlockReference
  2
ARROW
 10
43.33511
 20
12.755214
 30
0.0
 50
32.405285
  0
INSERT
  5
2E5
100
AcDbEntity
  8
4
370
     0
390
0
  6
Continuous
 62
     1
100
AcDbBlockReference
  2
ARROW
 10
43.382111
 20
9.756948
 30
0.0
 41
1.0
 42
1.0
 50
33.983659
  0
INSERT
  5
2E6
100
AcDbEntity
  8
0
370
    15
390
0
  6
Continuous
 62
     7
100
AcDbBlockReference
  2
ARROW
 10
43.358612
 20
10.688772
 30
0.0
  0
INSERT
  5
2E7
100
AcDbEntity
  8
4
370
     0
390
0
  6
Continuous
 62
     1
100
AcDbBlockReference
  2
ARROW
 10
43.358612
 20
10.566675
 30
0.0
 41
1.0
 42
1.0
 50
170.617729
  0
INSERT
  5
2E8
100
AcDbEntity
  8
4
370
     0
390
0
  6
Continuous
 62
     1
100
AcDbBlockReference
  2
ARROW
 10
42.974101
 20
10.463645
 30
0.0
 41
1.0
 42
1.0
 50
37.324719
  0
INSERT
  5
2E9
100
AcDbEntity
  8
4
370
     0
390
0
  6
Continuous
 62
     1
100
AcDbBlockReference
  2
ARROW
 10
43.33511
 20
12.066675
 30
0.0
 41
1.0
 42
1.0
 50
170.617729
  0
INSERT
  5
2EA
100
AcDbEntity
  8
4
370
     0
390
0
  6
Continuous
 62
     1
100
AcDbBlockReference
  2
ARROW
 10
42.950599
 20
11.963645
 30
0.0
 41
1.0
 42
1.0
 50
37.324719
  0
INSERT
  5
2EB
100
AcDbEntity
  8
0
370
    15
390
0
  6
Continuous
 62
     7
100
AcDbBlockReference
  2
ARROW
 10
43.33511
 20
12.192051
 30
0.0
  0
INSERT
  5
2EC
100
AcDbEntity
  8
4
370
     0
390
0
  6
Continuous
 62
     1
100
AcDbBlockReference
  2
ARROW
 10
43.310612
 20
13.566675
 30
0.0
 41
1.0
 42
1.0
 50
170.617729
  0
INSERT
  5
2ED
100
AcDbEntity
  8
4
370
     0
390
0
  6
Continuous
 62
     1
100
AcDbBlockReference
  2
ARROW
 10
42.926101
 20
13.463645
 30
0.0
 41
1.0
 42
1.0
 50
37.324719
  0
INSERT
  5
2EE
100
AcDbEntity
  8
3
370
    15
390
0
  6
Continuous
 62
     7
100
AcDbBlockReference
  2
ARROW
 10
46.292226
 20
14.844655
 30
0.0
 50
270.0
  0
INSERT
  5
2EF
100
AcDbEntity
  8
3
370
    15
390
0
  6
Continuous
 62
     7
100
AcDbBlockReference
  2
ARROW
 10
46.292226
 20
14.813653
 30
0.0
 42
-1.0
 50
90.0
  0
INSERT
  5
2F0
100
AcDbEntity
  8
0
370
    15
390
0
  6
Continuous
 62
     7
100
AcDbBlockReference
  2
ARROW
 10
45.374111
 20
15.490417
 30
0.0
 50
180.0
  0
INSERT
  5
2F1
100
AcDbEntity
  8
4
370
     0
390
0
  6
Continuous
 62
     1
100
AcDbBlockReference
  2
ARROW
 10
43.310612
 20
13.735321
 30
0.0
 41
1.0
 42
1.0
 50
352.803553
  0
INSERT
  5
2F2
100
AcDbEntity
  8
4
370
     0
390
0
  6
Continuous
 62
     1
100
AcDbBlockReference
  2
ARROW
 10
43.882541
 20
13.972222
 30
0.0
 41
1.0
 42
1.0
 50
230.901358
  0
INSERT
  5
2F3
100
AcDbEntity
  8
0
370
    15
390
0
  6
Continuous
 62
     7
100
AcDbBlockReference
  2
ARROW
 10
43.310612
 20
13.636514
 30
0.0
  0
INSERT
  5
2F4
100
AcDbEntity
  8
0
370
    15
390
0
  6
Continuous
 62
     7
100
AcDbBlockReference
  2
ARROW
 10
43.260113
 20
14.676732
 30
0.0
  0
LINE
  5
2F5
100
AcDbEntity
  8
4
370
    15
390
0
  6
Continuous
 62
     1
100
AcDbLine
 10
44.772519
 20
16.686832
 30
0.0
 11
44.555697
 21
16.686832
 31
0.0
  0
LINE
  5
2F6
100
AcDbEntity
  8
4
370
    15
390
0
  6
Continuous
 62
     1
100
AcDbLine
 10
44.555697
 20
16.686832
 30
0.0
 11
44.758535
 21
16.001652
 31
0.0
  0
INSERT
  5
2F7
100
AcDbEntity
  8
4
370
     0
390
0
  6
Continuous
 62
     1
100
AcDbBlockReference
  2
ARROW
 10
44.758535
 20
16.001652
 30
0.0
 50
286.490657
  0
TEXT
  5
2F8
100
AcDbEntity
  8
0
370
    15
390
0
  6
Continuous
 62
     7
100
AcDbText
 10
40.425746
 20
5.028336
 30
0.0
 40
0.09
  1
Wichtige Bemerkung:
  7
Vcadd_SIMP
100
AcDbText
  0
TEXT
  5
2F9
100
AcDbEntity
  8
0
370
    15
390
0
  6
Continuous
 62
     7
100
AcDbText
 10
40.425746
 20
4.893336
 30
0.0
 40
0.09
  1
Diese Zeichnung beschreibt ein
  7
Vcadd_SIMP
100
AcDbText
  0
TEXT
  5
2FA
100
AcDbEntity
  8
0
370
    15
390
0
  6
Continuous
 62
     7
100
AcDbText
 10
40.425746
 20
4.758336
 30
0.0
 40
0.09
  1
Produkt der Firma SUN Hydraulik
  7
Vcadd_SIMP
100
AcDbText
  0
TEXT
  5
2FB
100
AcDbEntity
  8
0
370
    15
390
0
  6
Continuous
 62
     7
100
AcDbText
 10
40.425746
 20
4.623336
 30
0.0
 40
0.09
  1
und darf nicht ohne Genehmigung
  7
Vcadd_SIMP
100
AcDbText
  0
TEXT
  5
2FC
100
AcDbEntity
  8
0
370
    15
390
0
  6
Continuous
 62
     7
100
AcDbText
 10
40.425746
 20
4.488336
 30
0.0
 40
0.09
  1
vervielfältigt oder an Dritte wei-
  7
Vcadd_SIMP
100
AcDbText
  0
TEXT
  5
2FD
100
AcDbEntity
  8
0
370
    15
390
0
  6
Continuous
 62
     7
100
AcDbText
 10
40.425746
 20
4.353336
 30
0.0
 40
0.09
  1
tergegeben werden. 
  7
Vcadd_SIMP
100
AcDbText
  0
TEXT
  5
2FE
100
AcDbEntity
  8
0
370
    15
390
0
  6
Continuous
 62
     7
100
AcDbText
 10
40.533899
 20
4.058917
 30
0.0
 40
0.09
  1
SUN HYDRAULICS CORPORATION
  7
Vcadd_SIMP
100
AcDbText
  0
TEXT
  5
2FF
100
AcDbEntity
  8
0
370
    15
390
0
  6
Continuous
 62
     7
100
AcDbText
 10
40.392052
 20
4.065791
 30
0.0
 40
0.085
  1
C
  7
Vcadd_SIMP
100
AcDbText
  0
CIRCLE
  5
300
100
AcDbEntity
  8
4
370
    15
390
0
  6
Continuous
 62
     1
100
AcDbCircle
 10
40.421551
 20
4.098759
 30
0.0
 40
0.058579
  0
TEXT
  5
301
100
AcDbEntity
  8
4
370
    15
390
0
  6
Continuous
 62
     7
100
AcDbText
 10
44.020023
 20
6.225816
 30
0.0
 40
0.133
  1
Freiraum für Sechskantnuss
  7
Vcadd_SIMP
100
AcDbText
  0
TEXT
  5
302
100
AcDbEntity
  8
4
370
    15
390
0
  6
Continuous
 62
     7
100
AcDbText
 10
44.020023
 20
6.026316
 30
0.0
 40
0.133
  1
Max. empfohlene Tiefe bis zum LS-Anschlag
  7
Vcadd_SIMP
100
AcDbText
  0
TEXT
  5
303
100
AcDbEntity
  8
4
370
    15
390
0
  6
Continuous
 62
     7
100
AcDbText
 10
44.020023
 20
5.826816
 30
0.0
 40
0.133
  1
ohne Freiraum für die Sechskantnuss
  7
Vcadd_SIMP
100
AcDbText
  0
TEXT
  5
304
100
AcDbEntity
  8
4
370
    15
390
0
  6
Continuous
 62
     7
100
AcDbText
 10
44.020023
 20
5.627316
 30
0.0
 40
0.133
  1
Min. Abstand von der Mittellinie bis zur End-
  7
Vcadd_SIMP
100
AcDbText
  0
TEXT
  5
305
100
AcDbEntity
  8
4
370
    15
390
0
  6
Continuous
 62
     7
100
AcDbText
 10
44.020023
 20
5.427816
 30
0.0
 40
0.133
  1
kante des Ventilkörpers
  7
Vcadd_SIMP
100
AcDbText
  0
TEXT
  5
306
100
AcDbEntity
  8
4
370
    15
390
0
  6
Continuous
 62
     7
100
AcDbText
 10
44.020023
 20
5.228316
 30
0.0
 40
0.133
  1
Min. Abstand von der Mittellinie bis zur Mittel-
  7
Vcadd_SIMP
100
AcDbText
  0
TEXT
  5
307
100
AcDbEntity
  8
4
370
    15
390
0
  6
Continuous
 62
     7
100
AcDbText
 10
44.020023
 20
5.028816
 30
0.0
 40
0.133
  1
linie bei gleicher Einschraubbohrung
  7
Vcadd_SIMP
100
AcDbText
  0
TEXT
  5
308
100
AcDbEntity
  8
4
370
    15
390
0
  6
Continuous
 62
     7
100
AcDbText
 10
43.470418
 20
4.190775
 30
0.0
 40
0.133
  1
Alle O-Ring-Einführungsschrägen müssen
  7
Vcadd_SIMP
100
AcDbText
  0
TEXT
  5
309
100
AcDbEntity
  8
4
370
    15
390
0
  6
Continuous
 62
     7
100
AcDbText
 10
43.470418
 20
3.991275
 30
0.0
 40
0.133
  1
glatt und frei von Kerben und Kanten sein.
  7
Vcadd_SIMP
100
AcDbText
  0
TEXT
  5
30A
100
AcDbEntity
  8
4
370
    15
390
0
  6
Continuous
 62
     7
100
AcDbText
 10
43.230482
 20
6.22173
 30
0.0
 40
0.133
  1
*
  7
Vcadd_SIMP
100
AcDbText
  0
TEXT
  5
30B
100
AcDbEntity
  8
4
370
    15
390
0
  6
Continuous
 62
     7
100
AcDbText
 10
43.14792
 20
4.183724
 30
0.0
 40
0.133
  1
**
  7
Vcadd_SIMP
100
AcDbText
  0
TEXT
  5
30C
100
AcDbEntity
  8
4
370
    15
390
0
  6
Continuous
 62
     7
100
AcDbText
 10
43.455779
 20
6.224124
 30
0.0
 40
0.133
  1
58,72
  7
Vcadd_SIMP
100
AcDbText
  0
TEXT
  5
30D
100
AcDbEntity
  8
4
370
    15
390
0
  6
Continuous
 62
     7
100
AcDbText
 10
43.455779
 20
6.024624
 30
0.0
 40
0.133
  1
11,13
  7
Vcadd_SIMP
100
AcDbText
  0
TEXT
  5
30E
100
AcDbEntity
  8
4
370
    15
390
0
  6
Continuous
 62
     7
100
AcDbText
 10
43.455779
 20
5.825124
 30
0.0
 40
0.133
  1
34,92
  7
Vcadd_SIMP
100
AcDbText
  0
TEXT
  5
30F
100
AcDbEntity
  8
4
370
    15
390
0
  6
Continuous
 62
     7
100
AcDbText
 10
43.455779
 20
5.625624
 30
0.0
 40
0.133
  1
57,94
  7
Vcadd_SIMP
100
AcDbText
  0
TEXT
  5
310
100
AcDbEntity
  8
4
370
    15
390
0
  6
Continuous
 62
     7
100
AcDbText
 10
43.490744
 20
4.719008
 30
0.0
 40
0.133
  1
Name in Bohrtabelle: SUN STD T-34A CAVITY
  7
Vcadd_SIMP
100
AcDbText
  0
TEXT
  5
311
100
AcDbEntity
  8
4
370
    15
390
0
  6
Continuous
 62
     7
100
AcDbText
 10
43.490744
 20
4.519508
 30
0.0
 40
0.133
  1
Code in Bohrtabelle: T34A
  7
Vcadd_SIMP
100
AcDbText
  0
TEXT
  5
312
100
AcDbEntity
  8
0
370
    15
390
0
  6
Continuous
 62
     7
100
AcDbText
 10
47.770939
 20
4.583981
 30
0.0
 40
0.13
  1
T-34A Metrisch
 50
270.0
  7
Vcadd_SIMP
 72
     1
 11
48.498215
 21
4.583981
 31
0.0
100
AcDbText
  0
TEXT
  5
313
100
AcDbEntity
  8
0
370
    15
390
0
  6
Continuous
 62
     7
100
AcDbText
 10
47.683097
 20
4.583981
 30
0.0
 40
0.13
  1
Blatt 3 von 3
 50
270.0
  7
Vcadd_SIMP
 72
     1
 11
48.329215
 21
4.583981
 31
0.0
100
AcDbText
  0
TEXT
  5
314
100
AcDbEntity
  8
4
370
    15
390
0
  6
Continuous
 62
     7
100
AcDbText
 10
45.61432
 20
7.178076
 30
0.0
 40
0.15
  1
Gewinde und alle
  7
Vcadd_SIMP
100
AcDbText
  0
TEXT
  5
315
100
AcDbEntity
  8
4
370
    15
390
0
  6
Continuous
 62
     7
100
AcDbText
 10
45.61432
 20
6.983076
 30
0.0
 40
0.15
  1
Durchmesser
  7
Vcadd_SIMP
100
AcDbText
  0
TEXT
  5
316
100
AcDbEntity
  8
4
370
    15
390
0
  6
Continuous
 62
     7
100
AcDbText
 10
43.805493
 20
7.661469
 30
0.0
 40
0.13
  1
Anschluss #1
  7
Vcadd_SIMP
100
AcDbText
  0
TEXT
  5
317
100
AcDbEntity
  8
4
370
    15
390
0
  6
Continuous
 62
     7
100
AcDbText
 10
46.608943
 20
9.345961
 30
0.0
 40
0.12
  1
Abstützung
  7
Vcadd_SIMP
100
AcDbText
  0
TEXT
  5
318
100
AcDbEntity
  8
4
370
    15
390
0
  6
Continuous
 62
     7
100
AcDbText
 10
46.608943
 20
9.165961
 30
0.0
 40
0.12
  1
(für Ventilbuchse)
  7
Vcadd_SIMP
100
AcDbText
  0
LINE
  5
319
100
AcDbEntity
  8
3
370
    15
390
0
  6
Continuous
 62
     1
100
AcDbLine
 10
45.317143
 20
12.313654
 30
0.0
 11
46.525057
 21
12.313654
 31
0.0
  0
LINE
  5
31A
100
AcDbEntity
  8
3
370
    15
390
0
  6
Continuous
 62
     1
100
AcDbLine
 10
45.323772
 20
11.313654
 30
0.0
 11
46.525057
 21
11.313654
 31
0.0
  0
LINE
  5
31B
100
AcDbEntity
  8
3
370
    15
390
0
  6
Continuous
 62
     1
100
AcDbLine
 10
45.328747
 20
10.813654
 30
0.0
 11
46.525057
 21
10.813654
 31
0.0
  0
LINE
  5
31C
100
AcDbEntity
  8
3
370
    15
390
0
  6
Continuous
 62
     1
100
AcDbLine
 10
45.361912
 20
9.813654
 30
0.0
 11
46.525057
 21
9.813654
 31
0.0
  0
LINE
  5
31D
100
AcDbEntity
  8
3
370
    15
390
0
  6
Continuous
 62
     1
100
AcDbLine
 10
46.38001
 20
11.313654
 30
0.0
 11
46.38001
 21
12.313654
 31
0.0
  0
LINE
  5
31E
100
AcDbEntity
  8
3
370
    15
390
0
  6
Continuous
 62
     1
100
AcDbLine
 10
46.38001
 20
9.813654
 30
0.0
 11
46.38001
 21
10.813654
 31
0.0
  0
LINE
  5
31F
100
AcDbEntity
  8
3
370
    15
390
0
  6
Continuous
 62
     1
100
AcDbLine
 10
46.38001
 20
11.169739
 30
0.0
 11
46.631422
 21
11.169739
 31
0.0
  0
LINE
  5
320
100
AcDbEntity
  8
3
370
    15
390
0
  6
Continuous
 62
     1
100
AcDbLine
 10
46.38001
 20
9.669739
 30
0.0
 11
46.631422
 21
9.669739
 31
0.0
  0
LINE
  5
321
100
AcDbEntity
  8
4
370
    15
390
0
  6
Continuous
 62
     1
100
AcDbLine
 10
46.38001
 20
11.169739
 30
0.0
 11
46.38001
 21
11.313654
 31
0.0
  0
LINE
  5
322
100
AcDbEntity
  8
4
370
    15
390
0
  6
Continuous
 62
     1
100
AcDbLine
 10
46.38001
 20
9.669739
 30
0.0
 11
46.38001
 21
9.813654
 31
0.0
  0
TEXT
  5
323
100
AcDbEntity
  8
4
370
    15
390
0
  6
Continuous
 62
     7
100
AcDbText
 10
46.64748
 20
11.111025
 30
0.0
 40
0.142
  1
25,40
  7
Vcadd_SIMP
100
AcDbText
  0
TEXT
  5
324
100
AcDbEntity
  8
4
370
    15
390
0
  6
Continuous
 62
     7
100
AcDbText
 10
46.64748
 20
9.605721
 30
0.0
 40
0.142
  1
25,40
  7
Vcadd_SIMP
100
AcDbText
  0
INSERT
  5
325
100
AcDbEntity
  8
3
370
    15
390
0
  6
Continuous
 62
     7
100
AcDbBlockReference
  2
ARROW
 10
46.38001
 20
12.313654
 30
0.0
 50
90.0
  0
INSERT
  5
326
100
AcDbEntity
  8
3
370
    15
390
0
  6
Continuous
 62
     7
100
AcDbBlockReference
  2
ARROW
 10
46.38001
 20
11.313654
 30
0.0
 50
270.0
  0
INSERT
  5
327
100
AcDbEntity
  8
3
370
    15
390
0
  6
Continuous
 62
     7
100
AcDbBlockReference
  2
ARROW
 10
46.38001
 20
10.813654
 30
0.0
 50
90.0
  0
INSERT
  5
328
100
AcDbEntity
  8
3
370
    15
390
0
  6
Continuous
 62
     7
100
AcDbBlockReference
  2
ARROW
 10
46.38001
 20
9.813654
 30
0.0
 50
270.0
  0
TEXT
  5
329
100
AcDbEntity
  8
4
370
    15
390
0
  6
Continuous
 62
     7
100
AcDbText
 10
45.197966
 20
11.880853
 30
0.0
 40
0.13
  1
Anschluss #3
  7
Vcadd_SIMP
100
AcDbText
  0
TEXT
  5
32A
100
AcDbEntity
  8
4
370
    15
390
0
  6
Continuous
 62
     7
100
AcDbText
 10
45.188055
 20
10.355544
 30
0.0
 40
0.13
  1
Anschluss #2
  7
Vcadd_SIMP
100
AcDbText
  0
LINE
  5
32B
100
AcDbEntity
  8
3
370
    15
390
0
  6
Continuous
 62
     1
100
AcDbLine
 10
45.355278
 20
12.813654
 30
0.0
 11
46.585858
 21
12.813654
 31
0.0
  0
LINE
  5
32C
100
AcDbEntity
  8
3
370
    15
390
0
  6
Continuous
 62
     1
100
AcDbLine
 10
46.440811
 20
12.813654
 30
0.0
 11
46.440811
 21
14.063652
 31
0.0
  0
LINE
  5
32D
100
AcDbEntity
  8
3
370
    15
390
0
  6
Continuous
 62
     1
100
AcDbLine
 10
46.440811
 20
12.620441
 30
0.0
 11
46.692223
 21
12.620441
 31
0.0
  0
LINE
  5
32E
100
AcDbEntity
  8
4
370
    15
390
0
  6
Continuous
 62
     1
100
AcDbLine
 10
46.440811
 20
12.813654
 30
0.0
 11
46.440811
 21
12.620441
 31
0.0
  0
LINE
  5
32F
100
AcDbEntity
  8
1
370
    15
390
0
  6
Continuous
 62
     1
100
AcDbLine
 10
44.921501
 20
13.438654
 30
0.0
 11
46.989707
 21
13.438654
 31
0.0
  0
LINE
  5
330
100
AcDbEntity
  8
1
370
    15
390
0
  6
Continuous
 62
     1
100
AcDbLine
 10
46.854774
 20
13.055347
 30
0.0
 11
47.812177
 21
13.055347
 31
0.0
  0
LINE
  5
331
100
AcDbEntity
  8
4
370
    15
390
0
  6
Continuous
 62
     1
100
AcDbLine
 10
46.989707
 20
13.438654
 30
0.0
 11
46.854774
 21
13.055347
 31
0.0
  0
TEXT
  5
332
100
AcDbEntity
  8
4
370
    15
390
0
  6
Continuous
 62
     7
100
AcDbText
 10
46.7309
 20
12.57381
 30
0.0
 40
0.142
  1
31,75
  7
Vcadd_SIMP
100
AcDbText
  0
INSERT
  5
333
100
AcDbEntity
  8
3
370
    15
390
0
  6
Continuous
 62
     7
100
AcDbBlockReference
  2
ARROW
 10
46.440811
 20
14.063652
 30
0.0
 50
90.0
  0
INSERT
  5
334
100
AcDbEntity
  8
3
370
    15
390
0
  6
Continuous
 62
     7
100
AcDbBlockReference
  2
ARROW
 10
46.440811
 20
12.813654
 30
0.0
 50
270.0
  0
LINE
  5
335
100
AcDbEntity
  8
3
370
    15
390
0
  6
Continuous
 62
     1
100
AcDbLine
 10
45.361912
 20
14.063652
 30
0.0
 11
46.486726
 21
14.063652
 31
0.0
  0
TEXT
  5
336
100
AcDbEntity
  8
4
370
    15
390
0
  6
Continuous
 62
     7
100
AcDbText
 10
45.292471
 20
13.469277
 30
0.0
 40
0.13
  1
Anschluss #4
  7
Vcadd_SIMP
100
AcDbText
  0
TEXT
  5
337
100
AcDbEntity
  8
4
370
    15
390
0
  6
Continuous
 62
     7
100
AcDbText
 10
46.547431
 20
14.330919
 30
0.0
 40
0.12
  1
0,80 Empf. min. Abstand
  7
Vcadd_SIMP
100
AcDbText
  0
TEXT
  5
338
100
AcDbEntity
  8
4
370
    15
390
0
  6
Continuous
 62
     7
100
AcDbText
 10
46.547431
 20
14.150919
 30
0.0
 40
0.12
  1
von Oberfläche (gefräßt)
  7
Vcadd_SIMP
100
AcDbText
  0
TEXT
  5
339
100
AcDbEntity
  8
4
370
    15
390
0
  6
Continuous
 62
     7
100
AcDbText
 10
46.543516
 20
13.958238
 30
0.0
 40
0.12
  1
1,60 Empf. min. Abstand
  7
Vcadd_SIMP
100
AcDbText
  0
TEXT
  5
33A
100
AcDbEntity
  8
4
370
    15
390
0
  6
Continuous
 62
     7
100
AcDbText
 10
46.543516
 20
13.778238
 30
0.0
 40
0.12
  1
von Oberfläche (ungefräßt)
  7
Vcadd_SIMP
100
AcDbText
  0
TEXT
  5
33B
100
AcDbEntity
  8
4
370
    15
390
0
  6
Continuous
 62
     7
100
AcDbText
 10
46.762237
 20
14.850425
 30
0.0
 40
0.12
  1
LS-Anschlag
  7
Vcadd_SIMP
 72
     1
 11
47.288051
 21
14.850425
 31
0.0
100
AcDbText
  0
TEXT
  5
33C
100
AcDbEntity
  8
4
370
    15
390
0
  6
Continuous
 62
     7
100
AcDbText
 10
46.53976
 20
14.670425
 30
0.0
 40
0.12
  1
(Maßbezugskante)
  7
Vcadd_SIMP
 72
     1
 11
47.288051
 21
14.670425
 31
0.0
100
AcDbText
  0
TEXT
  5
33D
100
AcDbEntity
  8
4
370
    15
390
0
  6
Continuous
 62
     7
100
AcDbText
 10
46.719024
 20
16.201594
 30
0.0
 40
0.12
  1
Freiraum für
  7
Vcadd_SIMP
100
AcDbText
  0
TEXT
  5
33E
100
AcDbEntity
  8
4
370
    15
390
0
  6
Continuous
 62
     7
100
AcDbText
 10
46.719024
 20
16.021594
 30
0.0
 40
0.12
  1
Sechskantnuss
  7
Vcadd_SIMP
100
AcDbText
  0
TEXT
  5
33F
100
AcDbEntity
  8
4
370
    15
390
0
  6
Continuous
 62
     7
100
AcDbText
 10
46.554754
 20
16.210446
 30
0.0
 40
0.12
  1
*
  7
Vcadd_SIMP
100
AcDbText
  0
TEXT
  5
340
100
AcDbEntity
  8
4
370
    15
390
0
  6
Continuous
 62
     7
100
AcDbText
 10
46.521708
 20
17.016457
 30
0.0
 40
0.12
  1
Min. Abstand des
  7
Vcadd_SIMP
100
AcDbText
  0
TEXT
  5
341
100
AcDbEntity
  8
4
370
    15
390
0
  6
Continuous
 62
     7
100
AcDbText
 10
46.521708
 20
16.836457
 30
0.0
 40
0.12
  1
Sechskant
  7
Vcadd_SIMP
100
AcDbText
  0
LINE
  5
342
100
AcDbEntity
  8
3
370
    15
390
0
  6
Continuous
 62
     1
100
AcDbLine
 10
47.809288
 20
16.988223
 30
0.0
 11
46.412941
 21
16.988223
 31
0.0
  0
LINE
  5
343
100
AcDbEntity
  8
4
370
    15
390
0
  6
Continuous
 62
     1
100
AcDbLine
 10
45.701972
 20
16.001652
 30
0.0
 11
46.412941
 21
16.988223
 31
0.0
  0
TEXT
  5
344
100
AcDbEntity
  8
4
370
    15
390
0
  6
Continuous
 62
     7
100
AcDbText
 10
44.858276
 20
16.623985
 30
0.0
 40
0.12
  1
SW 41,10
  7
Vcadd_SIMP
100
AcDbText
  0
TEXT
  5
345
100
AcDbEntity
  8
4
370
    15
390
0
  6
Continuous
 62
     7
100
AcDbText
 10
41.87114
 20
19.387578
 30
0.0
 40
0.14
  1
T-
  7
Vcadd_SIMP
100
AcDbText
  0
TEXT
  5
346
100
AcDbEntity
  8
4
370
    15
390
0
  6
Continuous
 62
     7
100
AcDbText
 10
42.643671
 20
19.387578
 30
0.0
 40
0.14
  1
Einschraubventilbohrung
  7
Vcadd_SIMP
100
AcDbText
  0
LINE
  5
347
100
AcDbEntity
  8
3
370
    15
390
0
  6
Continuous
 62
     1
100
AcDbLine
 10
41.912797
 20
19.359231
 30
0.0
 11
45.854709
 21
19.359231
 31
0.0
  0
TEXT
  5
348
100
AcDbEntity
  8
4
370
    15
390
0
  6
Continuous
 62
     7
100
AcDbText
 10
41.649907
 20
19.119114
 30
0.0
 40
0.14
  1
(alle Abmessungen in Millimeter)
  7
Vcadd_SIMP
100
AcDbText
  0
LINE
  5
349
100
AcDbEntity
  8
4
370
    15
390
0
  6
Continuous
 62
     7
100
AcDbLine
 10
41.178499
 20
18.873363
 30
0.0
 11
41.251068
 21
18.999057
 31
0.0
  0
LINE
  5
34A
100
AcDbEntity
  8
4
370
    15
390
0
  6
Continuous
 62
     7
100
AcDbLine
 10
41.323638
 20
18.873363
 30
0.0
 11
41.251068
 21
18.999057
 31
0.0
  0
LINE
  5
34B
100
AcDbEntity
  8
4
370
    15
390
0
  6
Continuous
 62
     7
100
AcDbLine
 10
41.178499
 20
18.873363
 30
0.0
 11
41.323638
 21
18.873363
 31
0.0
  0
TEXT
  5
34C
100
AcDbEntity
  8
4
370
    15
390
0
  6
Continuous
 62
     7
100
AcDbText
 10
42.121991
 20
19.38487
 30
0.0
 40
0.14
  1
34A
  7
Vcadd_SIMP
100
AcDbText
  0
TEXT
  5
34D
100
AcDbEntity
  8
4
370
    15
390
0
  6
Continuous
 62
     7
100
AcDbText
 10
41.456248
 20
18.876184
 30
0.0
 40
0.14
  1
M48 x 2.0-6H  ISO  (Metrisch) Gewinde
  7
Vcadd_SIMP
100
AcDbText
  0
TEXT
  5
34E
100
AcDbEntity
  8
4
370
    15
390
0
  6
Continuous
 62
     7
100
AcDbText
 10
42.086928
 20
18.598774
 30
0.0
 40
0.14
  1
46,70/46,92 PITCH DIA.
  7
Vcadd_SIMP
 72
     1
 11
43.857928
 21
18.598774
 31
0.0
100
AcDbText
  0
TEXT
  5
34F
100
AcDbEntity
  8
4
370
    15
390
0
  6
Continuous
 62
     7
100
AcDbText
 10
40.078748
 20
14.003979
 30
0.0
 40
0.142
  1
22,23
  7
Vcadd_SIMP
100
AcDbText
  0
LINE
  5
350
100
AcDbEntity
  8
3
370
    15
390
0
  6
Continuous
 62
     1
100
AcDbLine
 10
43.194778
 20
13.938652
 30
0.0
 11
43.088422
 21
13.938652
 31
0.0
  0
LINE
  5
351
100
AcDbEntity
  8
4
370
    15
390
0
  6
Continuous
 62
     1
100
AcDbLine
 10
43.088422
 20
13.938652
 30
0.0
 11
43.134478
 21
14.064228
 31
0.0
  0
LINE
  5
352
100
AcDbEntity
  8
3
370
    15
390
0
  6
Continuous
 62
     1
100
AcDbLine
 10
43.134478
 20
14.064228
 30
0.0
 11
40.80772
 21
14.064228
 31
0.0
  0
TEXT
  5
353
100
AcDbEntity
  8
4
370
    15
390
0
  6
Continuous
 62
     7
100
AcDbText
 10
40.823323
 20
14.098216
 30
0.0
 40
0.12
  1
Min. Abstand für Bereich mit
  7
Vcadd_SIMP
100
AcDbText
  0
TEXT
  5
354
100
AcDbEntity
  8
4
370
    15
390
0
  6
Continuous
 62
     7
100
AcDbText
 10
40.823323
 20
13.918216
 30
0.0
 40
0.12
  1
vollständigen Gewindegängen
  7
Vcadd_SIMP
100
AcDbText
  0
LINE
  5
355
100
AcDbEntity
  8
4
370
    15
390
0
  6
Continuous
 62
     7
100
AcDbLine
 10
42.358695
 20
8.356783
 30
0.0
 11
42.438724
 21
8.525118
 31
0.0
  0
TEXT
  5
356
100
AcDbEntity
  8
4
370
    15
390
0
  6
Continuous
 62
     7
100
AcDbText
 10
42.341006
 20
8.371946
 30
0.0
 40
0.16275
  1
O
  7
Vcadd_SIMP
100
AcDbText
  0
TEXT
  5
357
100
AcDbEntity
  8
4
370
    15
390
0
  6
Continuous
 62
     7
100
AcDbText
 10
41.544196
 20
8.378774
 30
0.0
 40
0.142
  1
33,32
  7
Vcadd_SIMP
100
AcDbText
  0
LINE
  5
358
100
AcDbEntity
  8
3
370
    15
390
0
  6
Continuous
 62
     1
100
AcDbLine
 10
43.562111
 20
8.442281
 30
0.0
 11
42.562502
 21
8.442281
 31
0.0
  0
TEXT
  5
359
100
AcDbEntity
  8
4
370
    15
390
0
  6
Continuous
 62
     7
100
AcDbText
 10
42.576032
 20
8.517722
 30
0.0
 40
0.12
  1
Vorbohrer
  7
Vcadd_SIMP
100
AcDbText
  0
TEXT
  5
35A
100
AcDbEntity
  8
4
370
    15
390
0
  6
Continuous
 62
     7
100
AcDbText
 10
39.650049
 20
9.385228
 30
0.0
 40
0.13
  1
Abmessungen,Werkzeuge,Anschlüsse
 50
270.0
  7
Vcadd_SIMP
100
AcDbText
  0
TEXT
  5
35B
100
AcDbEntity
  8
4
370
    15
390
0
  6
Continuous
 62
     7
100
AcDbText
 10
39.842892
 20
8.772474
 30
0.0
 40
0.13
  1
T-34A Einschraubbohrung
 50
270.0
  7
Vcadd_SIMP
100
AcDbText
  0
TEXT
  5
35C
100
AcDbEntity
  8
0
370
    15
390
0
  6
Continuous
 62
     7
100
AcDbText
 10
39.100636
 20
4.553033
 30
0.0
 40
0.13
  1
T-34A Metrisch
 50
270.0
  7
Vcadd_SIMP
 72
     1
 11
39.827912
 21
4.553033
 31
0.0
100
AcDbText
  0
TEXT
  5
35D
100
AcDbEntity
  8
0
370
    15
390
0
  6
Continuous
 62
     7
100
AcDbText
 10
39.012794
 20
4.553033
 30
0.0
 40
0.13
  1
Blatt 3 von 3
 50
270.0
  7
Vcadd_SIMP
 72
     1
 11
39.658912
 21
4.553033
 31
0.0
100
AcDbText
  0
CIRCLE
  5
35E
100
AcDbEntity
  8
0
370
    15
390
0
  6
Continuous
 62
     7
100
AcDbCircle
 10
39.379218
 20
4.036304
 30
0.0
 40
0.054385
  0
CIRCLE
  5
35F
100
AcDbEntity
  8
0
370
    15
390
0
  6
Continuous
 62
     2
100
AcDbCircle
 10
39.200976
 20
5.832023
 30
0.0
 40
0.312
  0
LINE
  5
360
100
AcDbEntity
  8
0
370
    15
390
0
  6
Continuous
 62
     7
100
AcDbLine
 10
39.265983
 20
5.94981
 30
0.0
 11
39.320449
 21
5.94981
 31
0.0
  0
LINE
  5
361
100
AcDbEntity
  8
0
370
    15
390
0
  6
Continuous
 62
     7
100
AcDbLine
 10
39.265983
 20
6.042961
 30
0.0
 11
39.265983
 21
5.94981
 31
0.0
  0
LINE
  5
362
100
AcDbEntity
  8
0
370
    15
390
0
  6
Continuous
 62
     7
100
AcDbLine
 10
39.228477
 20
6.042961
 30
0.0
 11
39.265983
 21
6.042961
 31
0.0
  0
LINE
  5
363
100
AcDbEntity
  8
0
370
    15
390
0
  6
Continuous
 62
     7
100
AcDbLine
 10
39.228477
 20
5.94981
 30
0.0
 11
39.228477
 21
6.042961
 31
0.0
  0
LINE
  5
364
100
AcDbEntity
  8
0
370
    15
390
0
  6
Continuous
 62
     7
100
AcDbLine
 10
39.0815
 20
5.94981
 30
0.0
 11
39.228477
 21
5.94981
 31
0.0
  0
LINE
  5
365
100
AcDbEntity
  8
0
370
    15
390
0
  6
Continuous
 62
     7
100
AcDbLine
 10
39.0815
 20
6.097961
 30
0.0
 11
39.0815
 21
5.94981
 31
0.0
  0
LINE
  5
366
100
AcDbEntity
  8
0
370
    15
390
0
  6
Continuous
 62
     7
100
AcDbLine
 10
39.136542
 20
6.097961
 30
0.0
 11
39.0815
 21
6.097961
 31
0.0
  0
LINE
  5
367
100
AcDbEntity
  8
0
370
    15
390
0
  6
Continuous
 62
     7
100
AcDbLine
 10
39.136542
 20
6.00481
 30
0.0
 11
39.136542
 21
6.097961
 31
0.0
  0
LINE
  5
368
100
AcDbEntity
  8
0
370
    15
390
0
  6
Continuous
 62
     7
100
AcDbLine
 10
39.173093
 20
6.00481
 30
0.0
 11
39.136542
 21
6.00481
 31
0.0
  0
LINE
  5
369
100
AcDbEntity
  8
0
370
    15
390
0
  6
Continuous
 62
     7
100
AcDbLine
 10
39.173093
 20
6.097961
 30
0.0
 11
39.173093
 21
6.00481
 31
0.0
  0
LINE
  5
36A
100
AcDbEntity
  8
0
370
    15
390
0
  6
Continuous
 62
     7
100
AcDbLine
 10
39.320449
 20
6.097961
 30
0.0
 11
39.173093
 21
6.097961
 31
0.0
  0
LINE
  5
36B
100
AcDbEntity
  8
0
370
    15
390
0
  6
Continuous
 62
     7
100
AcDbLine
 10
39.320449
 20
6.097961
 30
0.0
 11
39.320449
 21
5.94981
 31
0.0
  0
LINE
  5
36C
100
AcDbEntity
  8
0
370
    15
390
0
  6
Continuous
 62
     7
100
AcDbLine
 10
39.320449
 20
5.75795
 30
0.0
 11
39.320449
 21
5.813656
 31
0.0
  0
LINE
  5
36D
100
AcDbEntity
  8
0
370
    15
390
0
  6
Continuous
 62
     7
100
AcDbLine
 10
39.0815
 20
5.75795
 30
0.0
 11
39.320449
 21
5.75795
 31
0.0
  0
LINE
  5
36E
100
AcDbEntity
  8
0
370
    15
390
0
  6
Continuous
 62
     7
100
AcDbLine
 10
39.0815
 20
5.906101
 30
0.0
 11
39.0815
 21
5.75795
 31
0.0
  0
LINE
  5
36F
100
AcDbEntity
  8
0
370
    15
390
0
  6
Continuous
 62
     7
100
AcDbLine
 10
39.320449
 20
5.906101
 30
0.0
 11
39.0815
 21
5.906101
 31
0.0
  0
LINE
  5
370
100
AcDbEntity
  8
0
370
    15
390
0
  6
Continuous
 62
     7
100
AcDbLine
 10
39.320449
 20
5.851181
 30
0.0
 11
39.320449
 21
5.906101
 31
0.0
  0
LINE
  5
371
100
AcDbEntity
  8
0
370
    15
390
0
  6
Continuous
 62
     7
100
AcDbLine
 10
39.1365
 20
5.851181
 30
0.0
 11
39.320449
 21
5.851181
 31
0.0
  0
LINE
  5
372
100
AcDbEntity
  8
0
370
    15
390
0
  6
Continuous
 62
     7
100
AcDbLine
 10
39.1365
 20
5.813656
 30
0.0
 11
39.1365
 21
5.851181
 31
0.0
  0
LINE
  5
373
100
AcDbEntity
  8
0
370
    15
390
0
  6
Continuous
 62
     7
100
AcDbLine
 10
39.1365
 20
5.813656
 30
0.0
 11
39.320449
 21
5.813656
 31
0.0
  0
LINE
  5
374
100
AcDbEntity
  8
0
370
    15
390
0
  6
Continuous
 62
     7
100
AcDbLine
 10
39.0815
 20
5.656372
 30
0.0
 11
39.0815
 21
5.712078
 31
0.0
  0
LINE
  5
375
100
AcDbEntity
  8
0
370
    15
390
0
  6
Continuous
 62
     7
100
AcDbLine
 10
39.265449
 20
5.656372
 30
0.0
 11
39.0815
 21
5.656372
 31
0.0
  0
LINE
  5
376
100
AcDbEntity
  8
0
370
    15
390
0
  6
Continuous
 62
     7
100
AcDbLine
 10
39.265449
 20
5.618847
 30
0.0
 11
39.265449
 21
5.656372
 31
0.0
  0
LINE
  5
377
100
AcDbEntity
  8
0
370
    15
390
0
  6
Continuous
 62
     7
100
AcDbLine
 10
39.0815
 20
5.618847
 30
0.0
 11
39.265449
 21
5.618847
 31
0.0
  0
LINE
  5
378
100
AcDbEntity
  8
0
370
    15
390
0
  6
Continuous
 62
     7
100
AcDbLine
 10
39.0815
 20
5.563926
 30
0.0
 11
39.0815
 21
5.618847
 31
0.0
  0
LINE
  5
379
100
AcDbEntity
  8
0
370
    15
390
0
  6
Continuous
 62
     7
100
AcDbLine
 10
39.320449
 20
5.563926
 30
0.0
 11
39.0815
 21
5.563926
 31
0.0
  0
LINE
  5
37A
100
AcDbEntity
  8
0
370
    15
390
0
  6
Continuous
 62
     7
100
AcDbLine
 10
39.320449
 20
5.712078
 30
0.0
 11
39.320449
 21
5.563926
 31
0.0
  0
LINE
  5
37B
100
AcDbEntity
  8
0
370
    15
390
0
  6
Continuous
 62
     7
100
AcDbLine
 10
39.320449
 20
5.712078
 30
0.0
 11
39.0815
 21
5.712078
 31
0.0
  0
LINE
  5
37C
100
AcDbEntity
  8
0
370
    15
390
0
  6
Continuous
 62
     7
100
AcDbLine
 10
39.296975
 20
5.347767
 30
0.0
 11
39.363658
 21
5.347767
 31
0.0
  0
LINE
  5
37D
100
AcDbEntity
  8
0
370
    15
390
0
  6
Continuous
 62
     7
100
AcDbLine
 10
39.296975
 20
5.267406
 30
0.0
 11
39.296975
 21
5.347767
 31
0.0
  0
LINE
  5
37E
100
AcDbEntity
  8
0
370
    15
390
0
  6
Continuous
 62
     7
100
AcDbLine
 10
39.100974
 20
5.267406
 30
0.0
 11
39.296975
 21
5.267406
 31
0.0
  0
LINE
  5
37F
100
AcDbEntity
  8
0
370
    15
390
0
  6
Continuous
 62
     7
100
AcDbLine
 10
39.100974
 20
5.307586
 30
0.0
 11
39.100974
 21
5.267406
 31
0.0
  0
LINE
  5
380
100
AcDbEntity
  8
0
370
    15
390
0
  6
Continuous
 62
     7
100
AcDbLine
 10
39.256795
 20
5.307586
 30
0.0
 11
39.100974
 21
5.307586
 31
0.0
  0
LINE
  5
381
100
AcDbEntity
  8
0
370
    15
390
0
  6
Continuous
 62
     7
100
AcDbLine
 10
39.256795
 20
5.347767
 30
0.0
 11
39.256795
 21
5.307586
 31
0.0
  0
LINE
  5
382
100
AcDbEntity
  8
0
370
    15
390
0
  6
Continuous
 62
     7
100
AcDbLine
 10
39.100974
 20
5.347767
 30
0.0
 11
39.256795
 21
5.347767
 31
0.0
  0
LINE
  5
383
100
AcDbEntity
  8
0
370
    15
390
0
  6
Continuous
 62
     7
100
AcDbLine
 10
39.100974
 20
5.387947
 30
0.0
 11
39.100974
 21
5.347767
 31
0.0
  0
LINE
  5
384
100
AcDbEntity
  8
0
370
    15
390
0
  6
Continuous
 62
     7
100
AcDbLine
 10
39.363658
 20
5.387947
 30
0.0
 11
39.100974
 21
5.387947
 31
0.0
  0
LINE
  5
385
100
AcDbEntity
  8
0
370
    15
390
0
  6
Continuous
 62
     7
100
AcDbLine
 10
39.363658
 20
5.387947
 30
0.0
 11
39.363658
 21
5.347767
 31
0.0
  0
LINE
  5
386
100
AcDbEntity
  8
0
370
    15
390
0
  6
Continuous
 62
     7
100
AcDbLine
 10
39.141154
 20
5.187046
 30
0.0
 11
39.296975
 21
5.187046
 31
0.0
  0
LINE
  5
387
100
AcDbEntity
  8
0
370
    15
390
0
  6
Continuous
 62
     7
100
AcDbLine
 10
39.141154
 20
5.146866
 30
0.0
 11
39.141154
 21
5.187046
 31
0.0
  0
LINE
  5
388
100
AcDbEntity
  8
0
370
    15
390
0
  6
Continuous
 62
     7
100
AcDbLine
 10
39.296975
 20
5.146866
 30
0.0
 11
39.141154
 21
5.146866
 31
0.0
  0
LINE
  5
389
100
AcDbEntity
  8
0
370
    15
390
0
  6
Continuous
 62
     7
100
AcDbLine
 10
39.296975
 20
5.106685
 30
0.0
 11
39.296975
 21
5.146866
 31
0.0
  0
LINE
  5
38A
100
AcDbEntity
  8
0
370
    15
390
0
  6
Continuous
 62
     7
100
AcDbLine
 10
39.021316
 20
5.106685
 30
0.0
 11
39.296975
 21
5.106685
 31
0.0
  0
LINE
  5
38B
100
AcDbEntity
  8
0
370
    15
390
0
  6
Continuous
 62
     7
100
AcDbLine
 10
39.020614
 20
5.184604
 30
0.0
 11
39.021316
 21
5.106685
 31
0.0
  0
LINE
  5
38C
100
AcDbEntity
  8
0
370
    15
390
0
  6
Continuous
 62
     7
100
AcDbLine
 10
39.060794
 20
5.184604
 30
0.0
 11
39.020614
 21
5.184604
 31
0.0
  0
LINE
  5
38D
100
AcDbEntity
  8
0
370
    15
390
0
  6
Continuous
 62
     7
100
AcDbLine
 10
39.060794
 20
5.146866
 30
0.0
 11
39.060794
 21
5.184604
 31
0.0
  0
LINE
  5
38E
100
AcDbEntity
  8
0
370
    15
390
0
  6
Continuous
 62
     7
100
AcDbLine
 10
39.100974
 20
5.146866
 30
0.0
 11
39.060794
 21
5.146866
 31
0.0
  0
LINE
  5
38F
100
AcDbEntity
  8
0
370
    15
390
0
  6
Continuous
 62
     7
100
AcDbLine
 10
39.100974
 20
5.227226
 30
0.0
 11
39.100974
 21
5.146866
 31
0.0
  0
LINE
  5
390
100
AcDbEntity
  8
0
370
    15
390
0
  6
Continuous
 62
     7
100
AcDbLine
 10
39.296975
 20
5.227226
 30
0.0
 11
39.100974
 21
5.227226
 31
0.0
  0
LINE
  5
391
100
AcDbEntity
  8
0
370
    15
390
0
  6
Continuous
 62
     7
100
AcDbLine
 10
39.296975
 20
5.227226
 30
0.0
 11
39.296975
 21
5.187046
 31
0.0
  0
LINE
  5
392
100
AcDbEntity
  8
0
370
    15
390
0
  6
Continuous
 62
     7
100
AcDbLine
 10
39.363658
 20
4.98463
 30
0.0
 11
39.296975
 21
4.98463
 31
0.0
  0
LINE
  5
393
100
AcDbEntity
  8
0
370
    15
390
0
  6
Continuous
 62
     7
100
AcDbLine
 10
39.363658
 20
4.944446
 30
0.0
 11
39.363658
 21
4.98463
 31
0.0
  0
LINE
  5
394
100
AcDbEntity
  8
0
370
    15
390
0
  6
Continuous
 62
     7
100
AcDbLine
 10
39.100974
 20
4.944446
 30
0.0
 11
39.363658
 21
4.944446
 31
0.0
  0
LINE
  5
395
100
AcDbEntity
  8
0
370
    15
390
0
  6
Continuous
 62
     7
100
AcDbLine
 10
39.100974
 20
5.064991
 30
0.0
 11
39.100974
 21
4.944446
 31
0.0
  0
LINE
  5
396
100
AcDbEntity
  8
0
370
    15
390
0
  6
Continuous
 62
     7
100
AcDbLine
 10
39.296975
 20
5.064991
 30
0.0
 11
39.100974
 21
5.064991
 31
0.0
  0
LINE
  5
397
100
AcDbEntity
  8
0
370
    15
390
0
  6
Continuous
 62
     7
100
AcDbLine
 10
39.296975
 20
5.064991
 30
0.0
 11
39.296975
 21
4.98463
 31
0.0
  0
LINE
  5
398
100
AcDbEntity
  8
0
370
    15
390
0
  6
Continuous
 62
     7
100
AcDbLine
 10
39.256795
 20
4.98463
 30
0.0
 11
39.141154
 21
4.98463
 31
0.0
  0
LINE
  5
399
100
AcDbEntity
  8
0
370
    15
390
0
  6
Continuous
 62
     7
100
AcDbLine
 10
39.141154
 20
5.024807
 30
0.0
 11
39.141154
 21
4.98463
 31
0.0
  0
LINE
  5
39A
100
AcDbEntity
  8
0
370
    15
390
0
  6
Continuous
 62
     7
100
AcDbLine
 10
39.256795
 20
5.024807
 30
0.0
 11
39.141154
 21
5.024807
 31
0.0
  0
LINE
  5
39B
100
AcDbEntity
  8
0
370
    15
390
0
  6
Continuous
 62
     7
100
AcDbLine
 10
39.256795
 20
5.024807
 30
0.0
 11
39.256795
 21
4.98463
 31
0.0
  0
LINE
  5
39C
100
AcDbEntity
  8
0
370
    15
390
0
  6
Continuous
 62
     7
100
AcDbLine
 10
39.256795
 20
4.82391
 30
0.0
 11
39.296975
 21
4.82391
 31
0.0
  0
LINE
  5
39D
100
AcDbEntity
  8
0
370
    15
390
0
  6
Continuous
 62
     7
100
AcDbLine
 10
39.256795
 20
4.86409
 30
0.0
 11
39.256795
 21
4.82391
 31
0.0
  0
LINE
  5
39E
100
AcDbEntity
  8
0
370
    15
390
0
  6
Continuous
 62
     7
100
AcDbLine
 10
39.100974
 20
4.86409
 30
0.0
 11
39.256795
 21
4.86409
 31
0.0
  0
LINE
  5
39F
100
AcDbEntity
  8
0
370
    15
390
0
  6
Continuous
 62
     7
100
AcDbLine
 10
39.100974
 20
4.90427
 30
0.0
 11
39.100974
 21
4.86409
 31
0.0
  0
LINE
  5
3A0
100
AcDbEntity
  8
0
370
    15
390
0
  6
Continuous
 62
     7
100
AcDbLine
 10
39.296975
 20
4.90427
 30
0.0
 11
39.100974
 21
4.90427
 31
0.0
  0
LINE
  5
3A1
100
AcDbEntity
  8
0
370
    15
390
0
  6
Continuous
 62
     7
100
AcDbLine
 10
39.296975
 20
4.90427
 30
0.0
 11
39.296975
 21
4.82391
 31
0.0
  0
LINE
  5
3A2
100
AcDbEntity
  8
0
370
    15
390
0
  6
Continuous
 62
     7
100
AcDbLine
 10
39.141154
 20
4.582828
 30
0.0
 11
39.296975
 21
4.582828
 31
0.0
  0
LINE
  5
3A3
100
AcDbEntity
  8
0
370
    15
390
0
  6
Continuous
 62
     7
100
AcDbLine
 10
39.141154
 20
4.542648
 30
0.0
 11
39.141154
 21
4.582828
 31
0.0
  0
LINE
  5
3A4
100
AcDbEntity
  8
0
370
    15
390
0
  6
Continuous
 62
     7
100
AcDbLine
 10
39.296975
 20
4.542648
 30
0.0
 11
39.141154
 21
4.542648
 31
0.0
  0
LINE
  5
3A5
100
AcDbEntity
  8
0
370
    15
390
0
  6
Continuous
 62
     7
100
AcDbLine
 10
39.296975
 20
4.502468
 30
0.0
 11
39.296975
 21
4.542648
 31
0.0
  0
LINE
  5
3A6
100
AcDbEntity
  8
0
370
    15
390
0
  6
Continuous
 62
     7
100
AcDbLine
 10
39.100974
 20
4.502468
 30
0.0
 11
39.296975
 21
4.502468
 31
0.0
  0
LINE
  5
3A7
100
AcDbEntity
  8
0
370
    15
390
0
  6
Continuous
 62
     7
100
AcDbLine
 10
39.100974
 20
4.623008
 30
0.0
 11
39.100974
 21
4.502468
 31
0.0
  0
LINE
  5
3A8
100
AcDbEntity
  8
0
370
    15
390
0
  6
Continuous
 62
     7
100
AcDbLine
 10
39.296975
 20
4.623008
 30
0.0
 11
39.100974
 21
4.623008
 31
0.0
  0
LINE
  5
3A9
100
AcDbEntity
  8
0
370
    15
390
0
  6
Continuous
 62
     7
100
AcDbLine
 10
39.296975
 20
4.623008
 30
0.0
 11
39.296975
 21
4.582828
 31
0.0
  0
LINE
  5
3AA
100
AcDbEntity
  8
0
370
    15
390
0
  6
Continuous
 62
     7
100
AcDbLine
 10
39.100974
 20
4.422107
 30
0.0
 11
39.363658
 21
4.422107
 31
0.0
  0
LINE
  5
3AB
100
AcDbEntity
  8
0
370
    15
390
0
  6
Continuous
 62
     7
100
AcDbLine
 10
39.100974
 20
4.462288
 30
0.0
 11
39.100974
 21
4.422107
 31
0.0
  0
LINE
  5
3AC
100
AcDbEntity
  8
0
370
    15
390
0
  6
Continuous
 62
     7
100
AcDbLine
 10
39.363658
 20
4.462288
 30
0.0
 11
39.100974
 21
4.462288
 31
0.0
  0
LINE
  5
3AD
100
AcDbEntity
  8
0
370
    15
390
0
  6
Continuous
 62
     7
100
AcDbLine
 10
39.363658
 20
4.462288
 30
0.0
 11
39.363658
 21
4.422107
 31
0.0
  0
LINE
  5
3AE
100
AcDbEntity
  8
0
370
    15
390
0
  6
Continuous
 62
     7
100
AcDbLine
 10
39.323478
 20
4.341747
 30
0.0
 11
39.363658
 21
4.341747
 31
0.0
  0
LINE
  5
3AF
100
AcDbEntity
  8
0
370
    15
390
0
  6
Continuous
 62
     7
100
AcDbLine
 10
39.323478
 20
4.381927
 30
0.0
 11
39.323478
 21
4.341747
 31
0.0
  0
LINE
  5
3B0
100
AcDbEntity
  8
0
370
    15
390
0
  6
Continuous
 62
     7
100
AcDbLine
 10
39.363658
 20
4.381927
 30
0.0
 11
39.323478
 21
4.381927
 31
0.0
  0
LINE
  5
3B1
100
AcDbEntity
  8
0
370
    15
390
0
  6
Continuous
 62
     7
100
AcDbLine
 10
39.363658
 20
4.381927
 30
0.0
 11
39.363658
 21
4.341747
 31
0.0
  0
LINE
  5
3B2
100
AcDbEntity
  8
0
370
    15
390
0
  6
Continuous
 62
     7
100
AcDbLine
 10
39.100974
 20
4.341747
 30
0.0
 11
39.296975
 21
4.341747
 31
0.0
  0
LINE
  5
3B3
100
AcDbEntity
  8
0
370
    15
390
0
  6
Continuous
 62
     7
100
AcDbLine
 10
39.100974
 20
4.381927
 30
0.0
 11
39.100974
 21
4.341747
 31
0.0
  0
LINE
  5
3B4
100
AcDbEntity
  8
0
370
    15
390
0
  6
Continuous
 62
     7
100
AcDbLine
 10
39.296975
 20
4.381927
 30
0.0
 11
39.100974
 21
4.381927
 31
0.0
  0
LINE
  5
3B5
100
AcDbEntity
  8
0
370
    15
390
0
  6
Continuous
 62
     7
100
AcDbLine
 10
39.296975
 20
4.381927
 30
0.0
 11
39.296975
 21
4.341747
 31
0.0
  0
LINE
  5
3B6
100
AcDbEntity
  8
0
370
    15
390
0
  6
Continuous
 62
     7
100
AcDbLine
 10
39.256795
 20
4.185825
 30
0.0
 11
39.296975
 21
4.185825
 31
0.0
  0
LINE
  5
3B7
100
AcDbEntity
  8
0
370
    15
390
0
  6
Continuous
 62
     7
100
AcDbLine
 10
39.256795
 20
4.261387
 30
0.0
 11
39.256795
 21
4.185825
 31
0.0
  0
LINE
  5
3B8
100
AcDbEntity
  8
0
370
    15
390
0
  6
Continuous
 62
     7
100
AcDbLine
 10
39.141154
 20
4.261387
 30
0.0
 11
39.256795
 21
4.261387
 31
0.0
  0
LINE
  5
3B9
100
AcDbEntity
  8
0
370
    15
390
0
  6
Continuous
 62
     7
100
AcDbLine
 10
39.141154
 20
4.185825
 30
0.0
 11
39.141154
 21
4.261387
 31
0.0
  0
LINE
  5
3BA
100
AcDbEntity
  8
0
370
    15
390
0
  6
Continuous
 62
     7
100
AcDbLine
 10
39.100974
 20
4.185825
 30
0.0
 11
39.141154
 21
4.185825
 31
0.0
  0
LINE
  5
3BB
100
AcDbEntity
  8
0
370
    15
390
0
  6
Continuous
 62
     7
100
AcDbLine
 10
39.100974
 20
4.301567
 30
0.0
 11
39.100974
 21
4.185825
 31
0.0
  0
LINE
  5
3BC
100
AcDbEntity
  8
0
370
    15
390
0
  6
Continuous
 62
     7
100
AcDbLine
 10
39.296975
 20
4.301567
 30
0.0
 11
39.100974
 21
4.301567
 31
0.0
  0
LINE
  5
3BD
100
AcDbEntity
  8
0
370
    15
390
0
  6
Continuous
 62
     7
100
AcDbLine
 10
39.296975
 20
4.301567
 30
0.0
 11
39.296975
 21
4.185825
 31
0.0
  0
LINE
  5
3BE
100
AcDbEntity
  8
0
370
    15
390
0
  6
Continuous
 62
     7
100
AcDbLine
 10
39.256795
 20
4.018364
 30
0.0
 11
39.296975
 21
4.018364
 31
0.0
  0
LINE
  5
3BF
100
AcDbEntity
  8
0
370
    15
390
0
  6
Continuous
 62
     7
100
AcDbLine
 10
39.256795
 20
4.105465
 30
0.0
 11
39.256795
 21
4.018364
 31
0.0
  0
LINE
  5
3C0
100
AcDbEntity
  8
0
370
    15
390
0
  6
Continuous
 62
     7
100
AcDbLine
 10
39.219066
 20
4.105465
 30
0.0
 11
39.256795
 21
4.105465
 31
0.0
  0
LINE
  5
3C1
100
AcDbEntity
  8
0
370
    15
390
0
  6
Continuous
 62
     7
100
AcDbLine
 10
39.219066
 20
4.018364
 30
0.0
 11
39.219066
 21
4.105465
 31
0.0
  0
LINE
  5
3C2
100
AcDbEntity
  8
0
370
    15
390
0
  6
Continuous
 62
     7
100
AcDbLine
 10
39.100974
 20
4.018364
 30
0.0
 11
39.219066
 21
4.018364
 31
0.0
  0
LINE
  5
3C3
100
AcDbEntity
  8
0
370
    15
390
0
  6
Continuous
 62
     7
100
AcDbLine
 10
39.100974
 20
4.145645
 30
0.0
 11
39.100974
 21
4.018364
 31
0.0
  0
LINE
  5
3C4
100
AcDbEntity
  8
0
370
    15
390
0
  6
Continuous
 62
     7
100
AcDbLine
 10
39.141154
 20
4.145645
 30
0.0
 11
39.100974
 21
4.145645
 31
0.0
  0
LINE
  5
3C5
100
AcDbEntity
  8
0
370
    15
390
0
  6
Continuous
 62
     7
100
AcDbLine
 10
39.141154
 20
4.058544
 30
0.0
 11
39.141154
 21
4.145645
 31
0.0
  0
LINE
  5
3C6
100
AcDbEntity
  8
0
370
    15
390
0
  6
Continuous
 62
     7
100
AcDbLine
 10
39.178886
 20
4.058544
 30
0.0
 11
39.141154
 21
4.058544
 31
0.0
  0
LINE
  5
3C7
100
AcDbEntity
  8
0
370
    15
390
0
  6
Continuous
 62
     7
100
AcDbLine
 10
39.178886
 20
4.145645
 30
0.0
 11
39.178886
 21
4.058544
 31
0.0
  0
LINE
  5
3C8
100
AcDbEntity
  8
0
370
    15
390
0
  6
Continuous
 62
     7
100
AcDbLine
 10
39.296975
 20
4.145645
 30
0.0
 11
39.178886
 21
4.145645
 31
0.0
  0
LINE
  5
3C9
100
AcDbEntity
  8
0
370
    15
390
0
  6
Continuous
 62
     7
100
AcDbLine
 10
39.296975
 20
4.145645
 30
0.0
 11
39.296975
 21
4.018364
 31
0.0
  0
LINE
  5
3CA
100
AcDbEntity
  8
0
370
    15
390
0
  6
Continuous
 62
     7
100
AcDbLine
 10
39.100974
 20
4.663189
 30
0.0
 11
39.296975
 21
4.663189
 31
0.0
  0
LINE
  5
3CB
100
AcDbEntity
  8
0
370
    15
390
0
  6
Continuous
 62
     7
100
AcDbLine
 10
39.100974
 20
4.783729
 30
0.0
 11
39.100974
 21
4.663189
 31
0.0
  0
LINE
  5
3CC
100
AcDbEntity
  8
0
370
    15
390
0
  6
Continuous
 62
     7
100
AcDbLine
 10
39.221515
 20
4.783729
 30
0.0
 11
39.100974
 21
4.783729
 31
0.0
  0
LINE
  5
3CD
100
AcDbEntity
  8
0
370
    15
390
0
  6
Continuous
 62
     7
100
AcDbLine
 10
39.221515
 20
4.703369
 30
0.0
 11
39.221515
 21
4.783729
 31
0.0
  0
LINE
  5
3CE
100
AcDbEntity
  8
0
370
    15
390
0
  6
Continuous
 62
     7
100
AcDbLine
 10
39.256795
 20
4.703369
 30
0.0
 11
39.221515
 21
4.703369
 31
0.0
  0
LINE
  5
3CF
100
AcDbEntity
  8
0
370
    15
390
0
  6
Continuous
 62
     7
100
AcDbLine
 10
39.256795
 20
4.765953
 30
0.0
 11
39.256795
 21
4.703369
 31
0.0
  0
LINE
  5
3D0
100
AcDbEntity
  8
0
370
    15
390
0
  6
Continuous
 62
     7
100
AcDbLine
 10
39.296975
 20
4.765953
 30
0.0
 11
39.256795
 21
4.765953
 31
0.0
  0
LINE
  5
3D1
100
AcDbEntity
  8
0
370
    15
390
0
  6
Continuous
 62
     7
100
AcDbLine
 10
39.296975
 20
4.765953
 30
0.0
 11
39.296975
 21
4.663189
 31
0.0
  0
LINE
  5
3D2
100
AcDbEntity
  8
0
370
    15
390
0
  6
Continuous
 62
     7
100
AcDbLine
 10
39.141154
 20
4.703369
 30
0.0
 11
39.181335
 21
4.703369
 31
0.0
  0
LINE
  5
3D3
100
AcDbEntity
  8
0
370
    15
390
0
  6
Continuous
 62
     7
100
AcDbLine
 10
39.141154
 20
4.743549
 30
0.0
 11
39.141154
 21
4.703369
 31
0.0
  0
LINE
  5
3D4
100
AcDbEntity
  8
0
370
    15
390
0
  6
Continuous
 62
     7
100
AcDbLine
 10
39.181335
 20
4.743549
 30
0.0
 11
39.141154
 21
4.743549
 31
0.0
  0
LINE
  5
3D5
100
AcDbEntity
  8
0
370
    15
390
0
  6
Continuous
 62
     7
100
AcDbLine
 10
39.181335
 20
4.743549
 30
0.0
 11
39.181335
 21
4.703369
 31
0.0
  0
HATCH
  5
3D6
100
AcDbEntity
  8
0
370
    15
390
0
  6
Continuous
 62
   174
100
AcDbHatch
 10
0.0
 20
0.0
 30
0.0
210
0.0
220
0.0
230
1.0
  2
SOLID
 70
     1
 71
     0
 91
        4
 92
        1
 93
        1
 72
     2
 10
39.200976418493056
 20
5.8320233671114039
 40
0.3120002746582031
 50
0.0
 51
360.0
 73
     1
 97
        0
 92
        1
 93
       12
 72
     1
 10
39.265982674596572
 20
5.949809774582107
 11
39.320448922155165
 21
5.949809774582107
 72
     1
 10
39.320448922155165
 20
5.949809774582107
 11
39.320448922155165
 21
6.0979611722871851
 72
     1
 10
39.320448922155165
 20
6.0979611722871851
 11
39.17309288882997
 21
6.0979611722871851
 72
     1
 10
39.17309288882997
 20
6.0979611722871851
 11
39.17309288882997
 21
6.0048100797578883
 72
     1
 10
39.17309288882997
 20
6.0048100797578883
 11
39.136542366979384
 21
6.0048100797578883
 72
     1
 10
39.136542366979384
 20
6.0048100797578883
 11
39.136542366979384
 21
6.0979611722871851
 72
     1
 10
39.136542366979384
 20
6.0979611722871851
 11
39.081500100133681
 21
6.0979611722871851
 72
     1
 10
39.081500100133681
 20
6.0979611722871851
 11
39.081500100133681
 21
5.949809774582107
 72
     1
 10
39.081500100133681
 20
5.949809774582107
 11
39.228476571080947
 21
5.949809774582107
 72
     1
 10
39.228476571080947
 20
5.949809774582107
 11
39.228476571080947
 21
6.0429608671114039
 72
     1
 10
39.228476571080947
 20
6.0429608671114039
 11
39.265982674596572
 21
6.0429608671114039
 72
     1
 10
39.265982674596572
 20
6.0429608671114039
 11
39.265982674596572
 21
5.949809774582107
 97
        0
 92
        1
 93
        8
 72
     1
 10
39.320448922155165
 20
5.7579495756074976
 11
39.320448922155165
 21
5.8136555997774195
 72
     1
 10
39.320448922155165
 20
5.8136555997774195
 11
39.136500405309462
 21
5.8136555997774195
 72
     1
 10
39.136500405309462
 20
5.8136555997774195
 11
39.136500405309462
 21
5.8511807767793726
 72
     1
 10
39.136500405309462
 20
5.8511807767793726
 11
39.320448922155165
 21
5.8511807767793726
 72
     1
 10
39.320448922155165
 20
5.8511807767793726
 11
39.320448922155165
 21
5.9061009733125758
 72
     1
 10
39.320448922155165
 20
5.9061009733125758
 11
39.081500100133681
 21
5.9061009733125758
 72
     1
 10
39.081500100133681
 20
5.9061009733125758
 11
39.081500100133681
 21
5.7579495756074976
 72
     1
 10
39.081500100133681
 20
5.7579495756074976
 11
39.320448922155165
 21
5.7579495756074976
 97
        0
 92
        1
 93
        8
 72
     1
 10
39.081500100133681
 20
5.6563718168184351
 11
39.081500100133681
 21
5.712077840988357
 72
     1
 10
39.081500100133681
 20
5.712077840988357
 11
39.320448922155165
 21
5.712077840988357
 72
     1
 10
39.320448922155165
 20
5.712077840988357
 11
39.320448922155165
 21
5.5639264432832789
 72
     1
 10
39.320448922155165
 20
5.5639264432832789
 11
39.081500100133681
 21
5.5639264432832789
 72
     1
 10
39.081500100133681
 20
5.5639264432832789
 11
39.081500100133681
 21
5.618846639816482
 72
     1
 10
39.081500100133681
 20
5.618846639816482
 11
39.265448616979384
 21
5.618846639816482
 72
     1
 10
39.265448616979384
 20
5.618846639816482
 11
39.265448616979384
 21
5.6563718168184351
 72
     1
 10
39.265448616979384
 20
5.6563718168184351
 11
39.081500100133681
 21
5.6563718168184351
 97
        0
 75
     0
 76
     1
 98
        1
 10
0.0
 20
0.0
  0
HATCH
  5
3D7
100
AcDbEntity
  8
0
370
    15
390
0
  6
Continuous
 62
   174
100
AcDbHatch
 10
0.0
 20
0.0
 30
0.0
210
0.0
220
0.0
230
1.0
  2
SOLID
 70
     1
 71
     0
 91
        4
 92
        1
 93
       10
 72
     1
 10
39.296975182531142
 20
5.3477666227266383
 11
39.3636579980829
 21
5.3477666227266383
 72
     1
 10
39.3636579980829
 20
5.3477666227266383
 11
39.3636579980829
 21
5.3879468290254664
 72
     1
 10
39.3636579980829
 20
5.3879468290254664
 11
39.100974129674697
 21
5.3879468290254664
 72
     1
 10
39.100974129674697
 20
5.3879468290254664
 11
39.100974129674697
 21
5.3477666227266383
 72
     1
 10
39.100974129674697
 20
5.3477666227266383
 11
39.256794976232314
 21
5.3477666227266383
 72
     1
 10
39.256794976232314
 20
5.3477666227266383
 11
39.256794976232314
 21
5.3075864164278101
 72
     1
 10
39.256794976232314
 20
5.3075864164278101
 11
39.100974129674697
 21
5.3075864164278101
 72
     1
 10
39.100974129674697
 20
5.3075864164278101
 11
39.100974129674697
 21
5.267406210128982
 72
     1
 10
39.100974129674697
 20
5.267406210128982
 11
39.296975182531142
 21
5.267406210128982
 72
     1
 10
39.296975182531142
 20
5.267406210128982
 11
39.296975182531142
 21
5.3477666227266383
 97
        0
 92
        1
 93
       12
 72
     1
 10
39.141154335973525
 20
5.1870457975313258
 11
39.296975182531142
 21
5.1870457975313258
 72
     1
 10
39.296975182531142
 20
5.1870457975313258
 11
39.296975182531142
 21
5.2272260038301539
 72
     1
 10
39.296975182531142
 20
5.2272260038301539
 11
39.100974129674697
 21
5.2272260038301539
 72
     1
 10
39.100974129674697
 20
5.2272260038301539
 11
39.100974129674697
 21
5.1468655912324976
 72
     1
 10
39.100974129674697
 20
5.1468655912324976
 11
39.060793923375869
 21
5.1468655912324976
 72
     1
 10
39.060793923375869
 20
5.1468655912324976
 11
39.060793923375869
 21
5.1846043912813258
 72
     1
 10
39.060793923375869
 20
5.1846043912813258
 11
39.02061371707704
 21
5.1846043912813258
 72
     1
 10
39.02061371707704
 20
5.1846043912813258
 11
39.021315621373915
 21
5.1066853849336695
 72
     1
 10
39.021315621373915
 20
5.1066853849336695
 11
39.296975182531142
 21
5.1066853849336695
 72
     1
 10
39.296975182531142
 20
5.1066853849336695
 11
39.296975182531142
 21
5.1468655912324976
 72
     1
 10
39.296975182531142
 20
5.1468655912324976
 11
39.141154335973525
 21
5.1468655912324976
 72
     1
 10
39.141154335973525
 20
5.1468655912324976
 11
39.141154335973525
 21
5.1870457975313258
 97
        0
 92
        1
 93
        6
 72
     1
 10
39.3636579980829
 20
4.984630331222732
 11
39.296975182531142
 21
4.984630331222732
 72
     1
 10
39.296975182531142
 20
4.984630331222732
 11
39.296975182531142
 21
5.0649907438203883
 72
     1
 10
39.296975182531142
 20
5.0649907438203883
 11
39.100974129674697
 21
5.0649907438203883
 72
     1
 10
39.100974129674697
 20
5.0649907438203883
 11
39.100974129674697
 21
4.9444463102266383
 72
     1
 10
39.100974129674697
 20
4.9444463102266383
 11
39.3636579980829
 21
4.9444463102266383
 72
     1
 10
39.3636579980829
 20
4.9444463102266383
 11
39.3636579980829
 21
4.984630331222732
 97
        0
 92
        1
 93
        4
 72
     1
 10
39.256794976232314
 20
4.984630331222732
 11
39.141154335973525
 21
4.984630331222732
 72
     1
 10
39.141154335973525
 20
4.984630331222732
 11
39.141154335973525
 21
5.0248067228242945
 72
     1
 10
39.141154335973525
 20
5.0248067228242945
 11
39.256794976232314
 21
5.0248067228242945
 72
     1
 10
39.256794976232314
 20
5.0248067228242945
 11
39.256794976232314
 21
4.984630331222732
 97
        0
 75
     0
 76
     1
 98
        1
 10
0.0
 20
0.0
  0
HATCH
  5
3D8
100
AcDbEntity
  8
0
370
    15
390
0
  6
Continuous
 62
   174
100
AcDbHatch
 10
0.0
 20
0.0
 30
0.0
210
0.0
220
0.0
230
1.0
  2
SOLID
 70
     1
 71
     0
 91
        8
 92
        1
 93
        6
 72
     1
 10
39.256794976232314
 20
4.8239095060274195
 11
39.296975182531142
 21
4.8239095060274195
 72
     1
 10
39.296975182531142
 20
4.8239095060274195
 11
39.296975182531142
 21
4.9042699186250758
 72
     1
 10
39.296975182531142
 20
4.9042699186250758
 11
39.100974129674697
 21
4.9042699186250758
 72
     1
 10
39.100974129674697
 20
4.9042699186250758
 11
39.100974129674697
 21
4.8640897123262476
 72
     1
 10
39.100974129674697
 20
4.8640897123262476
 11
39.256794976232314
 21
4.8640897123262476
 72
     1
 10
39.256794976232314
 20
4.8640897123262476
 11
39.256794976232314
 21
4.8239095060274195
 97
        0
 92
        1
 93
        8
 72
     1
 10
39.141154335973525
 20
4.5828282682344508
 11
39.296975182531142
 21
4.5828282682344508
 72
     1
 10
39.296975182531142
 20
4.5828282682344508
 11
39.296975182531142
 21
4.6230084745332789
 72
     1
 10
39.296975182531142
 20
4.6230084745332789
 11
39.100974129674697
 21
4.6230084745332789
 72
     1
 10
39.100974129674697
 20
4.6230084745332789
 11
39.100974129674697
 21
4.5024678556367945
 72
     1
 10
39.100974129674697
 20
4.5024678556367945
 11
39.296975182531142
 21
4.5024678556367945
 72
     1
 10
39.296975182531142
 20
4.5024678556367945
 11
39.296975182531142
 21
4.5426480619356226
 72
     1
 10
39.296975182531142
 20
4.5426480619356226
 11
39.141154335973525
 21
4.5426480619356226
 72
     1
 10
39.141154335973525
 20
4.5426480619356226
 11
39.141154335973525
 21
4.5828282682344508
 97
        0
 92
        1
 93
        4
 72
     1
 10
39.100974129674697
 20
4.4221074430391383
 11
39.3636579980829
 21
4.4221074430391383
 72
     1
 10
39.3636579980829
 20
4.4221074430391383
 11
39.3636579980829
 21
4.4622876493379664
 72
     1
 10
39.3636579980829
 20
4.4622876493379664
 11
39.100974129674697
 21
4.4622876493379664
 72
     1
 10
39.100974129674697
 20
4.4622876493379664
 11
39.100974129674697
 21
4.4221074430391383
 97
        0
 92
        1
 93
        4
 72
     1
 10
39.323477791784072
 20
4.341747030441482
 11
39.3636579980829
 21
4.341747030441482
 72
     1
 10
39.3636579980829
 20
4.341747030441482
 11
39.3636579980829
 21
4.3819272367403101
 72
     1
 10
39.3636579980829
 20
4.3819272367403101
 11
39.323477791784072
 21
4.3819272367403101
 72
     1
 10
39.323477791784072
 20
4.3819272367403101
 11
39.323477791784072
 21
4.341747030441482
 97
        0
 92
        1
 93
        4
 72
     1
 10
39.100974129674697
 20
4.341747030441482
 11
39.296975182531142
 21
4.341747030441482
 72
     1
 10
39.296975182531142
 20
4.341747030441482
 11
39.296975182531142
 21
4.3819272367403101
 72
     1
 10
39.296975182531142
 20
4.3819272367403101
 11
39.100974129674697
 21
4.3819272367403101
 72
     1
 10
39.100974129674697
 20
4.3819272367403101
 11
39.100974129674697
 21
4.341747030441482
 97
        0
 92
        1
 93
        8
 72
     1
 10
39.256794976232314
 20
4.1858250944063258
 11
39.296975182531142
 21
4.1858250944063258
 72
     1
 10
39.296975182531142
 20
4.1858250944063258
 11
39.296975182531142
 21
4.3015668241426539
 72
     1
 10
39.296975182531142
 20
4.3015668241426539
 11
39.100974129674697
 21
4.3015668241426539
 72
     1
 10
39.100974129674697
 20
4.3015668241426539
 11
39.100974129674697
 21
4.1858250944063258
 72
     1
 10
39.100974129674697
 20
4.1858250944063258
 11
39.141154335973525
 21
4.1858250944063258
 72
     1
 10
39.141154335973525
 20
4.1858250944063258
 11
39.141154335973525
 21
4.2613866178438258
 72
     1
 10
39.141154335973525
 20
4.2613866178438258
 11
39.256794976232314
 21
4.2613866178438258
 72
     1
 10
39.256794976232314
 20
4.2613866178438258
 11
39.256794976232314
 21
4.1858250944063258
 97
        0
 92
        1
 93
        8
 72
     1
 10
39.100974129674697
 20
4.663188680832107
 11
39.296975182531142
 21
4.663188680832107
 72
     1
 10
39.296975182531142
 20
4.663188680832107
 11
39.296975182531142
 21
4.7659528104707789
 72
     1
 10
39.296975182531142
 20
4.7659528104707789
 11
39.256794976232314
 21
4.7659528104707789
 72
     1
 10
39.256794976232314
 20
4.7659528104707789
 11
39.256794976232314
 21
4.7033688871309351
 72
     1
 10
39.256794976232314
 20
4.7033688871309351
 11
39.221514748571181
 21
4.7033688871309351
 72
     1
 10
39.221514748571181
 20
4.7033688871309351
 11
39.221514748571181
 21
4.7837292997285914
 72
     1
 10
39.221514748571181
 20
4.7837292997285914
 11
39.100974129674697
 21
4.7837292997285914
 72
     1
 10
39.100974129674697
 20
4.7837292997285914
 11
39.100974129674697
 21
4.663188680832107
 97
        0
 92
        1
 93
        4
 72
     1
 10
39.141154335973525
 20
4.7033688871309351
 11
39.181334542272353
 21
4.7033688871309351
 72
     1
 10
39.181334542272353
 20
4.7033688871309351
 11
39.181334542272353
 21
4.7435490934297633
 72
     1
 10
39.181334542272353
 20
4.7435490934297633
 11
39.141154335973525
 21
4.7435490934297633
 72
     1
 10
39.141154335973525
 20
4.7435490934297633
 11
39.141154335973525
 21
4.7033688871309351
 97
        0
 75
     0
 76
     1
 98
        1
 10
0.0
 20
0.0
  0
HATCH
  5
3D9
100
AcDbEntity
  8
0
370
    15
390
0
  6
Continuous
 62
   174
100
AcDbHatch
 10
0.0
 20
0.0
 30
0.0
210
0.0
220
0.0
230
1.0
  2
SOLID
 70
     1
 71
     0
 91
        1
 92
        1
 93
       12
 72
     1
 10
39.256794976232314
 20
4.0183636991426539
 11
39.296975182531142
 21
4.0183636991426539
 72
     1
 10
39.296975182531142
 20
4.0183636991426539
 11
39.296975182531142
 21
4.1456448881074976
 72
     1
 10
39.296975182531142
 20
4.1456448881074976
 11
39.178885506627822
 21
4.1456448881074976
 72
     1
 10
39.178885506627822
 20
4.1456448881074976
 11
39.178885506627822
 21
4.058543905441482
 72
     1
 10
39.178885506627822
 20
4.058543905441482
 11
39.141154335973525
 21
4.058543905441482
 72
     1
 10
39.141154335973525
 20
4.058543905441482
 11
39.141154335973525
 21
4.1456448881074976
 72
     1
 10
39.141154335973525
 20
4.1456448881074976
 11
39.100974129674697
 21
4.1456448881074976
 72
     1
 10
39.100974129674697
 20
4.1456448881074976
 11
39.100974129674697
 21
4.0183636991426539
 72
     1
 10
39.100974129674697
 20
4.0183636991426539
 11
39.21906571292665
 21
4.0183636991426539
 72
     1
 10
39.21906571292665
 20
4.0183636991426539
 11
39.21906571292665
 21
4.1054646818086695
 72
     1
 10
39.21906571292665
 20
4.1054646818086695
 11
39.256794976232314
 21
4.1054646818086695
 72
     1
 10
39.256794976232314
 20
4.1054646818086695
 11
39.256794976232314
 21
4.0183636991426539
 97
        0
 75
     0
 76
     1
 98
        1
 10
0.0
 20
0.0
  0
TEXT
  5
3DA
100
AcDbEntity
  8
0
370
    15
390
0
  6
Continuous
 62
     7
100
AcDbText
 10
39.355878
 20
4.054249
 30
0.0
 40
0.04606
  1
R
 50
270.0
 41
1.125
  7
Vcadd_SIMP
100
AcDbText
  0
TEXT
  5
3DB
100
AcDbEntity
  8
0
370
    15
390
0
  6
Continuous
 62
     7
100
AcDbText
 10
39.00256
 20
4.694996
 30
0.0
 40
0.062
  1
CORPORATION
 50
270.0
  7
Vcadd_SIMP
100
AcDbText
  0
TEXT
  5
3DC
100
AcDbEntity
  8
0
370
    15
390
0
  6
Continuous
 62
     7
100
AcDbText
 10
38.910912
 20
5.463313
 30
0.0
 40
0.062
  1
1500 WEST UNIVERSITY PKWY
 50
270.0
  7
Vcadd_SIMP
100
AcDbText
  0
TEXT
  5
3DD
100
AcDbEntity
  8
0
370
    15
390
0
  6
Continuous
 62
     7
100
AcDbText
 10
38.817912
 20
5.463313
 30
0.0
 40
0.062
  1
SARASOTA, FLORIDA 34243, USA
 50
270.0
  7
Vcadd_SIMP
100
AcDbText
  0
TEXT
  5
3DE
100
AcDbEntity
  8
0
370
    15
390
0
  6
Continuous
 62
     7
100
AcDbText
 10
38.724912
 20
5.463313
 30
0.0
 40
0.062
  1
TELEPHONE (941) 355-2983
 50
270.0
  7
Vcadd_SIMP
100
AcDbText
  0
LINE
  5
3DF
100
AcDbEntity
  8
4
370
    15
390
0
  6
Continuous
 62
     7
100
AcDbLine
 10
43.073899
 20
14.100304
 30
0.0
 11
43.146468
 21
14.225999
 31
0.0
  0
LINE
  5
3E0
100
AcDbEntity
  8
4
370
    15
390
0
  6
Continuous
 62
     7
100
AcDbLine
 10
43.219038
 20
14.100304
 30
0.0
 11
43.146468
 21
14.225999
 31
0.0
  0
LINE
  5
3E1
100
AcDbEntity
  8
4
370
    15
390
0
  6
Continuous
 62
     7
100
AcDbLine
 10
43.073899
 20
14.100304
 30
0.0
 11
43.219038
 21
14.100304
 31
0.0
  0
TEXT
  5
3E2
100
AcDbEntity
  8
4
370
    15
390
0
  6
Continuous
 62
     7
100
AcDbText
 10
47.186555
 20
8.191976
 30
0.0
 40
0.12
  1
Min. Tiefe von
  7
Vcadd_SIMP
100
AcDbText
  0
TEXT
  5
3E3
100
AcDbEntity
  8
4
370
    15
390
0
  6
Continuous
 62
     7
100
AcDbText
 10
47.186555
 20
8.011976
 30
0.0
 40
0.12
  1
33,32 Ø (Ventil-
  7
Vcadd_SIMP
100
AcDbText
  0
TEXT
  5
3E4
100
AcDbEntity
  8
4
370
    15
390
0
  6
Continuous
 62
     7
100
AcDbText
 10
47.186555
 20
7.831976
 30
0.0
 40
0.12
  1
arbeitsbereich)
  7
Vcadd_SIMP
100
AcDbText
  0
TEXT
  5
3E5
100
AcDbEntity
  8
4
370
    15
390
0
  6
Continuous
 62
     7
100
AcDbText
 10
44.143564
 20
17.615047
 30
0.0
 40
0.12
  1
Formbohrer 994-034-***
  7
Vcadd_SIMP
100
AcDbText
  0
TEXT
  5
3E6
100
AcDbEntity
  8
4
370
    15
390
0
  6
Continuous
 62
     7
100
AcDbText
 10
44.143507
 20
17.149053
 30
0.0
 40
0.12
  1
Formreibahle 995-034-***
  7
Vcadd_SIMP
100
AcDbText
  0
INSERT
  5
3EE
100
AcDbEntity
  8
4
370
     0
390
0
  6
Continuous
 62
     1
100
AcDbBlockReference
  2
REV
 10
39.122128
 20
14.322289
 30
0.0
 41
2.0
 42
2.0
 50
270.0
  0
LINE
  5
3EF
100
AcDbEntity
  8
0
370
    15
390
0
  6
Continuous
 62
     7
100
AcDbLine
 10
39.278126
 20
10.447288
 30
0.0
 11
39.278126
 21
14.322289
 31
0.0
  0
TEXT
  5
3F0
100
AcDbEntity
  8
0
370
     0
390
0
  6
Continuous
 62
     7
100
AcDbText
 10
39.636406
 20
14.035111
 30
0.0
 40
0.065844
  1
REVISED TOOLING P/N. REVISED DIMS FOR
 50
270.0
 41
0.9
  7
Vcadd_SIMP
100
AcDbText
  0
TEXT
  5
3F1
100
AcDbEntity
  8
0
370
     0
390
0
  6
Continuous
 62
     7
100
AcDbText
 10
39.480404
 20
14.035111
 30
0.0
 40
0.065844
  1
CAVITY / TOOLING CONSISTENCY
 50
270.0
 41
0.9
  7
Vcadd_SIMP
100
AcDbText
  0
TEXT
  5
3F2
100
AcDbEntity
  8
0
370
     0
390
0
  6
Continuous
 62
     7
100
AcDbText
 10
39.598523
 20
14.197289
 30
0.0
 40
0.065844
  1
H
 50
270.0
  7
Vcadd_SIMP
 72
     1
 11
39.636383
 21
14.197289
 31
0.0
100
AcDbText
  0
TEXT
  5
3F3
100
AcDbEntity
  8
0
370
     0
390
0
  6
Continuous
 62
     7
100
AcDbText
 10
39.371361
 20
11.447288
 30
0.0
 40
0.065844
  1
09MAY11
 50
270.0
  7
Vcadd_SIMP
 72
     1
 11
39.636383
 21
11.447288
 31
0.0
100
AcDbText
  0
TEXT
  5
3F4
100
AcDbEntity
  8
0
370
     0
390
0
  6
Continuous
 62
     7
100
AcDbText
 10
39.522802
 20
11.072288
 30
0.0
 40
0.065844
  1
JRS
 50
270.0
  7
Vcadd_SIMP
 72
     1
 11
39.636383
 21
11.072288
 31
0.0
100
AcDbText
  0
TEXT
  5
3F5
100
AcDbEntity
  8
0
370
     0
390
0
  6
Continuous
 62
     7
100
AcDbText
 10
39.503872
 20
10.572288
 30
0.0
 40
0.065844
  1
10164
 50
270.0
 41
0.7
  7
Vcadd_SIMP
 72
     1
 11
39.636383
 21
10.572288
 31
0.0
100
AcDbText
  0
TEXT
  5
3F6
100
AcDbEntity
  8
0
370
     0
390
0
  6
Continuous
 62
     7
100
AcDbText
 10
39.324406
 20
14.035111
 30
0.0
 40
0.065844
  1
ADDED METRIC TOL. BLOCK TO SHEETS 2 & 3
 50
270.0
 41
0.9
  7
Vcadd_SIMP
100
AcDbText
  0
LINE
  5
3F7
100
AcDbEntity
  8
0
370
    15
390
0
  6
Continuous
 62
     7
100
AcDbLine
 10
39.746128
 20
10.447288
 30
0.0
 11
39.746128
 21
14.322289
 31
0.0
  0
TEXT
  5
3F8
100
AcDbEntity
  8
0
370
     0
390
0
  6
Continuous
 62
     7
100
AcDbText
 10
39.522802
 20
10.822288
 30
0.0
 40
0.065844
  1
RCL
 50
270.0
  7
Vcadd_SIMP
 72
     1
 11
39.636383
 21
10.822288
 31
0.0
100
AcDbText
  0
LINE
  5
3F9
100
AcDbEntity
  8
3
370
    30
390
0
  6
Continuous
 62
     1
100
AcDbLine
 10
43.147374
 20
14.813653
 30
0.0
 11
40.995311
 21
14.813653
 31
0.0
  0
LINE
  5
3FA
100
AcDbEntity
  8
3
370
    30
390
0
  6
Continuous
 62
     1
100
AcDbLine
 10
45.292542
 20
14.813653
 30
0.0
 11
47.93847
 21
14.813653
 31
0.0
  0
TEXT
  5
3FB
100
AcDbEntity
  8
4
370
    15
390
0
  6
Continuous
 62
     7
100
AcDbText
 10
41.824616
 20
14.564443
 30
0.0
 40
0.142
  1
48,57
  7
Vcadd_SIMP
100
AcDbText
  0
TEXT
  5
3FC
100
AcDbEntity
  8
4
370
    15
390
0
  6
Continuous
 62
     7
100
AcDbText
 10
41.824616
 20
15.147633
 30
0.0
 40
0.142
  1
52,38
  7
Vcadd_SIMP
100
AcDbText
  0
TEXT
  5
3FD
100
AcDbEntity
  8
4
370
    15
390
0
  6
Continuous
 62
     7
100
AcDbText
 10
44.120073
 20
18.141211
 30
0.0
 40
0.12
  1
Formreibahle 1,19 mm tiefer
  7
Vcadd_SIMP
100
AcDbText
  0
TEXT
  5
3FE
100
AcDbEntity
  8
4
370
    15
390
0
  6
Continuous
 62
     7
100
AcDbText
 10
44.120073
 20
17.991211
 30
0.0
 40
0.12
  1
einführen als Formbohrer
  7
Vcadd_SIMP
100
AcDbText
  0
TEXT
  5
3FF
100
AcDbEntity
  8
0
370
    15
390
0
  6
Continuous
 62
     7
100
AcDbText
 10
48.308304
 20
6.216033
 30
0.0
 40
0.142
  1
J
 50
270.0
  7
Vcadd_SIMP
100
AcDbText
  0
TEXT
  5
400
100
AcDbEntity
  8
0
370
    15
390
0
  6
Continuous
 62
     7
100
AcDbText
 10
39.701546
 20
6.247247
 30
0.0
 40
0.142
  1
J
 50
270.0
  7
Vcadd_SIMP
100
AcDbText
  0
TEXT
  5
401
100
AcDbEntity
  8
4
370
    15
390
0
  6
Continuous
 62
     7
100
AcDbText
 10
46.378892
 20
8.181059
 30
0.0
 40
0.142
  1
169,8
  7
Vcadd_SIMP
100
AcDbText
  0
LINE
  5
402
100
AcDbEntity
  8
0
370
     0
390
0
  6
Continuous
 62
     7
100
AcDbLine
 10
39.29982
 20
10.343171
 30
0.0
 11
39.291092
 21
10.343171
 31
0.0
  0
LINE
  5
403
100
AcDbEntity
  8
0
370
     0
390
0
  6
Continuous
 62
     7
100
AcDbLine
 10
39.298444
 20
10.346495
 30
0.0
 11
39.292272
 21
10.340322
 31
0.0
  0
LINE
  5
404
100
AcDbEntity
  8
0
370
     0
390
0
  6
Continuous
 62
     7
100
AcDbLine
 10
39.292095
 20
10.346196
 30
0.0
 11
39.298482
 21
10.33981
 31
0.0
  0
LINE
  5
405
100
AcDbEntity
  8
0
370
     0
390
0
  6
Continuous
 62
     7
100
AcDbLine
 10
39.387517
 20
10.343171
 30
0.0
 11
39.378789
 21
10.343171
 31
0.0
  0
LINE
  5
406
100
AcDbEntity
  8
0
370
     0
390
0
  6
Continuous
 62
     7
100
AcDbLine
 10
39.386141
 20
10.346495
 30
0.0
 11
39.379968
 21
10.340322
 31
0.0
  0
LINE
  5
407
100
AcDbEntity
  8
0
370
     0
390
0
  6
Continuous
 62
     7
100
AcDbLine
 10
39.379792
 20
10.346196
 30
0.0
 11
39.386179
 21
10.33981
 31
0.0
  0
CIRCLE
  5
408
100
AcDbEntity
  8
0
370
     0
390
0
  6
Continuous
 62
     7
100
AcDbCircle
 10
39.856559
 20
10.19766
 30
0.0
 40
0.092946
  0
CIRCLE
  5
409
100
AcDbEntity
  8
0
370
     0
390
0
  6
Continuous
 62
     7
100
AcDbCircle
 10
39.856559
 20
10.19766
 30
0.0
 40
0.053112
  0
LINE
  5
40A
100
AcDbEntity
  8
0
370
     0
390
0
  6
Continuous
 62
     7
100
AcDbLine
 10
39.856559
 20
10.087258
 30
0.0
 11
39.856559
 21
10.17107
 31
0.0
  0
LINE
  5
40B
100
AcDbEntity
  8
0
370
     0
390
0
  6
Continuous
 62
     7
100
AcDbLine
 10
39.856559
 20
10.208545
 30
0.0
 11
39.856559
 21
10.186775
 31
0.0
  0
LINE
  5
40C
100
AcDbEntity
  8
0
370
     0
390
0
  6
Continuous
 62
     7
100
AcDbLine
 10
39.845674
 20
10.19766
 30
0.0
 11
39.867445
 21
10.19766
 31
0.0
  0
LINE
  5
40D
100
AcDbEntity
  8
0
370
     0
390
0
  6
Continuous
 62
     7
100
AcDbLine
 10
39.856559
 20
10.308062
 30
0.0
 11
39.856559
 21
10.22425
 31
0.0
  0
LINE
  5
40E
100
AcDbEntity
  8
0
370
     0
390
0
  6
Continuous
 62
     7
100
AcDbLine
 10
39.746162
 20
10.19766
 30
0.0
 11
39.829974
 21
10.19766
 31
0.0
  0
LINE
  5
40F
100
AcDbEntity
  8
0
370
     0
390
0
  6
Continuous
 62
     7
100
AcDbLine
 10
39.966957
 20
10.19766
 30
0.0
 11
39.883145
 21
10.19766
 31
0.0
  0
LINE
  5
410
100
AcDbEntity
  8
0
370
     0
390
0
  6
Continuous
 62
     7
100
AcDbLine
 10
39.856559
 20
9.888225
 30
0.0
 11
39.803447
 21
9.888225
 31
0.0
  0
LINE
  5
411
100
AcDbEntity
  8
0
370
     0
390
0
  6
Continuous
 62
     7
100
AcDbLine
 10
39.803447
 20
9.888225
 30
0.0
 11
39.763613
 21
9.671623
 31
0.0
  0
LINE
  5
412
100
AcDbEntity
  8
0
370
     0
390
0
  6
Continuous
 62
     7
100
AcDbLine
 10
39.856559
 20
9.671623
 30
0.0
 11
39.763613
 21
9.671623
 31
0.0
  0
LINE
  5
413
100
AcDbEntity
  8
0
370
     0
390
0
  6
Continuous
 62
     7
100
AcDbLine
 10
39.856559
 20
9.888225
 30
0.0
 11
39.909681
 21
9.888225
 31
0.0
  0
LINE
  5
414
100
AcDbEntity
  8
0
370
     0
390
0
  6
Continuous
 62
     7
100
AcDbLine
 10
39.909681
 20
9.888225
 30
0.0
 11
39.949515
 21
9.671623
 31
0.0
  0
LINE
  5
415
100
AcDbEntity
  8
0
370
     0
390
0
  6
Continuous
 62
     7
100
AcDbLine
 10
39.856559
 20
9.671623
 30
0.0
 11
39.949515
 21
9.671623
 31
0.0
  0
LINE
  5
416
100
AcDbEntity
  8
0
370
     0
390
0
  6
Continuous
 62
     7
100
AcDbLine
 10
39.856559
 20
9.793528
 30
0.0
 11
39.856559
 21
9.771763
 31
0.0
  0
LINE
  5
417
100
AcDbEntity
  8
0
370
     0
390
0
  6
Continuous
 62
     7
100
AcDbLine
 10
39.856559
 20
9.812035
 30
0.0
 11
39.856559
 21
9.89911
 31
0.0
  0
LINE
  5
418
100
AcDbEntity
  8
0
370
     0
390
0
  6
Continuous
 62
     7
100
AcDbLine
 10
39.856559
 20
9.752167
 30
0.0
 11
39.856559
 21
9.658559
 31
0.0
  0
LINE
  5
419
100
AcDbEntity
  8
0
370
     0
390
0
  6
Continuous
 62
     7
100
AcDbLine
 10
39.383143
 20
10.307492
 30
0.0
 11
39.383143
 21
10.29846
 31
0.0
  0
LINE
  5
41A
100
AcDbEntity
  8
0
370
     0
390
0
  6
Continuous
 62
     7
100
AcDbLine
 10
39.442327
 20
10.28446
 30
0.0
 11
39.381077
 21
10.23196
 31
0.0
  0
LINE
  5
41B
100
AcDbEntity
  8
0
370
     0
390
0
  6
Continuous
 62
     7
100
AcDbLine
 10
39.442327
 20
10.23196
 30
0.0
 11
39.381077
 21
10.28446
 31
0.0
  0
LINE
  5
41C
100
AcDbEntity
  8
0
370
     0
390
0
  6
Continuous
 62
     7
100
AcDbLine
 10
39.442327
 20
10.21796
 30
0.0
 11
39.381077
 21
10.16546
 31
0.0
  0
LINE
  5
41D
100
AcDbEntity
  8
0
370
     0
390
0
  6
Continuous
 62
     7
100
AcDbLine
 10
39.442327
 20
10.16546
 30
0.0
 11
39.381077
 21
10.21796
 31
0.0
  0
LINE
  5
41E
100
AcDbEntity
  8
0
370
     0
390
0
  6
Continuous
 62
     7
100
AcDbLine
 10
39.442327
 20
10.15146
 30
0.0
 11
39.381077
 21
10.09896
 31
0.0
  0
LINE
  5
41F
100
AcDbEntity
  8
0
370
     0
390
0
  6
Continuous
 62
     7
100
AcDbLine
 10
39.442327
 20
10.09896
 30
0.0
 11
39.381077
 21
10.15146
 31
0.0
  0
LINE
  5
420
100
AcDbEntity
  8
0
370
     0
390
0
  6
Continuous
 62
     7
100
AcDbLine
 10
39.431575
 20
10.03596
 30
0.0
 11
39.431575
 21
10.01146
 31
0.0
  0
LINE
  5
421
100
AcDbEntity
  8
0
370
     0
390
0
  6
Continuous
 62
     7
100
AcDbLine
 10
39.405527
 20
10.03596
 30
0.0
 11
39.405527
 21
10.01146
 31
0.0
  0
LINE
  5
422
100
AcDbEntity
  8
0
370
     0
390
0
  6
Continuous
 62
     7
100
AcDbLine
 10
39.415657
 20
9.94846
 30
0.0
 11
39.415657
 21
9.906453
 31
0.0
  0
LINE
  5
423
100
AcDbEntity
  8
0
370
     0
390
0
  6
Continuous
 62
     7
100
AcDbLine
 10
39.43881
 20
9.926944
 30
0.0
 11
39.39395
 21
9.926944
 31
0.0
  0
LINE
  5
424
100
AcDbEntity
  8
0
370
     0
390
0
  6
Continuous
 62
     7
100
AcDbLine
 10
39.436202
 20
9.857453
 30
0.0
 11
39.38414
 21
9.892453
 31
0.0
  0
LINE
  5
425
100
AcDbEntity
  8
0
370
     0
390
0
  6
Continuous
 62
     7
100
AcDbLine
 10
39.416077
 20
9.843453
 30
0.0
 11
39.416077
 21
9.818953
 31
0.0
  0
LINE
  5
426
100
AcDbEntity
  8
0
370
     0
390
0
  6
Continuous
 62
     7
100
AcDbLine
 10
39.387843
 20
9.751675
 30
0.0
 11
39.379115
 21
9.751675
 31
0.0
  0
LINE
  5
427
100
AcDbEntity
  8
0
370
     0
390
0
  6
Continuous
 62
     7
100
AcDbLine
 10
39.383143
 20
9.755953
 30
0.0
 11
39.383143
 21
9.746921
 31
0.0
  0
LINE
  5
428
100
AcDbEntity
  8
0
370
     0
390
0
  6
Continuous
 62
     7
100
AcDbLine
 10
39.386467
 20
9.754998
 30
0.0
 11
39.380295
 21
9.748826
 31
0.0
  0
LINE
  5
429
100
AcDbEntity
  8
0
370
     0
390
0
  6
Continuous
 62
     7
100
AcDbLine
 10
39.380118
 20
9.7547
 30
0.0
 11
39.386505
 21
9.748314
 31
0.0
  0
ELLIPSE
  5
42A
100
AcDbEntity
  8
0
370
     0
390
0
  6
Continuous
 62
     7
100
AcDbEllipse
 10
39.411702
 20
9.713671
 30
0.0
 11
0.0306250000000006
 21
0.0
 31
0.0
210
0.0
220
0.0
230
1.0
 40
0.628572
 41
0.0
 42
6.2831853071795862
  0
LINE
  5
42B
100
AcDbEntity
  8
0
370
     0
390
0
  6
Continuous
 62
     7
100
AcDbLine
 10
39.436202
 20
9.703171
 30
0.0
 11
39.388733
 21
9.725921
 31
0.0
  0
ELLIPSE
  5
42C
100
AcDbEntity
  8
0
370
     0
390
0
  6
Continuous
 62
     7
100
AcDbEllipse
 10
39.411702
 20
9.661171
 30
0.0
 11
0.0306250000000006
 21
0.0
 31
0.0
210
0.0
220
0.0
230
1.0
 40
0.628572
 41
0.0
 42
6.2831853071795862
  0
LINE
  5
42D
100
AcDbEntity
  8
0
370
     0
390
0
  6
Continuous
 62
     7
100
AcDbLine
 10
39.436202
 20
9.650671
 30
0.0
 11
39.388733
 21
9.673421
 31
0.0
  0
ARC
  5
42E
100
AcDbEntity
  8
0
370
     0
390
0
  6
Continuous
 62
     7
100
AcDbCircle
 10
39.393077
 20
9.609546
 30
0.0
 40
0.027867
100
AcDbArc
 50
321.099279
 51
398.900721
  0
ARC
  5
42F
100
AcDbEntity
  8
0
370
     0
390
0
  6
Continuous
 62
     7
100
AcDbCircle
 10
39.40914
 20
9.609546
 30
0.0
 40
0.028063
100
AcDbArc
 50
141.419916
 51
218.580084
  0
ARC
  5
430
100
AcDbEntity
  8
0
370
     0
390
0
  6
Continuous
 62
     7
100
AcDbCircle
 10
39.400983
 20
9.607286
 30
0.0
 40
0.020547
100
AcDbArc
 50
227.876609
 51
312.123391
  0
LINE
  5
431
100
AcDbEntity
  8
0
370
     0
390
0
  6
Continuous
 62
     7
100
AcDbLine
 10
39.414765
 20
9.627046
 30
0.0
 11
39.442327
 21
9.627046
 31
0.0
  0
LINE
  5
432
100
AcDbEntity
  8
0
370
     0
390
0
  6
Continuous
 62
     7
100
AcDbLine
 10
39.442327
 20
9.627046
 30
0.0
 11
39.442327
 21
9.592046
 31
0.0
  0
LINE
  5
433
100
AcDbEntity
  8
0
370
     0
390
0
  6
Continuous
 62
     7
100
AcDbLine
 10
39.503354
 20
9.950099
 30
0.0
 11
39.503354
 21
9.908093
 31
0.0
  0
LINE
  5
434
100
AcDbEntity
  8
0
370
     0
390
0
  6
Continuous
 62
     7
100
AcDbLine
 10
39.526507
 20
9.928583
 30
0.0
 11
39.481647
 21
9.928583
 31
0.0
  0
LINE
  5
435
100
AcDbEntity
  8
0
370
     0
390
0
  6
Continuous
 62
     7
100
AcDbLine
 10
39.523899
 20
9.859093
 30
0.0
 11
39.471837
 21
9.894093
 31
0.0
  0
LINE
  5
436
100
AcDbEntity
  8
0
370
     0
390
0
  6
Continuous
 62
     7
100
AcDbLine
 10
39.503774
 20
9.845093
 30
0.0
 11
39.503774
 21
9.820593
 31
0.0
  0
LINE
  5
437
100
AcDbEntity
  8
0
370
     0
390
0
  6
Continuous
 62
     7
100
AcDbLine
 10
39.47084
 20
10.307492
 30
0.0
 11
39.47084
 21
10.29846
 31
0.0
  0
LINE
  5
438
100
AcDbEntity
  8
0
370
     0
390
0
  6
Continuous
 62
     7
100
AcDbLine
 10
39.530024
 20
10.28446
 30
0.0
 11
39.468774
 21
10.23196
 31
0.0
  0
LINE
  5
439
100
AcDbEntity
  8
0
370
     0
390
0
  6
Continuous
 62
     7
100
AcDbLine
 10
39.530024
 20
10.23196
 30
0.0
 11
39.468774
 21
10.28446
 31
0.0
  0
LINE
  5
43A
100
AcDbEntity
  8
0
370
     0
390
0
  6
Continuous
 62
     7
100
AcDbLine
 10
39.530024
 20
10.21796
 30
0.0
 11
39.468774
 21
10.16546
 31
0.0
  0
LINE
  5
43B
100
AcDbEntity
  8
0
370
     0
390
0
  6
Continuous
 62
     7
100
AcDbLine
 10
39.530024
 20
10.16546
 30
0.0
 11
39.468774
 21
10.21796
 31
0.0
  0
LINE
  5
43C
100
AcDbEntity
  8
0
370
     0
390
0
  6
Continuous
 62
     7
100
AcDbLine
 10
39.519272
 20
10.03596
 30
0.0
 11
39.519272
 21
10.01146
 31
0.0
  0
LINE
  5
43D
100
AcDbEntity
  8
0
370
     0
390
0
  6
Continuous
 62
     7
100
AcDbLine
 10
39.493224
 20
10.03596
 30
0.0
 11
39.493224
 21
10.01146
 31
0.0
  0
LINE
  5
43E
100
AcDbEntity
  8
0
370
     0
390
0
  6
Continuous
 62
     7
100
AcDbLine
 10
39.47554
 20
9.724375
 30
0.0
 11
39.466812
 21
9.724375
 31
0.0
  0
LINE
  5
43F
100
AcDbEntity
  8
0
370
     0
390
0
  6
Continuous
 62
     7
100
AcDbLine
 10
39.47084
 20
9.728653
 30
0.0
 11
39.47084
 21
9.719621
 31
0.0
  0
LINE
  5
440
100
AcDbEntity
  8
0
370
     0
390
0
  6
Continuous
 62
     7
100
AcDbLine
 10
39.474164
 20
9.727698
 30
0.0
 11
39.467992
 21
9.721526
 31
0.0
  0
LINE
  5
441
100
AcDbEntity
  8
0
370
     0
390
0
  6
Continuous
 62
     7
100
AcDbLine
 10
39.467815
 20
9.7274
 30
0.0
 11
39.474202
 21
9.721014
 31
0.0
  0
ELLIPSE
  5
442
100
AcDbEntity
  8
0
370
     0
390
0
  6
Continuous
 62
     7
100
AcDbEllipse
 10
39.499399
 20
9.686371
 30
0.0
 11
0.0306250000000006
 21
0.0
 31
0.0
210
0.0
220
0.0
230
1.0
 40
0.628572
 41
0.0
 42
6.2831853071795862
  0
LINE
  5
443
100
AcDbEntity
  8
0
370
     0
390
0
  6
Continuous
 62
     7
100
AcDbLine
 10
39.523899
 20
9.675871
 30
0.0
 11
39.47643
 21
9.698621
 31
0.0
  0
LINE
  5
444
100
AcDbEntity
  8
0
370
     0
390
0
  6
Continuous
 62
     7
100
AcDbLine
 10
39.468774
 20
9.642621
 30
0.0
 11
39.530024
 21
9.642621
 31
0.0
  0
LINE
  5
445
100
AcDbEntity
  8
0
370
     0
390
0
  6
Continuous
 62
     7
100
AcDbLine
 10
39.530024
 20
9.642621
 30
0.0
 11
39.519305
 21
9.653121
 31
0.0
  0
ARC
  5
446
100
AcDbEntity
  8
0
370
     0
390
0
  6
Continuous
 62
     7
100
AcDbCircle
 10
39.480774
 20
9.609546
 30
0.0
 40
0.027867
100
AcDbArc
 50
321.099279
 51
398.900721
  0
ARC
  5
447
100
AcDbEntity
  8
0
370
     0
390
0
  6
Continuous
 62
     7
100
AcDbCircle
 10
39.496837
 20
9.609546
 30
0.0
 40
0.028063
100
AcDbArc
 50
141.419916
 51
218.580084
  0
ARC
  5
448
100
AcDbEntity
  8
0
370
     0
390
0
  6
Continuous
 62
     7
100
AcDbCircle
 10
39.48868
 20
9.607286
 30
0.0
 40
0.020547
100
AcDbArc
 50
227.876609
 51
312.123391
  0
LINE
  5
449
100
AcDbEntity
  8
0
370
     0
390
0
  6
Continuous
 62
     7
100
AcDbLine
 10
39.502462
 20
9.627046
 30
0.0
 11
39.530024
 21
9.627046
 31
0.0
  0
LINE
  5
44A
100
AcDbEntity
  8
0
370
     0
390
0
  6
Continuous
 62
     7
100
AcDbLine
 10
39.530024
 20
9.627046
 30
0.0
 11
39.530024
 21
9.592046
 31
0.0
  0
LINE
  5
44B
100
AcDbEntity
  8
0
370
     0
390
0
  6
Continuous
 62
     7
100
AcDbLine
 10
39.012352
 20
9.64204
 30
0.0
 11
39.018178
 21
9.632119
 31
0.0
  0
LINE
  5
44C
100
AcDbEntity
  8
0
370
     0
390
0
  6
Continuous
 62
     7
100
AcDbLine
 10
39.018178
 20
9.632119
 30
0.0
 11
38.976752
 21
9.601197
 31
0.0
  0
LINE
  5
44D
100
AcDbEntity
  8
0
370
     0
390
0
  6
Continuous
 62
     7
100
AcDbLine
 10
38.976752
 20
9.601197
 30
0.0
 11
39.037596
 21
9.53935
 31
0.0
  0
TEXT
  5
44E
100
AcDbEntity
  8
0
370
     0
390
0
  6
Continuous
 62
     7
100
AcDbText
 10
39.27945
 20
10.368893
 30
0.0
 40
0.062
  1
MACHINING STANDARD
 50
270.0
 41
0.9
  7
Vcadd_SIMP
100
AcDbText
  0
TEXT
  5
44F
100
AcDbEntity
  8
0
370
     0
390
0
  6
Continuous
 62
     7
100
AcDbText
 10
38.331748
 20
9.942825
 30
0.0
 40
0.062
  1
.005 MAX. BREAK
 50
270.0
  7
Vcadd_SIMP
 72
     1
 11
38.742148
 21
9.942825
 31
0.0
100
AcDbText
  0
TEXT
  5
450
100
AcDbEntity
  8
0
370
     0
390
0
  6
Continuous
 62
     7
100
AcDbText
 10
39.188454
 20
10.050971
 30
0.0
 40
0.062
  1
S-180
 50
270.0
 41
0.9
  7
Vcadd_SIMP
100
AcDbText
  0
TEXT
  5
451
100
AcDbEntity
  8
0
370
     0
390
0
  6
Continuous
 62
     7
100
AcDbText
 10
38.358203
 20
9.942825
 30
0.0
 40
0.062
  1
REMOVE ALL BURRS
 50
270.0
  7
Vcadd_SIMP
 72
     1
 11
38.84753
 21
9.942825
 31
0.0
100
AcDbText
  0
TEXT
  5
452
100
AcDbEntity
  8
0
370
     0
390
0
  6
Continuous
 62
     7
100
AcDbText
 10
39.194094
 20
9.92772
 30
0.0
 40
0.062
  1
DIMENSION TOL
 50
270.0
  7
Vcadd_SIMP
 72
     1
 11
39.57793
 21
9.92772
 31
0.0
100
AcDbText
  0
TEXT
  5
453
100
AcDbEntity
  8
0
370
     0
390
0
  6
Continuous
 62
     7
100
AcDbText
 10
38.655745
 20
9.937355
 30
0.0
 40
0.062
  1
FINISH    80
 50
270.0
  7
Vcadd_SIMP
 72
     1
 11
38.970556
 21
9.937355
 31
0.0
100
AcDbText
  0
TEXT
  5
454
100
AcDbEntity
  8
0
370
     0
390
0
  6
Continuous
 62
     7
100
AcDbText
 10
38.649031
 20
9.944759
 30
0.0
 40
0.062
  1
ANGLE TOL +/- 1°
 50
270.0
  7
Vcadd_SIMP
 72
     1
 11
39.077827
 21
9.944759
 31
0.0
100
AcDbText
  0
LINE
  5
455
100
AcDbEntity
  8
0
370
     0
390
0
  6
Continuous
 62
     7
100
AcDbLine
 10
39.719656
 20
9.447288
 30
0.0
 11
39.719656
 21
10.447288
 31
0.0
  0
TEXT
  5
456
100
AcDbEntity
  8
0
370
     0
390
0
  6
Continuous
 62
     7
100
AcDbText
 10
39.737794
 20
14.190862
 30
0.0
 40
0.065844
  1
J
 50
270.0
  7
Vcadd_SIMP
 72
     1
 11
39.775654
 21
14.190862
 31
0.0
100
AcDbText
  0
TEXT
  5
457
100
AcDbEntity
  8
0
370
     0
390
0
  6
Continuous
 62
     7
100
AcDbText
 10
39.510632
 20
11.440861
 30
0.0
 40
0.065844
  1
06JAN14
 50
270.0
  7
Vcadd_SIMP
 72
     1
 11
39.775654
 21
11.440861
 31
0.0
100
AcDbText
  0
TEXT
  5
458
100
AcDbEntity
  8
0
370
     0
390
0
  6
Continuous
 62
     7
100
AcDbText
 10
39.699934
 20
11.065861
 30
0.0
 40
0.065844
  1
LT
 50
270.0
  7
Vcadd_SIMP
 72
     1
 11
39.775654
 21
11.065861
 31
0.0
100
AcDbText
  0
TEXT
  5
459
100
AcDbEntity
  8
0
370
     0
390
0
  6
Continuous
 62
     7
100
AcDbText
 10
39.662073
 20
10.815861
 30
0.0
 40
0.065844
  1
JRG
 50
270.0
  7
Vcadd_SIMP
 72
     1
 11
39.775654
 21
10.815861
 31
0.0
100
AcDbText
  0
TEXT
  5
45A
100
AcDbEntity
  8
0
370
     0
390
0
  6
Continuous
 62
     7
100
AcDbText
 10
39.643143
 20
10.565861
 30
0.0
 40
0.065844
  1
12177
 50
270.0
 41
0.7
  7
Vcadd_SIMP
 72
     1
 11
39.775654
 21
10.565861
 31
0.0
100
AcDbText
  0
TEXT
  5
45B
100
AcDbEntity
  8
0
370
     0
390
0
  6
Continuous
 62
     7
100
AcDbText
 10
39.775677
 20
14.028684
 30
0.0
 40
0.065844
  1
PORT 1 AREA DIM. 169,8 WAS 166,6
 50
270.0
 41
0.9
  7
Vcadd_SIMP
100
AcDbText
  0
LINE
  5
45C
100
AcDbEntity
  8
0
370
    15
390
0
  6
Continuous
 62
     7
100
AcDbLine
 10
39.902126
 20
10.447288
 30
0.0
 11
39.902126
 21
14.322289
 31
0.0
  0
ENDSEC
  0
SECTION
  2
OBJECTS
  0
DICTIONARY
  5
19
100
AcDbDictionary
280
     0
281
     1
  3
ACAD_GROUP
350
1A
  3
ACAD_MLINESTYLE
350
1B
  3
ACAD_LAYOUT
350
1E
  3
ACAD_PLOTSETTINGS
350
22
  3
ACAD_PLOTSTYLENAME
350
1F
  3
ACAD_WIPEOUT_VARS
350
23
  0
DICTIONARY
  5
1A
102
{ACAD_REACTORS
330
19
102
}
100
AcDbDictionary
280
     0
281
     1
  0
DICTIONARY
  5
1B
102
{ACAD_REACTORS
330
19
102
}
100
AcDbDictionary
280
     0
281
     1
  3
Standard
350
1C
  0
MLINESTYLE
  5
1C
102
{ACAD_REACTORS
330
1B
102
}
100
AcDbMlineStyle
  2
Standard
 70
     0
  3

 62
     0
 51
90.0
 52
90.0
 71
     2
 49
0.5
 62
   256
  6
ByLayer
 49
-0.5
 62
   256
  6
ByLayer
  0
ACDBDICTIONARYWDFLT
  5
1F
102
{ACAD_REACTORS
330
19
102
}
100
AcDbDictionary
281
     1
  3
Normal
350
1D
100
AcDbDictionaryWithDefault
340
1D
  0
ACDBPLACEHOLDER
  5
1D
102
{ACAD_REACTORS
330
1F
102
}
  0
LAYOUT
  5
20
102
{ACAD_REACTORS
330
1E
102
}
100
AcDbPlotSettings
  1

  2

  4

  6

 40
0.0
 41
0.0
 42
0.0
 43
0.0
 44
0.0
 45
0.0
 46
0.0
 47
0.0
 48
0.0
 49
0.0
140
0.0
141
0.0
142
1.0
143
1.0
 70
  1024
 72
     0
 73
     0
 74
     0
  7

 75
     0
147
1.0
148
0.0
149
0.0
100
AcDbLayout
  1
Model
 70
     0
 71
     0
 10
0.0
 20
0.0
 11
0.0
 21
0.0
 12
0.0
 22
0.0
 32
0.0
 14
0.0
 24
0.0
 34
0.0
 15
0.0
 25
0.0
 35
0.0
146
0.0
 13
0.0
 23
0.0
 33
0.0
 16
0.0
 26
0.0
 36
0.0
 17
0.0
 27
0.0
 37
0.0
 76
     0
330
A
331
0
345
0
346
0
  0
LAYOUT
  5
21
102
{ACAD_REACTORS
330
1E
102
}
100
AcDbPlotSettings
  1

  2

  4

  6

 40
0.0
 41
0.0
 42
0.0
 43
0.0
 44
0.0
 45
0.0
 46
0.0
 47
0.0
 48
0.0
 49
0.0
140
0.0
141
0.0
142
1.0
143
1.0
 70
     0
 72
     0
 73
     0
 74
     0
  7

 75
     0
147
1.0
148
0.0
149
0.0
100
AcDbLayout
  1
Layout1
 70
     0
 71
     0
 10
0.0
 20
0.0
 11
0.0
 21
0.0
 12
0.0
 22
0.0
 32
0.0
 14
0.0
 24
0.0
 34
0.0
 15
0.0
 25
0.0
 35
0.0
146
0.0
 13
0.0
 23
0.0
 33
0.0
 16
0.0
 26
0.0
 36
0.0
 17
0.0
 27
0.0
 37
0.0
 76
     0
330
B
331
0
345
0
346
0
  0
DICTIONARY
  5
1E
102
{ACAD_REACTORS
330
19
102
}
100
AcDbDictionary
280
     0
281
     1
  3
Layout1
350
21
  3
Model
350
20
  0
DICTIONARY
  5
22
102
{ACAD_REACTORS
330
19
102
}
100
AcDbDictionary
280
     0
281
     1
  0
WIPEOUTVARIABLES
  5
23
100
AcDbWipeoutVariables
 70
     1
  0
ENDSEC
  0
EOF
