  0
SECTION
  2
HEADER
  9
$ACADVER
  1
AC1015
  9
$ACADMAINTVER
 70
     6
  9
$DWGCODEPAGE
  3
ANSI_1253
  9
$INSBASE
 10
0.0
 20
0.0
 30
0.0
  9
$EXTMIN
 10
20.551088
 20
11.188275
 30
0.0
  9
$EXTMAX
 10
30.556252
 20
27.19198
 30
0.0
  9
$LIMMIN
 10
0.0
 20
0.0
  9
$LIMMAX
 10
0.0
 20
0.0
  9
$ORTHOMODE
 70
     0
  9
$REGENMODE
 70
     1
  9
$FILLMODE
 70
     1
  9
$QTEXTMODE
 70
     0
  9
$MIRRTEXT
 70
     1
  9
$LTSCALE
 40
1.0
  9
$ATTMODE
 70
     1
  9
$TEXTSIZE
 40
0.2
  9
$TRACEWID
 40
0.05
  9
$TEXTSTYLE
  7
Standard
  9
$CLAYER
  8
0
  9
$CELTYPE
  6
Continuous
  9
$CECOLOR
 62
   256
  9
$CELTSCALE
 40
1.0
  9
$DISPSILH
 70
     0
  9
$DIMSCALE
 40
1.0
  9
$DIMASZ
 40
0.18
  9
$DIMEXO
 40
0.0625
  9
$DIMDLI
 40
0.38
  9
$DIMRND
 40
0.0
  9
$DIMDLE
 40
0.0
  9
$DIMEXE
 40
0.18
  9
$DIMTP
 40
0.0
  9
$DIMTM
 40
0.0
  9
$DIMTXT
 40
0.18
  9
$DIMCEN
 40
0.09
  9
$DIMTSZ
 40
0.0
  9
$DIMTOL
 70
     0
  9
$DIMLIM
 70
     0
  9
$DIMTIH
 70
     1
  9
$DIMTOH
 70
     1
  9
$DIMSE1
 70
     0
  9
$DIMSE2
 70
     0
  9
$DIMTAD
 70
     0
  9
$DIMZIN
 70
     0
  9
$DIMBLK
  1

  9
$DIMASO
 70
     1
  9
$DIMSHO
 70
     1
  9
$DIMPOST
  1

  9
$DIMAPOST
  1

  9
$DIMALT
 70
     0
  9
$DIMALTD
 70
     2
  9
$DIMALTF
 40
25.4
  9
$DIMLFAC
 40
1.0
  9
$DIMTOFL
 70
     0
  9
$DIMTVP
 40
0.0
  9
$DIMTIX
 70
     0
  9
$DIMSOXD
 70
     0
  9
$DIMSAH
 70
     0
  9
$DIMBLK1
  1

  9
$DIMBLK2
  1

  9
$DIMSTYLE
  2
Standard
  9
$DIMCLRD
 70
     0
  9
$DIMCLRE
 70
     0
  9
$DIMCLRT
 70
     0
  9
$DIMTFAC
 40
1.0
  9
$DIMGAP
 40
0.09
  9
$DIMJUST
 70
     0
  9
$DIMSD1
 70
     0
  9
$DIMSD2
 70
     0
  9
$DIMTOLJ
 70
     1
  9
$DIMTZIN
 70
     0
  9
$DIMALTZ
 70
     0
  9
$DIMALTTZ
 70
     0
  9
$DIMUPT
 70
     0
  9
$DIMDEC
 70
     4
  9
$DIMTDEC
 70
     4
  9
$DIMALTU
 70
     2
  9
$DIMALTTD
 70
     2
  9
$DIMTXSTY
  7
Standard
  9
$DIMAUNIT
 70
     0
  9
$DIMADEC
 70
     0
  9
$DIMALTRND
 40
0.0
  9
$DIMAZIN
 70
     0
  9
$DIMDSEP
 70
     0
  9
$DIMATFIT
 70
     3
  9
$DIMFRAC
 70
     0
  9
$DIMLDRBLK
  1

  9
$DIMLUNIT
 70
     2
  9
$DIMLWD
 70
     0
  9
$DIMLWE
 70
     0
  9
$DIMTMOVE
 70
     0
  9
$LUNITS
 70
     2
  9
$LUPREC
 70
     4
  9
$SKETCHINC
 40
0.1
  9
$FILLETRAD
 40
0.0
  9
$AUNITS
 70
     0
  9
$AUPREC
 70
     0
  9
$MENU
  1
acad
  9
$ELEVATION
 40
0.0
  9
$PELEVATION
 40
0.0
  9
$THICKNESS
 40
0.0
  9
$LIMCHECK
 70
     0
  9
$CHAMFERA
 40
0.0
  9
$CHAMFERB
 40
0.0
  9
$CHAMFERC
 40
0.0
  9
$CHAMFERD
 40
0.0
  9
$SKPOLY
 70
     0
  9
$TDCREATE
 40
0.000000000
  9
$TDUCREATE
 40
0.000000000
  9
$TDUPDATE
 40
0.000000000
  9
$TDUUPDATE
 40
0.000000000
  9
$TDINDWG
 40
0.0000000000
  9
$TDUSRTIMER
 40
0.0000000000
  9
$USRTIMER
 70
     1
  9
$ANGBASE
 50
0.0
  9
$ANGDIR
 70
     0
  9
$PDMODE
 70
     2
  9
$PDSIZE
 40
-1.0
  9
$PLINEWID
 40
0.0
  9
$SPLFRAME
 70
     0
  9
$SPLINETYPE
 70
     6
  9
$SPLINESEGS
 70
     8
  9
$HANDSEED
  5
419
  9
$SURFTAB1
 70
     6
  9
$SURFTAB2
 70
     6
  9
$SURFTYPE
 70
     6
  9
$SURFU
 70
     6
  9
$SURFV
 70
     6
  9
$UCSBASE
  2

  9
$UCSNAME
  2

  9
$UCSORG
 10
0.0
 20
0.0
 30
0.0
  9
$UCSXDIR
 10
1.0
 20
0.0
 30
0.0
  9
$UCSYDIR
 10
0.0
 20
1.0
 30
0.0
  9
$UCSORTHOREF
  2

  9
$UCSORTHOVIEW
 70
     0
  9
$UCSORGTOP
 10
0.0
 20
0.0
 30
0.0
  9
$UCSORGBOTTOM
 10
0.0
 20
0.0
 30
0.0
  9
$UCSORGLEFT
 10
0.0
 20
0.0
 30
0.0
  9
$UCSORGRIGHT
 10
0.0
 20
0.0
 30
0.0
  9
$UCSORGFRONT
 10
0.0
 20
0.0
 30
0.0
  9
$UCSORGBACK
 10
0.0
 20
0.0
 30
0.0
  9
$PUCSBASE
  2

  9
$PUCSNAME
  2

  9
$PUCSORG
 10
0.0
 20
0.0
 30
0.0
  9
$PUCSXDIR
 10
1.0
 20
0.0
 30
0.0
  9
$PUCSYDIR
 10
0.0
 20
1.0
 30
0.0
  9
$PUCSORTHOREF
  2

  9
$PUCSORTHOVIEW
 70
     0
  9
$PUCSORGTOP
 10
0.0
 20
0.0
 30
0.0
  9
$PUCSORGBOTTOM
 10
0.0
 20
0.0
 30
0.0
  9
$PUCSORGLEFT
 10
0.0
 20
0.0
 30
0.0
  9
$PUCSORGRIGHT
 10
0.0
 20
0.0
 30
0.0
  9
$PUCSORGFRONT
 10
0.0
 20
0.0
 30
0.0
  9
$PUCSORGBACK
 10
0.0
 20
0.0
 30
0.0
  9
$USERI1
 70
     0
  9
$USERI2
 70
     0
  9
$USERI3
 70
     0
  9
$USERI4
 70
     0
  9
$USERI5
 70
     0
  9
$USERR1
 40
0.0
  9
$USERR2
 40
0.0
  9
$USERR3
 40
0.0
  9
$USERR4
 40
0.0
  9
$USERR5
 40
0.0
  9
$WORLDVIEW
 70
     1
  9
$SHADEDGE
 70
     3
  9
$SHADEDIF
 70
    70
  9
$TILEMODE
 70
     1
  9
$MAXACTVP
 70
    16
  9
$PINSBASE
 10
0.0
 20
0.0
 30
0.0
  9
$PLIMCHECK
 70
     0
  9
$PEXTMIN
 10
1.000000E+20
 20
1.000000E+20
 30
1.000000E+20
  9
$PEXTMAX
 10
-1.000000E+20
 20
-1.000000E+20
 30
-1.000000E+20
  9
$PLIMMIN
 10
0.0
 20
0.0
  9
$PLIMMAX
 10
12.0
 20
9.0
  9
$UNITMODE
 70
     0
  9
$VISRETAIN
 70
     0
  9
$PLINEGEN
 70
     1
  9
$PSLTSCALE
 70
     0
  9
$TREEDEPTH
 70
  3020
  9
$CMLSTYLE
  2
Standard
  9
$CMLJUST
 70
     0
  9
$CMLSCALE
 40
1.0
  9
$PROXYGRAPHICS
 70
     0
  9
$MEASUREMENT
 70
     0
  9
$CELWEIGHT
370
     0
  9
$ENDCAPS
280
     0
  9
$JOINSTYLE
280
     0
  9
$LWDISPLAY
290
     1
  9
$INSUNITS
 70
     0
  9
$HYPERLINKBASE
  1

  9
$STYLESHEET
  1

  9
$XEDIT
290
     1
  9
$CEPSNTYPE
380
     0
  9
$PSTYLEMODE
290
     1
  9
$FINGERPRINTGUID
  2

  9
$VERSIONGUID
  2

  9
$EXTNAMES
290
     1
  9
$PSVPSCALE
 40
0.0
  0
ENDSEC
  0
SECTION
  2
CLASSES
  0
CLASS
  1
LWPOLYLINE
  2
AcDbPolyline
  3
AutoCAD 2000
 90
        0
280
     0
281
     1
  0
CLASS
  1
IMAGE
  2
AcDbRasterImage
  3
ISM
 90
      127
280
     0
281
     1
  0
CLASS
  1
OLE2FRAME
  2
AcDbOle2Frame
  3
AutoCAD 2000
 90
        0
280
     0
281
     1
  0
CLASS
  1
HATCH
  2
AcDbHatch
  3
AutoCAD 2000
 90
        0
280
     0
281
     1
  0
CLASS
  1
DICTIONARYVAR
  2
AcDbDictionaryVar
  3
AutoCAD 2000
 90
        0
280
     0
281
     0
  0
CLASS
  1
RASTERVARIABLES
  2
AcDbRasterVariables
  3
ISM
 90
        0
280
     0
281
     0
  0
CLASS
  1
IMAGEDEF
  2
AcDbRasterImageDef
  3
ISM
 90
        0
280
     0
281
     0
  0
CLASS
  1
IMAGEDEF_REACTOR
  2
AcDbRasterImageDefReactor
  3
ISM
 90
        1
280
     0
281
     0
  0
CLASS
  1
IDBUFFER
  2
AcDbIdBuffer
  3
AutoCAD 2000
 90
        0
280
     0
281
     0
  0
CLASS
  1
SPATIAL_FILTER
  2
AcDbSpatialFilter
  3
AutoCAD 2000
 90
        0
280
     0
281
     0
  0
CLASS
  1
XRECORD
  2
AcDbXrecord
  3
AutoCAD 2000
 90
        0
280
     0
281
     0
  0
CLASS
  1
SORTENTSTABLE
  2
AcDbSortentsTable
  3
AutoCAD 2000
 90
        0
280
     0
281
     0
  0
CLASS
  1
LAYER_INDEX
  2
AcDbLayerIndex
  3
AutoCAD 2000
 90
        0
280
     0
281
     0
  0
CLASS
  1
SPATIAL_INDEX
  2
AcDbSpatialIndex
  3
AutoCAD 2000
 90
        0
280
     0
281
     0
  0
CLASS
  1
OBJECT_PTR
  2
CAseDLPNTableRecord
  3
"ASE-LPNTableRecord"
 90
        1
280
     0
281
     0
  0
CLASS
  1
LAYOUT
  2
AcDbLayout
  3
AutoCAD 2000
 90
        0
280
     0
281
     0
  0
CLASS
  1
PLOTSETTINGS
  2
AcDbPlotSettings
  3
AutoCAD 2000
 90
        0
280
     0
281
     0
  0
CLASS
  1
ACDBDICTIONARYWDFLT
  2
AcDbDictionaryWithDefault
  3
AutoCAD 2000
 90
        0
280
     0
281
     0
  0
CLASS
  1
ACDBPLACEHOLDER
  2
AcDbPlaceHolder
  3
AutoCAD 2000
 90
        0
280
     0
281
     0
  0
CLASS
  1
VBA_PROJECT
  2
AcDbVbaProject
  3
acadvba
 90
        0
280
     0
281
     0
  0
CLASS
  1
WIPEOUT
  2
AcDbWipeout
  3
WipeOut|AutoCAD Express Tool|expresstools@autodesk.com
 90
      127
280
     0
281
     1
  0
CLASS
  1
WIPEOUTVARIABLES
  2
AcDbWipeoutVariables
  3
WipeOut|AutoCAD Express Tool|expresstools@autodesk.com
 90
        0
280
     0
281
     0
  0
CLASS
  1
RTEXT
  2
RText
  3
RText|AutoCAD Express Tool|expresstools@autodesk.com
 90
        0
280
     0
281
     1
  0
CLASS
  1
ARCALIGNEDTEXT
  2
AcDbArcAlignedText
  3
ATEXT|AutoCAD Express Tool|expresstools@autodesk.com
 90
        0
280
     0
281
     1
  0
ENDSEC
  0
SECTION
  2
TABLES
  0
TABLE
  2
VPORT
  5
7
100
AcDbSymbolTable
 70
     2
  0
VPORT
  5
15
100
AcDbSymbolTableRecord
100
AcDbViewportTableRecord
  2
*ACTIVE
 70
     0
 10
0.0
 20
0.0
 11
1.0
 21
1.0
 12
6.591288
 22
4.579184
 13
0.0
 23
0.0
 14
1.0
 24
1.0
 15
0.0
 25
0.0
 16
0.0
 26
0.0
 36
1.0
 17
0.0
 27
0.0
 37
0.0
 40
9.158369
 41
0.688564
 42
50.0
 43
0.0
 44
0.0
 50
0.0
 51
0.0
 71
     0
 72
   100
 73
     1
 74
     1
 75
     0
 76
     0
 77
     0
 78
     0
281
     0
 65
     0
110
0.0
120
0.0
130
0.0
111
1.0
121
0.0
131
0.0
112
0.0
122
1.0
132
0.0
345
0
346
0
 79
     0
146
0.0
  0
VPORT
  5
418
100
AcDbSymbolTableRecord
100
AcDbViewportTableRecord
  2
MYVPORT
 70
     0
 10
0.0
 20
0.0
 11
1.0
 21
1.0
 12
6.21
 22
9.02
 13
0.0
 23
0.0
 14
1.0
 24
1.0
 15
0.0
 25
0.0
 16
0.0
 26
0.0
 36
1.0
 17
0.0
 27
0.0
 37
0.0
 40
18.04
 41
0.688564
 42
50.0
 43
0.0
 44
0.0
 50
0.0
 51
0.0
 71
     0
 72
   100
 73
     1
 74
     1
 75
     0
 76
     0
 77
     0
 78
     0
281
     0
 65
     0
110
0.0
120
0.0
130
0.0
111
1.0
121
0.0
131
0.0
112
0.0
122
1.0
132
0.0
345
0
346
0
 79
     0
146
0.0
  0
ENDTAB
  0
TABLE
  2
LTYPE
  5
4
100
AcDbSymbolTable
 70
     7
  0
LTYPE
  5
11
100
AcDbSymbolTableRecord
100
AcDbLinetypeTableRecord
  2
ByBlock
 70
    64
  3

 72
    65
 73
     0
 40
0.0
  0
LTYPE
  5
12
100
AcDbSymbolTableRecord
100
AcDbLinetypeTableRecord
  2
ByLayer
 70
    64
  3

 72
    65
 73
     0
 40
0.0
  0
LTYPE
  5
13
100
AcDbSymbolTableRecord
100
AcDbLinetypeTableRecord
  2
Continuous
 70
    64
  3
Solid line
 72
    65
 73
     0
 40
0.0
  0
LTYPE
  5
89
100
AcDbSymbolTableRecord
100
AcDbLinetypeTableRecord
  2
CL____X1
 70
    64
  3
Visual CADD Translation
 72
    65
 73
     4
 40
1.33
 49
0.05
 74
     0
 49
-0.05
 74
     0
 49
1.18
 74
     0
 49
-0.05
 74
     0
  0
LTYPE
  5
9F
100
AcDbSymbolTableRecord
100
AcDbLinetypeTableRecord
  2
DIVIDE
 70
    64
  3
Visual CADD Translation
 72
    65
 73
     6
 40
1.0
 49
0.6
 74
     0
 49
-0.133
 74
     0
 49
0.0
 74
     0
 49
-0.134
 74
     0
 49
0.0
 74
     0
 49
-0.133
 74
     0
  0
LTYPE
  5
1F5
100
AcDbSymbolTableRecord
100
AcDbLinetypeTableRecord
  2
TYPE___6
 70
    64
  3
Visual CADD Translation
 72
    65
 73
     4
 40
1.0
 49
0.6
 74
     0
 49
-0.15
 74
     0
 49
0.1
 74
     0
 49
-0.15
 74
     0
  0
LTYPE
  5
1F7
100
AcDbSymbolTableRecord
100
AcDbLinetypeTableRecord
  2
TYPE___8
 70
    64
  3
Visual CADD Translation
 72
    65
 73
     6
 40
1.0
 49
0.6
 74
     0
 49
-0.08
 74
     0
 49
0.08
 74
     0
 49
-0.08
 74
     0
 49
0.08
 74
     0
 49
-0.08
 74
     0
  0
ENDTAB
  0
TABLE
  2
LAYER
  5
2
100
AcDbSymbolTable
 70
     7
  0
LAYER
  5
14
100
AcDbSymbolTableRecord
100
AcDbLayerTableRecord
  2
0
 70
     0
 62
     7
  6
Continuous
290
     1
370
    -3
390
1D
  0
LAYER
  5
24
100
AcDbSymbolTableRecord
100
AcDbLayerTableRecord
  2
1
 70
     0
 62
     7
  6
Continuous
290
     1
370
    -3
390
1D
  0
LAYER
  5
25
100
AcDbSymbolTableRecord
100
AcDbLayerTableRecord
  2
2
 70
     0
 62
     7
  6
Continuous
290
     1
370
    -3
390
1D
  0
LAYER
  5
26
100
AcDbSymbolTableRecord
100
AcDbLayerTableRecord
  2
3
 70
     0
 62
     7
  6
Continuous
290
     1
370
    -3
390
1D
  0
LAYER
  5
27
100
AcDbSymbolTableRecord
100
AcDbLayerTableRecord
  2
4
 70
     0
 62
     7
  6
Continuous
290
     1
370
    -3
390
1D
  0
LAYER
  5
28
100
AcDbSymbolTableRecord
100
AcDbLayerTableRecord
  2
12
 70
     0
 62
     7
  6
Continuous
290
     1
370
    -3
390
1D
  0
LAYER
  5
2EE
100
AcDbSymbolTableRecord
100
AcDbLayerTableRecord
  2
9
 70
     0
 62
     7
  6
Continuous
290
     1
370
    -3
390
1D
  0
ENDTAB
  0
TABLE
  2
STYLE
  5
3
100
AcDbSymbolTable
 70
     3
  0
STYLE
  5
17
100
AcDbSymbolTableRecord
100
AcDbTextStyleTableRecord
  2
Standard
 70
     0
 40
0.0
 41
1.0
 50
0.0
 71
     0
 42
0.0
  3
txt
  4

  0
STYLE
  5
30
100
AcDbSymbolTableRecord
100
AcDbTextStyleTableRecord
  2
Vcadd_Main
 70
     0
 40
0.0
 41
1.0
 50
0.0
 71
     0
 42
0.0
  3
Main
  4

  0
STYLE
  5
5C
100
AcDbSymbolTableRecord
100
AcDbTextStyleTableRecord
  2
Vcadd_SIMP
 70
     0
 40
0.0
 41
1.0
 50
0.0
 71
     0
 42
0.0
  3
SIMP
  4

  0
ENDTAB
  0
TABLE
  2
VIEW
  5
5
100
AcDbSymbolTable
 70
     0
  0
ENDTAB
  0
TABLE
  2
UCS
  5
6
100
AcDbSymbolTable
 70
     1
  0
UCS
  5
417
100
AcDbSymbolTableRecord
100
AcDbUCSTableRecord
  2
MYUCS
 70
     0
 10
0.0
 20
0.0
 30
0.0
 11
0.0
 21
1.0
 31
0.0
 12
0.0
 22
0.0
 32
1.0
 79
     0
146
0.0
  0
ENDTAB
  0
TABLE
  2
APPID
  5
8
100
AcDbSymbolTable
 70
     1
  0
APPID
  5
16
100
AcDbSymbolTableRecord
100
AcDbRegAppTableRecord
  2
ACAD
 70
     0
  0
ENDTAB
  0
TABLE
  2
DIMSTYLE
  5
9
100
AcDbSymbolTable
 70
     2
100
AcDbDimStyleTable
 71
     0
  0
DIMSTYLE
105
18
100
AcDbSymbolTableRecord
100
AcDbDimStyleTableRecord
  2
Standard
 70
     0
  3

  4

 40
1.0
 41
0.18
 42
0.0625
 43
0.38
 44
0.18
 45
0.0
 46
0.0
 47
0.0
 48
0.0
 71
     0
 72
     0
 73
     1
 74
     1
 75
     0
 76
     0
 77
     0
 78
     0
 79
     0
140
0.18
141
0.09
142
0.0
143
25.4
144
1.0
145
0.0
146
1.0
147
0.09
148
0.0
170
     0
171
     2
172
     0
173
     0
174
     0
175
     0
176
     0
177
     0
178
     0
179
     0
271
     4
272
     4
273
     2
274
     2
275
     0
276
     0
277
     2
278
    46
279
     0
280
     0
281
     0
282
     0
283
     1
284
     0
285
     0
286
     0
288
     0
289
     3
340
17
341
0
342
0
343
0
344
0
371
    -2
372
    -2
  0
DIMSTYLE
105
31
100
AcDbSymbolTableRecord
100
AcDbDimStyleTableRecord
  2
VCADD_DIMSTYLE
 70
     0
  3

  4

 40
1.0
 41
2.5
 42
0.1
 43
0.0
 44
0.1
 45
0.0
 46
0.0
 47
0.003
 48
0.002
 71
     0
 72
     0
 73
     1
 74
     1
 75
     0
 76
     0
 77
     0
 78
     3
 79
     1
140
0.1
141
0.0
142
0.0
143
1.0
144
1.0
145
0.0
146
1.0
147
0.2
148
0.0
170
     0
171
     3
172
     0
173
     0
174
     1
175
     0
176
     0
177
     0
178
     0
179
     3
271
     3
272
     4
273
     2
274
     2
275
     0
276
     0
277
     2
278
    46
279
     0
280
     0
281
     0
282
     0
283
     1
284
     0
285
     0
286
     0
288
     0
289
     3
340
30
341
0
342
0
343
0
344
0
371
    -2
372
    -2
  0
ENDTAB
  0
TABLE
  2
BLOCK_RECORD
  5
1
100
AcDbSymbolTable
 70
     4
  0
BLOCK_RECORD
  5
A
100
AcDbSymbolTableRecord
100
AcDbBlockTableRecord
  2
*MODEL_SPACE
340
20
  0
BLOCK_RECORD
  5
B
100
AcDbSymbolTableRecord
100
AcDbBlockTableRecord
  2
*PAPER_SPACE
340
21
  0
BLOCK_RECORD
  5
29
100
AcDbSymbolTableRecord
100
AcDbBlockTableRecord
  2
_CLOSED
340
0
  0
BLOCK_RECORD
  5
23A
100
AcDbSymbolTableRecord
100
AcDbBlockTableRecord
  2
MAU
340
0
102
{BLKREFS
331
247
331
258
102
}
  0
BLOCK_RECORD
  5
249
100
AcDbSymbolTableRecord
100
AcDbBlockTableRecord
  2
MAL
340
0
102
{BLKREFS
331
256
102
}
  0
BLOCK_RECORD
  5
2EC
100
AcDbSymbolTableRecord
100
AcDbBlockTableRecord
  2
ARROW
340
0
102
{BLKREFS
331
2F4
331
2F5
331
2F6
331
2F7
331
2F8
331
2F9
331
2FA
331
2FB
331
2FC
331
2FD
331
2FE
331
2FF
331
300
331
301
331
302
331
303
331
304
331
305
331
306
331
307
331
308
331
309
331
30A
331
30B
331
30C
331
30D
331
30E
331
30F
331
312
331
3EB
331
3EC
102
}
  0
ENDTAB
  0
ENDSEC
  0
SECTION
  2
BLOCKS
  0
BLOCK
  5
D
100
AcDbEntity
  8
0
390
0
100
AcDbBlockBegin
  2
*MODEL_SPACE
 70
     0
 10
0.0
 20
0.0
 30
0.0
  3
*MODEL_SPACE
  1

  0
ENDBLK
  5
E
100
AcDbEntity
  8
0
390
0
100
AcDbBlockEnd
  0
BLOCK
  5
F
100
AcDbEntity
 67
     1
  8
0
390
0
100
AcDbBlockBegin
  2
*PAPER_SPACE
 70
     0
 10
0.0
 20
0.0
 30
0.0
  3
*PAPER_SPACE
  1

  0
ENDBLK
  5
10
100
AcDbEntity
 67
     1
  8
0
390
0
100
AcDbBlockEnd
  0
BLOCK
  5
2A
100
AcDbEntity
  8
0
390
0
100
AcDbBlockBegin
  2
_CLOSED
 70
     0
 10
0.0
 20
0.0
 30
0.0
  3
_CLOSED
  1

  0
LINE
  5
2B
100
AcDbEntity
  8
0
370
    -2
390
0
  6
ByBlock
 62
     0
100
AcDbLine
 10
-1.0
 20
0.166667
 30
0.0
 11
0.0
 21
0.0
 31
0.0
  0
LINE
  5
2C
100
AcDbEntity
  8
0
370
    -2
390
0
  6
ByBlock
 62
     0
100
AcDbLine
 10
0.0
 20
0.0
 30
0.0
 11
-1.0
 21
-0.166667
 31
0.0
  0
LINE
  5
2D
100
AcDbEntity
  8
0
370
    -2
390
0
  6
ByBlock
 62
     0
100
AcDbLine
 10
-1.0
 20
0.166667
 30
0.0
 11
-1.0
 21
-0.166667
 31
0.0
  0
LINE
  5
2E
100
AcDbEntity
  8
0
370
    -2
390
0
  6
ByBlock
 62
     0
100
AcDbLine
 10
0.0
 20
0.0
 30
0.0
 11
-1.0
 21
0.0
 31
0.0
  0
ENDBLK
  5
2F
100
AcDbEntity
  8
0
390
0
100
AcDbBlockEnd
  0
BLOCK
  5
23B
100
AcDbEntity
  8
0
390
0
100
AcDbBlockBegin
  2
MAU
 70
     0
 10
0.0
 20
0.0
 30
0.0
  3
MAU
  1

  0
LINE
  5
23C
100
AcDbEntity
  8
0
370
     0
390
0
  6
Continuous
 62
     2
100
AcDbLine
 10
0.0
 20
0.0
 30
0.0
 11
-0.024965
 21
-0.169856
 31
0.0
  0
LINE
  5
23D
100
AcDbEntity
  8
0
370
     0
390
0
  6
Continuous
 62
     2
100
AcDbLine
 10
0.0
 20
0.0
 30
0.0
 11
0.022192
 21
-0.169856
 31
0.0
  0
LINE
  5
23E
100
AcDbEntity
  8
0
370
     0
390
0
  6
Continuous
 62
     2
100
AcDbLine
 10
0.022192
 20
-0.169856
 30
0.0
 11
-0.024965
 21
-0.169856
 31
0.0
  0
LINE
  5
23F
100
AcDbEntity
  8
0
370
     0
390
0
  6
Continuous
 62
     7
100
AcDbLine
 10
-0.015773
 20
-0.160825
 30
0.0
 11
0.013481
 21
-0.160825
 31
0.0
  0
LINE
  5
240
100
AcDbEntity
  8
0
370
     0
390
0
  6
Continuous
 62
     7
100
AcDbLine
 10
0.013481
 20
-0.160825
 30
0.0
 11
-0.000196
 21
-0.036413
 31
0.0
  0
LINE
  5
241
100
AcDbEntity
  8
0
370
     0
390
0
  6
Continuous
 62
     7
100
AcDbLine
 10
-0.015773
 20
-0.160825
 30
0.0
 11
-0.000196
 21
-0.036413
 31
0.0
  0
LINE
  5
242
100
AcDbEntity
  8
0
370
     0
390
0
  6
Continuous
 62
     7
100
AcDbLine
 10
-0.006656
 20
-0.149436
 30
0.0
 11
-0.000576
 21
-0.078031
 31
0.0
  0
LINE
  5
243
100
AcDbEntity
  8
0
370
     0
390
0
  6
Continuous
 62
     7
100
AcDbLine
 10
-0.006656
 20
-0.149436
 30
0.0
 11
0.005122
 21
-0.149436
 31
0.0
  0
LINE
  5
244
100
AcDbEntity
  8
0
370
     0
390
0
  6
Continuous
 62
     7
100
AcDbLine
 10
0.005122
 20
-0.149436
 30
0.0
 11
-0.000576
 21
-0.078031
 31
0.0
  0
LINE
  5
245
100
AcDbEntity
  8
0
370
     0
390
0
  6
Continuous
 62
     7
100
AcDbLine
 10
-0.000957
 20
-0.142427
 30
0.0
 11
-0.000957
 21
-0.119647
 31
0.0
  0
ENDBLK
  5
246
100
AcDbEntity
  8
0
390
0
100
AcDbBlockEnd
  0
BLOCK
  5
24A
100
AcDbEntity
  8
0
390
0
100
AcDbBlockBegin
  2
MAL
 70
     0
 10
0.0
 20
0.0
 30
0.0
  3
MAL
  1

  0
LINE
  5
24B
100
AcDbEntity
  8
0
370
     0
390
0
  6
Continuous
 62
     2
100
AcDbLine
 10
0.0
 20
0.0
 30
0.0
 11
0.169856
 21
0.024965
 31
0.0
  0
LINE
  5
24C
100
AcDbEntity
  8
0
370
     0
390
0
  6
Continuous
 62
     2
100
AcDbLine
 10
0.0
 20
0.0
 30
0.0
 11
0.169856
 21
-0.022192
 31
0.0
  0
LINE
  5
24D
100
AcDbEntity
  8
0
370
     0
390
0
  6
Continuous
 62
     2
100
AcDbLine
 10
0.169856
 20
-0.022192
 30
0.0
 11
0.169856
 21
0.024965
 31
0.0
  0
LINE
  5
24E
100
AcDbEntity
  8
0
370
     0
390
0
  6
Continuous
 62
     7
100
AcDbLine
 10
0.160825
 20
0.015773
 30
0.0
 11
0.160825
 21
-0.013481
 31
0.0
  0
LINE
  5
24F
100
AcDbEntity
  8
0
370
     0
390
0
  6
Continuous
 62
     7
100
AcDbLine
 10
0.160825
 20
-0.013481
 30
0.0
 11
0.036413
 21
0.000196
 31
0.0
  0
LINE
  5
250
100
AcDbEntity
  8
0
370
     0
390
0
  6
Continuous
 62
     7
100
AcDbLine
 10
0.160825
 20
0.015773
 30
0.0
 11
0.036413
 21
0.000196
 31
0.0
  0
LINE
  5
251
100
AcDbEntity
  8
0
370
     0
390
0
  6
Continuous
 62
     7
100
AcDbLine
 10
0.149436
 20
0.006656
 30
0.0
 11
0.078031
 21
0.000576
 31
0.0
  0
LINE
  5
252
100
AcDbEntity
  8
0
370
     0
390
0
  6
Continuous
 62
     7
100
AcDbLine
 10
0.149436
 20
0.006656
 30
0.0
 11
0.149436
 21
-0.005122
 31
0.0
  0
LINE
  5
253
100
AcDbEntity
  8
0
370
     0
390
0
  6
Continuous
 62
     7
100
AcDbLine
 10
0.149436
 20
-0.005122
 30
0.0
 11
0.078031
 21
0.000576
 31
0.0
  0
LINE
  5
254
100
AcDbEntity
  8
0
370
     0
390
0
  6
Continuous
 62
     7
100
AcDbLine
 10
0.142427
 20
0.000957
 30
0.0
 11
0.119647
 21
0.000957
 31
0.0
  0
ENDBLK
  5
255
100
AcDbEntity
  8
0
390
0
100
AcDbBlockEnd
  0
BLOCK
  5
2ED
100
AcDbEntity
  8
0
390
0
100
AcDbBlockBegin
  2
ARROW
 70
     0
 10
0.0
 20
0.0
 30
0.0
  3
ARROW
  1

  0
LINE
  5
2EF
100
AcDbEntity
  8
9
370
     0
390
0
  6
Continuous
 62
     5
100
AcDbLine
 10
0.0
 20
0.0
 30
0.0
 11
-0.160849
 21
0.031523
 31
0.0
  0
LINE
  5
2F0
100
AcDbEntity
  8
9
370
     0
390
0
  6
Continuous
 62
     5
100
AcDbLine
 10
-0.160849
 20
0.031523
 30
0.0
 11
-0.160849
 21
-0.035463
 31
0.0
  0
LINE
  5
2F1
100
AcDbEntity
  8
9
370
     0
390
0
  6
Continuous
 62
     5
100
AcDbLine
 10
0.0
 20
0.0
 30
0.0
 11
-0.160849
 21
-0.035463
 31
0.0
  0
HATCH
  5
2F2
100
AcDbEntity
  8
9
370
     0
390
0
  6
Continuous
 62
     5
100
AcDbHatch
 10
0.0
 20
0.0
 30
0.0
210
0.0
220
0.0
230
1.0
  2
SOLID
 70
     1
 71
     0
 91
        1
 92
        1
 93
        3
 72
     1
 10
0.0
 20
0.0
 11
-0.1608486175537109
 21
0.0315227508544922
 72
     1
 10
-0.1608486175537109
 20
0.0315227508544922
 11
-0.1608486175537109
 21
-0.0354633331298828
 72
     1
 10
-0.1608486175537109
 20
-0.0354633331298828
 11
0.0
 21
0.0
 97
        0
 75
     0
 76
     1
 98
        1
 10
0.0
 20
0.0
  0
ENDBLK
  5
2F3
100
AcDbEntity
  8
0
390
0
100
AcDbBlockEnd
  0
ENDSEC
  0
SECTION
  2
ENTITIES
  0
VIEWPORT
  5
32
100
AcDbEntity
 67
     1
  8
0
390
0
  6
Continuous
 62
     0
100
AcDbViewport
 10
4.5
 20
3.259162
 30
0.0
 40
12.857143
 41
9.311892
 68
     1
 69
     1
 12
762.9316
 22
546.5183
 13
1169.457242
 23
377.488
 14
0.5
 24
0.5
 15
12.0
 25
12.0
 16
0.0
 26
0.0
 36
1.0
 17
0.0
 27
0.0
 37
0.0
 42
50.0
 43
-55.0
 44
-55.0
 45
1084.5
 50
0.0
 51
0.0
 72
   500
 90
        0
340
0
  1

281
     0
 71
     1
 74
     0
110
0.0
120
0.0
130
0.0
111
1.0
121
0.0
131
0.0
112
0.0
122
1.0
132
0.0
345
0
346
0
 79
     0
146
0.0
  0
LINE
  5
33
100
AcDbEntity
  8
0
370
    15
390
0
  6
Continuous
 62
     2
100
AcDbLine
 10
21.926087
 20
11.188275
 30
0.0
 11
21.926087
 21
21.813275
 31
0.0
  0
LINE
  5
34
100
AcDbEntity
  8
0
370
    15
390
0
  6
Continuous
 62
     2
100
AcDbLine
 10
21.926087
 20
21.813275
 30
0.0
 11
20.551087
 21
21.813275
 31
0.0
  0
LINE
  5
35
100
AcDbEntity
  8
0
370
    15
390
0
  6
Continuous
 62
     7
100
AcDbLine
 10
21.926087
 20
11.188275
 30
0.0
 11
21.926087
 21
11.188275
 31
0.0
  0
LINE
  5
36
100
AcDbEntity
  8
0
370
    15
390
0
  6
Continuous
 62
     7
100
AcDbLine
 10
21.926087
 20
13.938275
 30
0.0
 11
20.551087
 21
13.938275
 31
0.0
  0
LINE
  5
37
100
AcDbEntity
  8
0
370
    15
390
0
  6
Continuous
 62
     7
100
AcDbLine
 10
21.926087
 20
16.938275
 30
0.0
 11
20.551087
 21
16.938275
 31
0.0
  0
LINE
  5
38
100
AcDbEntity
  8
0
370
    15
390
0
  6
Continuous
 62
     7
100
AcDbLine
 10
21.926087
 20
17.938275
 30
0.0
 11
20.551087
 21
17.938275
 31
0.0
  0
LINE
  5
39
100
AcDbEntity
  8
0
370
    15
390
0
  6
Continuous
 62
     7
100
AcDbLine
 10
21.926087
 20
18.188275
 30
0.0
 11
20.551087
 21
18.188275
 31
0.0
  0
LINE
  5
3A
100
AcDbEntity
  8
0
370
    15
390
0
  6
Continuous
 62
     7
100
AcDbLine
 10
21.926087
 20
18.438275
 30
0.0
 11
20.551087
 21
18.438275
 31
0.0
  0
LINE
  5
3B
100
AcDbEntity
  8
0
370
    15
390
0
  6
Continuous
 62
     7
100
AcDbLine
 10
21.926087
 20
18.688275
 30
0.0
 11
20.551087
 21
18.688275
 31
0.0
  0
LINE
  5
3C
100
AcDbEntity
  8
0
370
    15
390
0
  6
Continuous
 62
     7
100
AcDbLine
 10
21.926087
 20
19.188275
 30
0.0
 11
20.551087
 21
19.188275
 31
0.0
  0
LINE
  5
3D
100
AcDbEntity
  8
0
370
    15
390
0
  6
Continuous
 62
     7
100
AcDbLine
 10
21.926087
 20
21.563275
 30
0.0
 11
20.551087
 21
21.563275
 31
0.0
  0
LINE
  5
3E
100
AcDbEntity
  8
0
370
    15
390
0
  6
Continuous
 62
     7
100
AcDbLine
 10
20.707088
 20
21.813275
 30
0.0
 11
20.707088
 21
17.938275
 31
0.0
  0
LINE
  5
3F
100
AcDbEntity
  8
0
370
    15
390
0
  6
Continuous
 62
     7
100
AcDbLine
 10
21.551087
 20
16.938275
 30
0.0
 11
21.551087
 21
17.938275
 31
0.0
  0
LINE
  5
40
100
AcDbEntity
  8
0
370
    15
390
0
  6
Continuous
 62
     7
100
AcDbLine
 10
20.832088
 20
16.938275
 30
0.0
 11
20.832088
 21
15.313275
 31
0.0
  0
LINE
  5
41
100
AcDbEntity
  8
0
370
    15
390
0
  6
Continuous
 62
     7
100
AcDbLine
 10
21.113088
 20
16.938275
 30
0.0
 11
21.113088
 21
15.313275
 31
0.0
  0
LINE
  5
42
100
AcDbEntity
  8
0
370
    15
390
0
  6
Continuous
 62
     7
100
AcDbLine
 10
21.113088
 20
15.313275
 30
0.0
 11
21.113088
 21
13.938275
 31
0.0
  0
LINE
  5
43
100
AcDbEntity
  8
0
370
    15
390
0
  6
Continuous
 62
     7
100
AcDbLine
 10
21.488088
 20
16.938275
 30
0.0
 11
21.488088
 21
13.938275
 31
0.0
  0
LINE
  5
44
100
AcDbEntity
  8
0
370
    15
390
0
  6
Continuous
 62
     7
100
AcDbLine
 10
21.113088
 20
15.313274
 30
0.0
 11
20.551087
 21
15.313275
 31
0.0
  0
LINE
  5
45
100
AcDbEntity
  8
0
370
    15
390
0
  6
Continuous
 62
     7
100
AcDbLine
 10
21.113088
 20
15.313274
 30
0.0
 11
21.488088
 21
15.313274
 31
0.0
  0
LINE
  5
46
100
AcDbEntity
  8
0
370
    15
390
0
  6
Continuous
 62
     7
100
AcDbLine
 10
21.488088
 20
16.563275
 30
0.0
 11
21.113088
 21
16.563275
 31
0.0
  0
LINE
  5
47
100
AcDbEntity
  8
0
370
    15
390
0
  6
Continuous
 62
     7
100
AcDbLine
 10
20.551087
 20
16.396275
 30
0.0
 11
20.832088
 21
16.396275
 31
0.0
  0
LINE
  5
48
100
AcDbEntity
  8
0
370
    15
390
0
  6
Continuous
 62
     7
100
AcDbLine
 10
20.551087
 20
15.854275
 30
0.0
 11
20.832088
 21
15.854275
 31
0.0
  0
LINE
  5
49
100
AcDbEntity
  8
0
370
    15
390
0
  6
Continuous
 62
     7
100
AcDbLine
 10
20.832088
 20
15.854275
 30
0.0
 11
21.113088
 21
15.854275
 31
0.0
  0
LINE
  5
4A
100
AcDbEntity
  8
0
370
    15
390
0
  6
Continuous
 62
     7
100
AcDbLine
 10
20.832088
 20
16.396275
 30
0.0
 11
21.113088
 21
16.396275
 31
0.0
  0
LINE
  5
4B
100
AcDbEntity
  8
0
370
    15
390
0
  6
Continuous
 62
     7
100
AcDbLine
 10
21.488088
 20
13.938275
 30
0.0
 11
21.488088
 21
11.188275
 31
0.0
  0
LINE
  5
4C
100
AcDbEntity
  8
0
370
    15
390
0
  6
Continuous
 62
     7
100
AcDbLine
 10
21.926087
 20
13.376275
 30
0.0
 11
21.488088
 21
13.376275
 31
0.0
  0
LINE
  5
4D
100
AcDbEntity
  8
0
370
    15
390
0
  6
Continuous
 62
     7
100
AcDbLine
 10
30.181251
 20
13.938275
 30
0.0
 11
30.181251
 21
11.188275
 31
0.0
  0
LINE
  5
4E
100
AcDbEntity
  8
0
370
    15
390
0
  6
Continuous
 62
     7
100
AcDbLine
 10
30.181251
 20
13.376275
 30
0.0
 11
30.553439
 21
13.376275
 31
0.0
  0
LINE
  5
4F
100
AcDbEntity
  8
0
370
    15
390
0
  6
Continuous
 62
     7
100
AcDbLine
 10
30.181251
 20
13.938275
 30
0.0
 11
30.556251
 21
13.938275
 31
0.0
  0
LINE
  5
50
100
AcDbEntity
  8
0
370
    15
390
0
  6
Continuous
 62
     7
100
AcDbLine
 10
20.848759
 20
14.804474
 30
0.0
 11
20.725029
 21
14.516972
 31
0.0
  0
ARC
  5
51
100
AcDbEntity
  8
0
370
    15
390
0
  6
Continuous
 62
     7
100
AcDbCircle
 10
21.025249
 20
14.387768
 30
0.0
 40
0.326842
100
AcDbArc
 50
156.690314
 51
236.832416
  0
ARC
  5
52
100
AcDbEntity
  8
0
370
    15
390
0
  6
Continuous
 62
     7
100
AcDbCircle
 10
20.539853
 20
14.907076
 30
0.0
 40
0.325497
100
AcDbArc
 50
341.621816
 51
418.31416
  0
LINE
  5
53
100
AcDbEntity
  8
0
370
    15
390
0
  6
Continuous
 62
     7
100
AcDbLine
 10
20.846013
 20
14.676971
 30
0.0
 11
20.751321
 21
14.726349
 31
0.0
  0
LINE
  5
54
100
AcDbEntity
  8
0
370
    15
390
0
  6
Continuous
 62
     7
100
AcDbLine
 10
20.818604
 20
14.618106
 30
0.0
 11
20.727493
 21
14.66947
 31
0.0
  0
LINE
  5
55
100
AcDbEntity
  8
0
370
    15
390
0
  6
Continuous
 62
     6
100
AcDbLine
 10
20.551087
 20
27.191981
 30
0.0
 11
20.551087
 21
11.188275
 31
0.0
  0
LINE
  5
56
100
AcDbEntity
  8
0
370
    15
390
0
  6
Continuous
 62
     6
100
AcDbLine
 10
20.551087
 20
11.188275
 30
0.0
 11
30.556251
 21
11.188275
 31
0.0
  0
LINE
  5
57
100
AcDbEntity
  8
0
370
    15
390
0
  6
Continuous
 62
     6
100
AcDbLine
 10
30.556251
 20
11.188275
 30
0.0
 11
30.556251
 21
27.191981
 31
0.0
  0
LINE
  5
58
100
AcDbEntity
  8
0
370
    15
390
0
  6
Continuous
 62
     6
100
AcDbLine
 10
30.556251
 20
27.191981
 30
0.0
 11
20.551087
 21
27.191981
 31
0.0
  0
LINE
  5
59
100
AcDbEntity
  8
0
370
    15
390
0
  6
Continuous
 62
     7
100
AcDbLine
 10
21.799088
 20
19.188275
 30
0.0
 11
21.799088
 21
21.563275
 31
0.0
  0
LINE
  5
5A
100
AcDbEntity
  8
0
370
    15
390
0
  6
Continuous
 62
     7
100
AcDbLine
 10
21.643087
 20
19.188275
 30
0.0
 11
21.643087
 21
21.563275
 31
0.0
  0
LINE
  5
5B
100
AcDbEntity
  8
0
370
    15
390
0
  6
Continuous
 62
     7
100
AcDbLine
 10
21.019088
 20
19.188275
 30
0.0
 11
21.019088
 21
21.563275
 31
0.0
  0
TEXT
  5
5D
100
AcDbEntity
  8
0
370
    15
390
0
  6
Continuous
 62
     7
100
AcDbText
 10
20.597343
 20
21.777098
 30
0.0
 40
0.065844
  1
LET
 50
270.0
  7
Vcadd_SIMP
100
AcDbText
  0
TEXT
  5
5E
100
AcDbEntity
  8
0
370
    15
390
0
  6
Continuous
 62
     7
100
AcDbText
 10
20.597364
 20
20.669815
 30
0.0
 40
0.065844
  1
REVISION 
 50
270.0
  7
Vcadd_SIMP
100
AcDbText
  0
TEXT
  5
5F
100
AcDbEntity
  8
0
370
    15
390
0
  6
Continuous
 62
     7
100
AcDbText
 10
20.595336
 20
19.068648
 30
0.0
 40
0.065844
  1
DATE 
 50
270.0
  7
Vcadd_SIMP
100
AcDbText
  0
TEXT
  5
60
100
AcDbEntity
  8
0
370
    15
390
0
  6
Continuous
 62
     7
100
AcDbText
 10
20.595502
 20
18.654626
 30
0.0
 40
0.065844
  1
DRN 
 50
270.0
  7
Vcadd_SIMP
100
AcDbText
  0
TEXT
  5
61
100
AcDbEntity
  8
0
370
    15
390
0
  6
Continuous
 62
     7
100
AcDbText
 10
20.595171
 20
18.407154
 30
0.0
 40
0.065844
  1
CHK 
 50
270.0
  7
Vcadd_SIMP
100
AcDbText
  0
TEXT
  5
62
100
AcDbEntity
  8
0
370
    15
390
0
  6
Continuous
 62
     7
100
AcDbText
 10
20.595502
 20
18.158126
 30
0.0
 40
0.065844
  1
REL
 50
270.0
  7
Vcadd_SIMP
100
AcDbText
  0
TEXT
  5
63
100
AcDbEntity
  8
0
370
    15
390
0
  6
Continuous
 62
     7
100
AcDbText
 10
21.819447
 20
17.62115
 30
0.0
 40
0.062
  1
UNLESS
 50
270.0
  7
Vcadd_SIMP
100
AcDbText
  0
TEXT
  5
64
100
AcDbEntity
  8
0
370
    15
390
0
  6
Continuous
 62
     7
100
AcDbText
 10
21.715691
 20
17.711575
 30
0.0
 40
0.062
  1
OTHERWISE
 50
270.0
  7
Vcadd_SIMP
100
AcDbText
  0
TEXT
  5
65
100
AcDbEntity
  8
0
370
    15
390
0
  6
Continuous
 62
     7
100
AcDbText
 10
21.603629
 20
17.709423
 30
0.0
 40
0.062
  1
SPECIFIED
 50
270.0
  7
Vcadd_SIMP
100
AcDbText
  0
TEXT
  5
66
100
AcDbEntity
  8
0
370
    15
390
0
  6
Continuous
 62
     7
100
AcDbText
 10
21.806608
 20
16.89993
 30
0.0
 40
0.062
  1
TITLE
 50
270.0
  7
Vcadd_SIMP
100
AcDbText
  0
TEXT
  5
67
100
AcDbEntity
  8
0
370
    15
390
0
  6
Continuous
 62
     7
100
AcDbText
 10
21.806639
 20
13.89874
 30
0.0
 40
0.062
  1
REVISION
 50
270.0
  7
Vcadd_SIMP
100
AcDbText
  0
TEXT
  5
68
100
AcDbEntity
  8
0
370
    15
390
0
  6
Continuous
 62
     7
100
AcDbText
 10
21.386498
 20
16.908446
 30
0.0
 40
0.062
  1
SCALE
 50
270.0
  7
Vcadd_SIMP
100
AcDbText
  0
TEXT
  5
69
100
AcDbEntity
  8
0
370
    15
390
0
  6
Continuous
 62
     7
100
AcDbText
 10
21.386498
 20
16.908446
 30
0.0
 40
0.062
  1
      REF.                
 50
270.0
  7
Vcadd_SIMP
100
AcDbText
  0
TEXT
  5
6A
100
AcDbEntity
  8
0
370
    15
390
0
  6
Continuous
 62
     7
100
AcDbText
 10
21.386498
 20
15.274666
 30
0.0
 40
0.062
  1
MATERIAL
 50
270.0
  7
Vcadd_SIMP
100
AcDbText
  0
TEXT
  5
6B
100
AcDbEntity
  8
0
370
    15
390
0
  6
Continuous
 62
     7
100
AcDbText
 10
21.019144
 20
16.90338
 30
0.0
 40
0.062
  1
DRAWN    
 50
270.0
  7
Vcadd_SIMP
100
AcDbText
  0
TEXT
  5
6C
100
AcDbEntity
  8
0
370
    15
390
0
  6
Continuous
 62
     7
100
AcDbText
 10
21.019144
 20
16.367692
 30
0.0
 40
0.062
  1
CHECK 
 50
270.0
  7
Vcadd_SIMP
100
AcDbText
  0
TEXT
  5
6D
100
AcDbEntity
  8
0
370
    15
390
0
  6
Continuous
 62
     7
100
AcDbText
 10
21.019144
 20
15.826937
 30
0.0
 40
0.062
  1
RELEASE
 50
270.0
  7
Vcadd_SIMP
100
AcDbText
  0
TEXT
  5
6E
100
AcDbEntity
  8
0
370
    15
390
0
  6
Continuous
 62
     7
100
AcDbText
 10
20.729925
 20
16.897348
 30
0.0
 40
0.062
  1
DATE     
 50
270.0
  7
Vcadd_SIMP
100
AcDbText
  0
TEXT
  5
6F
100
AcDbEntity
  8
0
370
    15
390
0
  6
Continuous
 62
     7
100
AcDbText
 10
20.729925
 20
16.36166
 30
0.0
 40
0.062
  1
DATE  
 50
270.0
  7
Vcadd_SIMP
100
AcDbText
  0
TEXT
  5
70
100
AcDbEntity
  8
0
370
    15
390
0
  6
Continuous
 62
     7
100
AcDbText
 10
20.729925
 20
15.820905
 30
0.0
 40
0.062
  1
DATE
 50
270.0
  7
Vcadd_SIMP
100
AcDbText
  0
TEXT
  5
71
100
AcDbEntity
  8
0
370
    15
390
0
  6
Continuous
 62
     7
100
AcDbText
 10
21.019144
 20
15.27793
 30
0.0
 40
0.062
  1
HEAT TREAT & FINISH
 50
270.0
  7
Vcadd_SIMP
100
AcDbText
  0
TEXT
  5
72
100
AcDbEntity
  8
0
370
    15
390
0
  6
Continuous
 62
     7
100
AcDbText
 10
21.806639
 20
13.712739
 30
0.0
 40
0.062
  1
      PART NO.
 50
270.0
  7
Vcadd_SIMP
100
AcDbText
  0
TEXT
  5
73
100
AcDbEntity
  8
0
370
    15
390
0
  6
Continuous
 62
     7
100
AcDbText
 10
30.435687
 20
13.911194
 30
0.0
 40
0.062
  1
REVISION PART NO.
 50
270.0
  7
Vcadd_SIMP
100
AcDbText
  0
TEXT
  5
74
100
AcDbEntity
  8
0
370
    15
390
0
  6
Continuous
 62
     7
100
AcDbText
 10
20.883141
 20
16.747258
 30
0.0
 40
0.094
  1
RG
 50
270.0
  7
Vcadd_SIMP
100
AcDbText
  0
TEXT
  5
75
100
AcDbEntity
  8
0
370
    15
390
0
  6
Continuous
 62
     7
100
AcDbText
 10
20.592906
 20
16.856042
 30
0.0
 40
0.062
  1
3-9-88 
 50
270.0
  7
Vcadd_SIMP
100
AcDbText
  0
LINE
  5
76
100
AcDbEntity
  8
4
370
    15
390
0
  6
Continuous
 62
     7
100
AcDbLine
 10
25.526062
 20
14.058896
 30
0.0
 11
25.893528
 21
14.058896
 31
0.0
  0
LINE
  5
77
100
AcDbEntity
  8
4
370
    15
390
0
  6
Continuous
 62
     7
100
AcDbLine
 10
25.893528
 20
14.058896
 30
0.0
 11
25.893528
 21
14.390483
 31
0.0
  0
LINE
  5
78
100
AcDbEntity
  8
4
370
    15
390
0
  6
Continuous
 62
     7
100
AcDbLine
 10
25.893528
 20
14.390483
 30
0.0
 11
25.526062
 21
14.390483
 31
0.0
  0
LINE
  5
79
100
AcDbEntity
  8
4
370
    15
390
0
  6
Continuous
 62
     7
100
AcDbLine
 10
25.526062
 20
14.390483
 30
0.0
 11
25.526062
 21
14.058896
 31
0.0
  0
CIRCLE
  5
7A
100
AcDbEntity
  8
4
370
    15
390
0
  6
Continuous
 62
     7
100
AcDbCircle
 10
25.709795
 20
14.22469
 30
0.0
 40
0.129336
  0
CIRCLE
  5
7B
100
AcDbEntity
  8
4
370
    15
390
0
  6
Continuous
 62
     7
100
AcDbCircle
 10
25.709795
 20
14.22469
 30
0.0
 40
0.057001
  0
HATCH
  5
7C
100
AcDbEntity
  8
4
370
     0
390
0
  6
Continuous
 62
     7
100
AcDbHatch
 10
0.0
 20
0.0
 30
0.0
210
0.0
220
0.0
230
1.0
  2
SOLID
 70
     1
 71
     0
 91
        1
 92
        1
 93
        1
 72
     2
 10
25.709795284156751
 20
14.224689800473254
 40
0.0570005946738661
 50
0.0
 51
359.999994
 73
     1
 97
        0
 75
     0
 76
     1
 98
        1
 10
0.0
 20
0.0
  0
LINE
  5
7D
100
AcDbEntity
  8
4
370
    15
390
0
  6
Continuous
 62
     7
100
AcDbLine
 10
25.893528
 20
14.390483
 30
0.0
 11
26.877115
 21
14.390483
 31
0.0
  0
LINE
  5
7E
100
AcDbEntity
  8
4
370
    15
390
0
  6
Continuous
 62
     7
100
AcDbLine
 10
25.893528
 20
14.058896
 30
0.0
 11
26.877115
 21
14.058896
 31
0.0
  0
LINE
  5
7F
100
AcDbEntity
  8
4
370
    15
390
0
  6
Continuous
 62
     7
100
AcDbLine
 10
26.877115
 20
14.390483
 30
0.0
 11
26.877115
 21
14.058896
 31
0.0
  0
LINE
  5
80
100
AcDbEntity
  8
4
370
    15
390
0
  6
Continuous
 62
     7
100
AcDbLine
 10
26.877115
 20
14.058896
 30
0.0
 11
27.24458
 21
14.058896
 31
0.0
  0
LINE
  5
81
100
AcDbEntity
  8
4
370
    15
390
0
  6
Continuous
 62
     7
100
AcDbLine
 10
27.24458
 20
14.058896
 30
0.0
 11
27.24458
 21
14.390483
 31
0.0
  0
LINE
  5
82
100
AcDbEntity
  8
4
370
    15
390
0
  6
Continuous
 62
     7
100
AcDbLine
 10
27.24458
 20
14.390483
 30
0.0
 11
26.877115
 21
14.390483
 31
0.0
  0
TEXT
  5
83
100
AcDbEntity
  8
4
370
    15
390
0
  6
Continuous
 62
     7
100
AcDbText
 10
26.923725
 20
14.097101
 30
0.0
 40
0.24
  1
A
  7
Vcadd_SIMP
 72
     1
 11
27.061725
 21
14.097101
 31
0.0
100
AcDbText
  0
TEXT
  5
84
100
AcDbEntity
  8
0
370
    15
390
0
  6
Continuous
 62
     7
100
AcDbText
 10
21.225166
 20
16.423176
 30
0.0
 40
0.12
  1
SERIES 3
 50
270.0
  7
Vcadd_SIMP
100
AcDbText
  0
TEXT
  5
85
100
AcDbEntity
  8
0
370
    15
390
0
  6
Continuous
 62
     7
100
AcDbText
 10
21.205623
 20
16.890268
 30
0.0
 40
0.094
  1
1:1
 50
270.0
  7
Vcadd_SIMP
100
AcDbText
  0
TEXT
  5
86
100
AcDbEntity
  8
4
370
    15
390
0
  6
Continuous
 62
     7
100
AcDbText
 10
25.806674
 20
14.105754
 30
0.0
 40
0.24
  1
0,05
  7
Vcadd_SIMP
 72
     1
 11
26.358674
 21
14.105754
 31
0.0
100
AcDbText
  0
LINE
  5
87
100
AcDbEntity
  8
0
370
    15
390
0
  6
Continuous
 62
     7
100
AcDbLine
 10
21.331087
 20
19.188275
 30
0.0
 11
21.331087
 21
21.563275
 31
0.0
  0
LINE
  5
88
100
AcDbEntity
  8
1
370
    15
390
0
  6
Continuous
 62
     7
100
AcDbLine
 10
25.302232
 20
21.344254
 30
0.0
 11
25.255227
 21
21.391254
 31
0.0
  0
LINE
  5
8A
100
AcDbEntity
  8
1
370
    15
390
0
  6
CL____X1
 62
     7
100
AcDbLine
 10
25.26613
 20
21.380354
 30
0.0
 11
25.26613
 21
20.891254
 31
0.0
  0
LINE
  5
8B
100
AcDbEntity
  8
0
370
    15
390
0
  6
CL____X1
 62
     1
100
AcDbLine
 10
25.282731
 20
21.590747
 30
0.0
 11
25.221231
 21
21.626254
 31
0.0
  0
LINE
  5
8C
100
AcDbEntity
  8
0
370
    15
390
0
  6
CL____X1
 62
     1
100
AcDbLine
 10
25.282731
 20
21.590747
 30
0.0
 11
25.282731
 21
21.423255
 31
0.0
  0
LINE
  5
8D
100
AcDbEntity
  8
0
370
    15
390
0
  6
CL____X1
 62
     1
100
AcDbLine
 10
25.330728
 20
21.39554
 30
0.0
 11
25.282731
 21
21.423255
 31
0.0
  0
LINE
  5
8E
100
AcDbEntity
  8
1
370
    15
390
0
  6
Continuous
 62
     7
100
AcDbLine
 10
25.302228
 20
19.845255
 30
0.0
 11
25.302228
 21
21.344254
 31
0.0
  0
LINE
  5
8F
100
AcDbEntity
  8
0
370
    15
390
0
  6
Continuous
 62
     7
100
AcDbLine
 10
25.32573
 20
19.80455
 30
0.0
 11
25.302228
 21
19.845255
 31
0.0
  0
LINE
  5
90
100
AcDbEntity
  8
0
370
    15
390
0
  6
Continuous
 62
     7
100
AcDbLine
 10
25.32573
 20
19.80455
 30
0.0
 11
25.32573
 21
18.704256
 31
0.0
  0
LINE
  5
91
100
AcDbEntity
  8
0
370
    15
390
0
  6
Continuous
 62
     7
100
AcDbLine
 10
25.349729
 20
18.662685
 30
0.0
 11
25.32573
 21
18.704256
 31
0.0
  0
LINE
  5
92
100
AcDbEntity
  8
0
370
    15
390
0
  6
Continuous
 62
     7
100
AcDbLine
 10
25.349729
 20
18.662685
 30
0.0
 11
25.349729
 21
17.532255
 31
0.0
  0
LINE
  5
93
100
AcDbEntity
  8
0
370
    15
390
0
  6
Continuous
 62
     7
100
AcDbLine
 10
25.372731
 20
17.492418
 30
0.0
 11
25.349729
 21
17.532255
 31
0.0
  0
LINE
  5
94
100
AcDbEntity
  8
0
370
    15
390
0
  6
Continuous
 62
     7
100
AcDbLine
 10
25.372731
 20
17.492418
 30
0.0
 11
25.372731
 21
17.069253
 31
0.0
  0
LINE
  5
95
100
AcDbEntity
  8
0
370
    15
390
0
  6
CL____X1
 62
     1
100
AcDbLine
 10
25.330728
 20
19.907254
 30
0.0
 11
25.330728
 21
21.39554
 31
0.0
  0
LINE
  5
96
100
AcDbEntity
  8
0
370
    15
390
0
  6
CL____X1
 62
     1
100
AcDbLine
 10
25.355229
 20
19.893108
 30
0.0
 11
25.330728
 21
19.907254
 31
0.0
  0
LINE
  5
97
100
AcDbEntity
  8
0
370
    15
390
0
  6
CL____X1
 62
     1
100
AcDbLine
 10
25.355229
 20
19.893108
 30
0.0
 11
25.355229
 21
18.751253
 31
0.0
  0
LINE
  5
98
100
AcDbEntity
  8
0
370
    15
390
0
  6
CL____X1
 62
     1
100
AcDbLine
 10
25.377728
 20
18.738264
 30
0.0
 11
25.355229
 21
18.751253
 31
0.0
  0
LINE
  5
99
100
AcDbEntity
  8
0
370
    15
390
0
  6
CL____X1
 62
     1
100
AcDbLine
 10
25.377728
 20
18.738264
 30
0.0
 11
25.377728
 21
17.595255
 31
0.0
  0
LINE
  5
9A
100
AcDbEntity
  8
0
370
    15
390
0
  6
CL____X1
 62
     1
100
AcDbLine
 10
25.40273
 20
17.58082
 30
0.0
 11
25.40273
 21
17.157255
 31
0.0
  0
LINE
  5
9B
100
AcDbEntity
  8
0
370
    15
390
0
  6
CL____X1
 62
     1
100
AcDbLine
 10
25.40273
 20
17.58082
 30
0.0
 11
25.377728
 21
17.595255
 31
0.0
  0
LINE
  5
9C
100
AcDbEntity
  8
1
370
    15
390
0
  6
Continuous
 62
     7
100
AcDbLine
 10
25.240731
 20
21.579255
 30
0.0
 11
25.193231
 21
21.579255
 31
0.0
  0
LINE
  5
9D
100
AcDbEntity
  8
1
370
    15
390
0
  6
Continuous
 62
     7
100
AcDbLine
 10
25.255227
 20
21.554143
 30
0.0
 11
25.255227
 21
21.391254
 31
0.0
  0
LINE
  5
9E
100
AcDbEntity
  8
0
370
    15
390
0
  6
Continuous
 62
     7
100
AcDbLine
 10
25.255227
 20
21.554143
 30
0.0
 11
25.240731
 21
21.579255
 31
0.0
  0
CIRCLE
  5
A0
100
AcDbEntity
  8
0
370
    15
390
0
  6
DIVIDE
 62
     1
100
AcDbCircle
 10
25.243596
 20
21.567256
 30
0.0
 40
0.058998
  0
LINE
  5
A1
100
AcDbEntity
  8
0
370
    15
390
0
  6
CL____X1
 62
     1
100
AcDbLine
 10
25.40273
 20
17.157255
 30
0.0
 11
25.974729
 21
16.827007
 31
0.0
  0
LINE
  5
A2
100
AcDbEntity
  8
0
370
    15
390
0
  6
Continuous
 62
     7
100
AcDbLine
 10
25.372731
 20
17.069253
 30
0.0
 11
25.55515
 21
17.069253
 31
0.0
  0
LINE
  5
A3
100
AcDbEntity
  8
1
370
    15
390
0
  6
Continuous
 62
     1
100
AcDbLine
 10
26.756228
 20
21.579255
 30
0.0
 11
26.734229
 21
21.579255
 31
0.0
  0
LINE
  5
A4
100
AcDbEntity
  8
0
370
    15
390
0
  6
Continuous
 62
     1
100
AcDbLine
 10
26.950269
 20
21.579255
 30
0.0
 11
26.950269
 21
21.548892
 31
0.0
  0
LINE
  5
A5
100
AcDbEntity
  8
0
370
    15
390
0
  6
Continuous
 62
     1
100
AcDbLine
 10
26.950269
 20
21.548892
 30
0.0
 11
26.935401
 21
21.51669
 31
0.0
  0
LINE
  5
A6
100
AcDbEntity
  8
0
370
    15
390
0
  6
Continuous
 62
     1
100
AcDbLine
 10
26.935401
 20
21.51669
 30
0.0
 11
26.925488
 21
21.457238
 31
0.0
  0
LINE
  5
A7
100
AcDbEntity
  8
0
370
    15
390
0
  6
Continuous
 62
     1
100
AcDbLine
 10
26.925488
 20
21.457238
 30
0.0
 11
26.930445
 21
21.415128
 31
0.0
  0
LINE
  5
A8
100
AcDbEntity
  8
0
370
    15
390
0
  6
Continuous
 62
     1
100
AcDbLine
 10
26.930445
 20
21.415128
 30
0.0
 11
26.935401
 21
21.36063
 31
0.0
  0
LINE
  5
A9
100
AcDbEntity
  8
0
370
    15
390
0
  6
Continuous
 62
     1
100
AcDbLine
 10
26.935401
 20
21.36063
 30
0.0
 11
26.937879
 21
21.311087
 31
0.0
  0
ARC
  5
AA
100
AcDbEntity
  8
12
370
    15
390
0
  6
Continuous
 62
     7
100
AcDbCircle
 10
26.622341
 20
21.419538
 30
0.0
 40
0.009999
100
AcDbArc
 50
90.0
 51
180.005193
  0
ARC
  5
AB
100
AcDbEntity
  8
12
370
    15
390
0
  6
Continuous
 62
     7
100
AcDbCircle
 10
26.681632
 20
21.419542
 30
0.0
 40
0.009996
100
AcDbArc
 50
359.976155
 51
450.023845
  0
LINE
  5
AC
100
AcDbEntity
  8
12
370
    15
390
0
  6
Continuous
 62
     7
100
AcDbLine
 10
26.691628
 20
21.376535
 30
0.0
 11
26.691628
 21
21.419538
 31
0.0
  0
ARC
  5
AD
100
AcDbEntity
  8
12
370
    15
390
0
  6
Continuous
 62
     7
100
AcDbCircle
 10
26.622341
 20
21.419538
 30
0.0
 40
0.009999
100
AcDbArc
 50
90.0
 51
180.005193
  0
LINE
  5
AE
100
AcDbEntity
  8
1
370
    15
390
0
  6
Continuous
 62
     1
100
AcDbLine
 10
26.647229
 20
19.845255
 30
0.0
 11
26.647229
 21
21.344254
 31
0.0
  0
LINE
  5
AF
100
AcDbEntity
  8
0
370
    15
390
0
  6
Continuous
 62
     1
100
AcDbLine
 10
26.623729
 20
19.80455
 30
0.0
 11
26.647229
 21
19.845255
 31
0.0
  0
LINE
  5
B0
100
AcDbEntity
  8
0
370
    15
390
0
  6
Continuous
 62
     1
100
AcDbLine
 10
26.623729
 20
19.804548
 30
0.0
 11
26.623729
 21
18.704256
 31
0.0
  0
LINE
  5
B1
100
AcDbEntity
  8
0
370
    15
390
0
  6
Continuous
 62
     1
100
AcDbLine
 10
26.599729
 20
18.662685
 30
0.0
 11
26.623729
 21
18.704256
 31
0.0
  0
LINE
  5
B2
100
AcDbEntity
  8
0
370
    15
390
0
  6
Continuous
 62
     1
100
AcDbLine
 10
26.599729
 20
18.662687
 30
0.0
 11
26.599729
 21
17.532255
 31
0.0
  0
LINE
  5
B3
100
AcDbEntity
  8
0
370
    15
390
0
  6
Continuous
 62
     1
100
AcDbLine
 10
26.576729
 20
17.492418
 30
0.0
 11
26.599729
 21
17.532255
 31
0.0
  0
LINE
  5
B4
100
AcDbEntity
  8
0
370
    15
390
0
  6
Continuous
 62
     1
100
AcDbLine
 10
26.576729
 20
17.492418
 30
0.0
 11
26.576729
 21
17.069253
 31
0.0
  0
LINE
  5
B5
100
AcDbEntity
  8
0
370
    15
390
0
  6
Continuous
 62
     1
100
AcDbLine
 10
26.937879
 20
21.311087
 30
0.0
 11
26.947122
 21
21.135649
 31
0.0
  0
LINE
  5
B6
100
AcDbEntity
  8
0
370
    15
390
0
  6
Continuous
 62
     1
100
AcDbLine
 10
26.947122
 20
21.135649
 30
0.0
 11
26.905481
 21
20.927514
 31
0.0
  0
LINE
  5
B7
100
AcDbEntity
  8
0
370
    15
390
0
  6
Continuous
 62
     1
100
AcDbLine
 10
26.905481
 20
20.927514
 30
0.0
 11
26.874251
 21
20.81304
 31
0.0
  0
LINE
  5
B8
100
AcDbEntity
  8
0
370
    15
390
0
  6
Continuous
 62
     1
100
AcDbLine
 10
26.874251
 20
20.81304
 30
0.0
 11
26.863841
 21
20.656939
 31
0.0
  0
LINE
  5
B9
100
AcDbEntity
  8
0
370
    15
390
0
  6
Continuous
 62
     1
100
AcDbLine
 10
26.863841
 20
20.656939
 30
0.0
 11
26.84302
 21
20.500837
 31
0.0
  0
LINE
  5
BA
100
AcDbEntity
  8
0
370
    15
390
0
  6
Continuous
 62
     1
100
AcDbLine
 10
26.84302
 20
20.500837
 30
0.0
 11
26.863841
 21
20.375956
 31
0.0
  0
LINE
  5
BB
100
AcDbEntity
  8
0
370
    15
390
0
  6
Continuous
 62
     1
100
AcDbLine
 10
26.863841
 20
20.375956
 30
0.0
 11
26.863841
 21
20.178227
 31
0.0
  0
LINE
  5
BC
100
AcDbEntity
  8
0
370
    15
390
0
  6
Continuous
 62
     1
100
AcDbLine
 10
26.863841
 20
20.178227
 30
0.0
 11
26.863841
 21
20.032534
 31
0.0
  0
LINE
  5
BD
100
AcDbEntity
  8
0
370
    15
390
0
  6
Continuous
 62
     1
100
AcDbLine
 10
26.863841
 20
20.032534
 30
0.0
 11
26.853431
 21
19.772364
 31
0.0
  0
LINE
  5
BE
100
AcDbEntity
  8
0
370
    15
390
0
  6
Continuous
 62
     1
100
AcDbLine
 10
26.853431
 20
19.772364
 30
0.0
 11
26.853431
 21
19.647482
 31
0.0
  0
LINE
  5
BF
100
AcDbEntity
  8
0
370
    15
390
0
  6
Continuous
 62
     1
100
AcDbLine
 10
26.853431
 20
19.647482
 30
0.0
 11
26.863841
 21
19.543417
 31
0.0
  0
LINE
  5
C0
100
AcDbEntity
  8
0
370
    15
390
0
  6
Continuous
 62
     1
100
AcDbLine
 10
26.863841
 20
19.543417
 30
0.0
 11
26.895072
 21
19.30406
 31
0.0
  0
LINE
  5
C1
100
AcDbEntity
  8
0
370
    15
390
0
  6
Continuous
 62
     1
100
AcDbLine
 10
26.895072
 20
19.30406
 30
0.0
 11
26.874251
 21
19.106333
 31
0.0
  0
LINE
  5
C2
100
AcDbEntity
  8
0
370
    15
390
0
  6
Continuous
 62
     1
100
AcDbLine
 10
26.874251
 20
19.106333
 30
0.0
 11
26.84302
 21
18.898197
 31
0.0
  0
LINE
  5
C3
100
AcDbEntity
  8
0
370
    15
390
0
  6
Continuous
 62
     1
100
AcDbLine
 10
26.84302
 20
18.898197
 30
0.0
 11
26.8222
 21
18.783724
 31
0.0
  0
LINE
  5
C4
100
AcDbEntity
  8
0
370
    15
390
0
  6
Continuous
 62
     1
100
AcDbLine
 10
26.8222
 20
18.783724
 30
0.0
 11
26.8222
 21
18.648436
 31
0.0
  0
LINE
  5
C5
100
AcDbEntity
  8
0
370
    15
390
0
  6
Continuous
 62
     1
100
AcDbLine
 10
26.8222
 20
18.648436
 30
0.0
 11
26.83261
 21
18.492334
 31
0.0
  0
LINE
  5
C6
100
AcDbEntity
  8
0
370
    15
390
0
  6
Continuous
 62
     1
100
AcDbLine
 10
26.83261
 20
18.492334
 30
0.0
 11
26.84302
 21
18.357046
 31
0.0
  0
LINE
  5
C7
100
AcDbEntity
  8
0
370
    15
390
0
  6
Continuous
 62
     1
100
AcDbLine
 10
26.84302
 20
18.357046
 30
0.0
 11
26.874251
 21
18.242571
 31
0.0
  0
LINE
  5
C8
100
AcDbEntity
  8
0
370
    15
390
0
  6
Continuous
 62
     1
100
AcDbLine
 10
26.874251
 20
18.242571
 30
0.0
 11
26.874251
 21
18.096876
 31
0.0
  0
LINE
  5
C9
100
AcDbEntity
  8
0
370
    15
390
0
  6
Continuous
 62
     1
100
AcDbLine
 10
26.874251
 20
18.096876
 30
0.0
 11
26.863841
 21
17.857523
 31
0.0
  0
LINE
  5
CA
100
AcDbEntity
  8
0
370
    15
390
0
  6
Continuous
 62
     1
100
AcDbLine
 10
26.863841
 20
17.857523
 30
0.0
 11
26.863841
 21
17.763861
 31
0.0
  0
LINE
  5
CB
100
AcDbEntity
  8
0
370
    15
390
0
  6
Continuous
 62
     1
100
AcDbLine
 10
26.863841
 20
17.763861
 30
0.0
 11
26.83261
 21
17.638979
 31
0.0
  0
LINE
  5
CC
100
AcDbEntity
  8
0
370
    15
390
0
  6
Continuous
 62
     1
100
AcDbLine
 10
26.83261
 20
17.638979
 30
0.0
 11
26.83261
 21
17.514097
 31
0.0
  0
LINE
  5
CD
100
AcDbEntity
  8
0
370
    15
390
0
  6
Continuous
 62
     1
100
AcDbLine
 10
26.83261
 20
17.514097
 30
0.0
 11
26.853431
 21
17.420438
 31
0.0
  0
LINE
  5
CE
100
AcDbEntity
  8
0
370
    15
390
0
  6
Continuous
 62
     1
100
AcDbLine
 10
26.853431
 20
17.420438
 30
0.0
 11
26.84302
 21
17.31637
 31
0.0
  0
LINE
  5
CF
100
AcDbEntity
  8
0
370
    15
390
0
  6
Continuous
 62
     1
100
AcDbLine
 10
26.84302
 20
17.31637
 30
0.0
 11
26.84302
 21
17.191488
 31
0.0
  0
LINE
  5
D0
100
AcDbEntity
  8
0
370
    15
390
0
  6
Continuous
 62
     1
100
AcDbLine
 10
26.84302
 20
17.191488
 30
0.0
 11
26.84302
 21
17.118642
 31
0.0
  0
LINE
  5
D1
100
AcDbEntity
  8
0
370
    15
390
0
  6
Continuous
 62
     1
100
AcDbLine
 10
26.84302
 20
17.118642
 30
0.0
 11
26.8222
 21
17.014574
 31
0.0
  0
LINE
  5
D2
100
AcDbEntity
  8
0
370
    15
390
0
  6
Continuous
 62
     1
100
AcDbLine
 10
26.8222
 20
17.014574
 30
0.0
 11
26.81179
 21
16.900098
 31
0.0
  0
LINE
  5
D3
100
AcDbEntity
  8
0
370
    15
390
0
  6
Continuous
 62
     1
100
AcDbLine
 10
26.856948
 20
19.860254
 30
0.0
 11
26.647229
 21
19.860254
 31
0.0
  0
LINE
  5
D4
100
AcDbEntity
  8
0
370
    15
390
0
  6
Continuous
 62
     1
100
AcDbLine
 10
26.877563
 20
19.438253
 30
0.0
 11
26.623729
 21
19.438253
 31
0.0
  0
LINE
  5
D5
100
AcDbEntity
  8
0
370
    15
390
0
  6
Continuous
 62
     1
100
AcDbLine
 10
26.8222
 20
18.720255
 30
0.0
 11
26.623729
 21
18.720255
 31
0.0
  0
LINE
  5
D6
100
AcDbEntity
  8
0
370
    15
390
0
  6
Continuous
 62
     1
100
AcDbLine
 10
26.86779
 20
18.266254
 30
0.0
 11
26.599729
 21
18.266254
 31
0.0
  0
LINE
  5
D7
100
AcDbEntity
  8
0
370
    15
390
0
  6
Continuous
 62
     1
100
AcDbLine
 10
26.83261
 20
17.548254
 30
0.0
 11
26.599729
 21
17.548254
 31
0.0
  0
LINE
  5
D8
100
AcDbEntity
  8
0
370
    15
390
0
  6
Continuous
 62
     1
100
AcDbLine
 10
26.647229
 20
20.982635
 30
0.0
 11
26.939771
 21
21.275175
 31
0.0
  0
LINE
  5
D9
100
AcDbEntity
  8
0
370
    15
390
0
  6
Continuous
 62
     1
100
AcDbLine
 10
26.647229
 20
21.071022
 30
0.0
 11
26.93547
 21
21.359262
 31
0.0
  0
LINE
  5
DA
100
AcDbEntity
  8
0
370
    15
390
0
  6
Continuous
 62
     1
100
AcDbLine
 10
26.647229
 20
21.15941
 30
0.0
 11
26.927549
 21
21.439733
 31
0.0
  0
LINE
  5
DB
100
AcDbEntity
  8
0
370
    15
390
0
  6
Continuous
 62
     1
100
AcDbLine
 10
26.647229
 20
21.247799
 30
0.0
 11
26.950269
 21
21.550839
 31
0.0
  0
LINE
  5
DC
100
AcDbEntity
  8
0
370
    15
390
0
  6
Continuous
 62
     1
100
AcDbLine
 10
26.647229
 20
21.336187
 30
0.0
 11
26.921295
 21
21.610255
 31
0.0
  0
LINE
  5
DD
100
AcDbEntity
  8
0
370
    15
390
0
  6
Continuous
 62
     1
100
AcDbLine
 10
26.789039
 20
19.438253
 30
0.0
 11
26.867345
 21
19.516561
 31
0.0
  0
LINE
  5
DE
100
AcDbEntity
  8
0
370
    15
390
0
  6
Continuous
 62
     1
100
AcDbLine
 10
26.70065
 20
19.438253
 30
0.0
 11
26.858564
 21
19.596167
 31
0.0
  0
LINE
  5
DF
100
AcDbEntity
  8
0
370
    15
390
0
  6
Continuous
 62
     1
100
AcDbLine
 10
26.623729
 20
19.44972
 30
0.0
 11
26.853431
 21
19.679422
 31
0.0
  0
LINE
  5
E0
100
AcDbEntity
  8
0
370
    15
390
0
  6
Continuous
 62
     1
100
AcDbLine
 10
26.623729
 20
19.538109
 30
0.0
 11
26.853431
 21
19.767811
 31
0.0
  0
LINE
  5
E1
100
AcDbEntity
  8
0
370
    15
390
0
  6
Continuous
 62
     1
100
AcDbLine
 10
26.623729
 20
19.626497
 30
0.0
 11
26.856925
 21
19.859694
 31
0.0
  0
LINE
  5
E2
100
AcDbEntity
  8
0
370
    15
390
0
  6
Continuous
 62
     1
100
AcDbLine
 10
26.623729
 20
19.714886
 30
0.0
 11
26.769097
 21
19.860254
 31
0.0
  0
LINE
  5
E3
100
AcDbEntity
  8
0
370
    15
390
0
  6
Continuous
 62
     1
100
AcDbLine
 10
26.623729
 20
19.803274
 30
0.0
 11
26.680709
 21
19.860254
 31
0.0
  0
LINE
  5
E4
100
AcDbEntity
  8
0
370
    15
390
0
  6
Continuous
 62
     1
100
AcDbLine
 10
26.599729
 20
18.64496
 30
0.0
 11
26.675022
 21
18.720255
 31
0.0
  0
LINE
  5
E5
100
AcDbEntity
  8
0
370
    15
390
0
  6
Continuous
 62
     1
100
AcDbLine
 10
26.599729
 20
18.556574
 30
0.0
 11
26.763411
 21
18.720255
 31
0.0
  0
LINE
  5
E6
100
AcDbEntity
  8
0
370
    15
390
0
  6
Continuous
 62
     1
100
AcDbLine
 10
26.599729
 20
18.468183
 30
0.0
 11
26.8222
 21
18.690657
 31
0.0
  0
LINE
  5
E7
100
AcDbEntity
  8
0
370
    15
390
0
  6
Continuous
 62
     1
100
AcDbLine
 10
26.599729
 20
18.379797
 30
0.0
 11
26.825087
 21
18.605154
 31
0.0
  0
LINE
  5
E8
100
AcDbEntity
  8
0
370
    15
390
0
  6
Continuous
 62
     1
100
AcDbLine
 10
26.599729
 20
18.291407
 30
0.0
 11
26.830613
 21
18.522291
 31
0.0
  0
LINE
  5
E9
100
AcDbEntity
  8
0
370
    15
390
0
  6
Continuous
 62
     1
100
AcDbLine
 10
26.662965
 20
18.266254
 30
0.0
 11
26.836643
 21
18.439932
 31
0.0
  0
LINE
  5
EA
100
AcDbEntity
  8
0
370
    15
390
0
  6
Continuous
 62
     1
100
AcDbLine
 10
26.751353
 20
18.266254
 30
0.0
 11
26.842958
 21
18.357859
 31
0.0
  0
LINE
  5
EB
100
AcDbEntity
  8
0
370
    15
390
0
  6
Continuous
 62
     1
100
AcDbLine
 10
26.839742
 20
18.266254
 30
0.0
 11
26.861778
 21
18.28829
 31
0.0
  0
LINE
  5
EC
100
AcDbEntity
  8
0
370
    15
390
0
  6
Continuous
 62
     1
100
AcDbLine
 10
26.730089
 20
20.391253
 30
0.0
 11
26.775899
 21
20.391253
 31
0.0
  0
LINE
  5
ED
100
AcDbEntity
  8
0
370
    15
390
0
  6
Continuous
 62
     1
100
AcDbLine
 10
26.798802
 20
19.079256
 30
0.0
 11
26.999173
 21
19.079254
 31
0.0
  0
LINE
  5
EE
100
AcDbEntity
  8
0
370
    15
390
0
  6
Continuous
 62
     1
100
AcDbLine
 10
26.726272
 20
19.079254
 30
0.0
 11
26.768264
 21
19.079256
 31
0.0
  0
LINE
  5
EF
100
AcDbEntity
  8
0
370
    15
390
0
  6
Continuous
 62
     1
100
AcDbLine
 10
26.722455
 20
17.907255
 30
0.0
 11
26.768264
 21
17.907255
 31
0.0
  0
LINE
  5
F0
100
AcDbEntity
  8
2
370
    15
390
0
  6
Continuous
 62
     7
100
AcDbLine
 10
26.621228
 20
19.733252
 30
0.0
 11
26.621228
 21
19.823252
 31
0.0
  0
LINE
  5
F1
100
AcDbEntity
  8
2
370
    15
390
0
  6
Continuous
 62
     7
100
AcDbLine
 10
26.621228
 20
19.733252
 30
0.0
 11
26.533227
 21
19.733252
 31
0.0
  0
LINE
  5
F2
100
AcDbEntity
  8
2
370
    15
390
0
  6
Continuous
 62
     7
100
AcDbLine
 10
26.533227
 20
19.733252
 30
0.0
 11
26.533227
 21
19.496252
 31
0.0
  0
LINE
  5
F3
100
AcDbEntity
  8
2
370
    15
390
0
  6
Continuous
 62
     7
100
AcDbLine
 10
26.533227
 20
19.496252
 30
0.0
 11
26.620729
 21
19.496252
 31
0.0
  0
LINE
  5
F4
100
AcDbEntity
  8
2
370
    15
390
0
  6
Continuous
 62
     7
100
AcDbLine
 10
26.620729
 20
19.496252
 30
0.0
 11
26.620729
 21
19.406252
 31
0.0
  0
LINE
  5
F5
100
AcDbEntity
  8
2
370
    15
390
0
  6
Continuous
 62
     7
100
AcDbLine
 10
26.598229
 20
18.583254
 30
0.0
 11
26.598229
 21
18.673254
 31
0.0
  0
LINE
  5
F6
100
AcDbEntity
  8
2
370
    15
390
0
  6
Continuous
 62
     7
100
AcDbLine
 10
26.598229
 20
18.583254
 30
0.0
 11
26.510728
 21
18.583254
 31
0.0
  0
LINE
  5
F7
100
AcDbEntity
  8
2
370
    15
390
0
  6
Continuous
 62
     7
100
AcDbLine
 10
26.598229
 20
18.346251
 30
0.0
 11
26.598229
 21
18.25625
 31
0.0
  0
LINE
  5
F8
100
AcDbEntity
  8
2
370
    15
390
0
  6
Continuous
 62
     7
100
AcDbLine
 10
26.574731
 20
17.17925
 30
0.0
 11
26.487229
 21
17.17925
 31
0.0
  0
LINE
  5
F9
100
AcDbEntity
  8
2
370
    15
390
0
  6
Continuous
 62
     7
100
AcDbLine
 10
26.487229
 20
17.17925
 30
0.0
 11
26.487229
 21
17.416254
 31
0.0
  0
LINE
  5
FA
100
AcDbEntity
  8
2
370
    15
390
0
  6
Continuous
 62
     7
100
AcDbLine
 10
26.487229
 20
17.416254
 30
0.0
 11
26.574731
 21
17.416254
 31
0.0
  0
LINE
  5
FB
100
AcDbEntity
  8
2
370
    15
390
0
  6
Continuous
 62
     7
100
AcDbLine
 10
26.574731
 20
17.416254
 30
0.0
 11
26.574731
 21
17.506254
 31
0.0
  0
LINE
  5
FC
100
AcDbEntity
  8
2
370
    15
390
0
  6
Continuous
 62
     7
100
AcDbLine
 10
26.621228
 20
19.823252
 30
0.0
 11
26.598729
 21
19.823252
 31
0.0
  0
ARC
  5
FD
100
AcDbEntity
  8
2
370
    15
390
0
  6
Continuous
 62
     7
100
AcDbCircle
 10
26.598734
 20
19.886256
 30
0.0
 40
0.063005
100
AcDbArc
 50
180.003497
 51
269.995635
  0
LINE
  5
FE
100
AcDbEntity
  8
2
370
    15
390
0
  6
Continuous
 62
     7
100
AcDbLine
 10
26.535729
 20
20.146951
 30
0.0
 11
26.535729
 21
19.886252
 31
0.0
  0
ARC
  5
FF
100
AcDbEntity
  8
2
370
    15
390
0
  6
Continuous
 62
     7
100
AcDbCircle
 10
26.581732
 20
19.343247
 30
0.0
 40
0.063005
100
AcDbArc
 50
90.004365
 51
179.995635
  0
LINE
  5
100
100
AcDbEntity
  8
2
370
    15
390
0
  6
Continuous
 62
     7
100
AcDbLine
 10
26.620729
 20
19.406252
 30
0.0
 11
26.581727
 21
19.406252
 31
0.0
  0
LINE
  5
101
100
AcDbEntity
  8
2
370
    15
390
0
  6
Continuous
 62
     7
100
AcDbLine
 10
26.598229
 20
18.673254
 30
0.0
 11
26.581727
 21
18.673254
 31
0.0
  0
ARC
  5
102
100
AcDbEntity
  8
2
370
    15
390
0
  6
Continuous
 62
     7
100
AcDbCircle
 10
26.581732
 20
18.736259
 30
0.0
 40
0.063005
100
AcDbArc
 50
180.004365
 51
269.995635
  0
LINE
  5
103
100
AcDbEntity
  8
2
370
    15
390
0
  6
Continuous
 62
     7
100
AcDbLine
 10
26.598229
 20
18.25625
 30
0.0
 11
26.581727
 21
18.25625
 31
0.0
  0
ARC
  5
104
100
AcDbEntity
  8
2
370
    15
390
0
  6
Continuous
 62
     7
100
AcDbCircle
 10
26.581732
 20
18.193246
 30
0.0
 40
0.063005
100
AcDbArc
 50
90.004365
 51
179.995635
  0
LINE
  5
105
100
AcDbEntity
  8
2
370
    15
390
0
  6
Continuous
 62
     7
100
AcDbLine
 10
26.574731
 20
17.506254
 30
0.0
 11
26.574727
 21
17.506254
 31
0.0
  0
ARC
  5
106
100
AcDbEntity
  8
2
370
    15
390
0
  6
Continuous
 62
     7
100
AcDbCircle
 10
26.574725
 20
17.562252
 30
0.0
 40
0.055998
100
AcDbArc
 50
179.997702
 51
270.002298
  0
LINE
  5
107
100
AcDbEntity
  8
2
370
    15
390
0
  6
Continuous
 62
     7
100
AcDbLine
 10
26.518727
 20
18.193251
 30
0.0
 11
26.518727
 21
17.562254
 31
0.0
  0
LINE
  5
108
100
AcDbEntity
  8
2
370
    15
390
0
  6
Continuous
 62
     7
100
AcDbLine
 10
26.574731
 20
17.17925
 30
0.0
 11
26.574731
 21
17.087251
 31
0.0
  0
ELLIPSE
  5
109
100
AcDbEntity
  8
2
370
    15
390
0
  6
Continuous
 62
     7
100
AcDbEllipse
 10
26.445848
 20
17.768253
 30
0.0
 11
0.0
 21
-0.1169986724853516
 31
0.0
210
0.0
220
0.0
230
1.0
 40
0.566538
 41
0.0
 42
6.2831853071795862
  0
LINE
  5
10A
100
AcDbEntity
  8
2
370
    15
390
0
  6
Continuous
 62
     7
100
AcDbLine
 10
26.429269
 20
17.768251
 30
0.0
 11
26.462426
 21
17.768251
 31
0.0
  0
LINE
  5
10B
100
AcDbEntity
  8
2
370
    15
390
0
  6
Continuous
 62
     7
100
AcDbLine
 10
26.445848
 20
17.78483
 30
0.0
 11
26.445848
 21
17.751673
 31
0.0
  0
LINE
  5
10C
100
AcDbEntity
  8
2
370
    15
390
0
  6
Continuous
 62
     7
100
AcDbLine
 10
26.485177
 20
17.768251
 30
0.0
 11
26.520791
 21
17.768251
 31
0.0
  0
LINE
  5
10D
100
AcDbEntity
  8
2
370
    15
390
0
  6
Continuous
 62
     7
100
AcDbLine
 10
26.406522
 20
17.768251
 30
0.0
 11
26.370908
 21
17.768251
 31
0.0
  0
LINE
  5
10E
100
AcDbEntity
  8
2
370
    15
390
0
  6
Continuous
 62
     7
100
AcDbLine
 10
26.445848
 20
17.898424
 30
0.0
 11
26.445848
 21
17.807581
 31
0.0
  0
LINE
  5
10F
100
AcDbEntity
  8
2
370
    15
390
0
  6
Continuous
 62
     7
100
AcDbLine
 10
26.445848
 20
17.638082
 30
0.0
 11
26.445848
 21
17.728926
 31
0.0
  0
ELLIPSE
  5
110
100
AcDbEntity
  8
2
370
    15
390
0
  6
Continuous
 62
     7
100
AcDbEllipse
 10
26.445848
 20
20.413254
 30
0.0
 11
0.0
 21
-0.116999626159668
 31
0.0
210
0.0
220
0.0
230
1.0
 40
0.566533
 41
0.0
 42
6.2831853071795862
  0
LINE
  5
111
100
AcDbEntity
  8
2
370
    15
390
0
  6
Continuous
 62
     7
100
AcDbLine
 10
26.429269
 20
20.413253
 30
0.0
 11
26.462426
 21
20.413253
 31
0.0
  0
LINE
  5
112
100
AcDbEntity
  8
2
370
    15
390
0
  6
Continuous
 62
     7
100
AcDbLine
 10
26.445848
 20
20.429831
 30
0.0
 11
26.445848
 21
20.396674
 31
0.0
  0
LINE
  5
113
100
AcDbEntity
  8
2
370
    15
390
0
  6
Continuous
 62
     7
100
AcDbLine
 10
26.485177
 20
20.413253
 30
0.0
 11
26.520791
 21
20.413253
 31
0.0
  0
LINE
  5
114
100
AcDbEntity
  8
2
370
    15
390
0
  6
Continuous
 62
     7
100
AcDbLine
 10
26.406522
 20
20.413253
 30
0.0
 11
26.370908
 21
20.413253
 31
0.0
  0
LINE
  5
115
100
AcDbEntity
  8
2
370
    15
390
0
  6
Continuous
 62
     7
100
AcDbLine
 10
26.445848
 20
20.543426
 30
0.0
 11
26.445848
 21
20.452582
 31
0.0
  0
LINE
  5
116
100
AcDbEntity
  8
2
370
    15
390
0
  6
Continuous
 62
     7
100
AcDbLine
 10
26.445848
 20
20.283084
 30
0.0
 11
26.445848
 21
20.373927
 31
0.0
  0
LINE
  5
117
100
AcDbEntity
  8
2
370
    15
390
0
  6
Continuous
 62
     7
100
AcDbLine
 10
26.359395
 20
19.010046
 30
0.0
 11
26.359395
 21
18.944715
 31
0.0
  0
LINE
  5
118
100
AcDbEntity
  8
2
370
    15
390
0
  6
Continuous
 62
     7
100
AcDbLine
 10
26.359395
 20
19.164461
 30
0.0
 11
26.359395
 21
19.229792
 31
0.0
  0
ELLIPSE
  5
119
100
AcDbEntity
  8
2
370
    15
390
0
  6
Continuous
 62
     7
100
AcDbEllipse
 10
26.359395
 20
19.087254
 30
0.0
 11
0.0
 21
-0.1169986724853516
 31
0.0
210
0.0
220
0.0
230
1.0
 40
0.577053
 41
0.0
 42
6.2831853071795862
  0
LINE
  5
11A
100
AcDbEntity
  8
2
370
    15
390
0
  6
Continuous
 62
     7
100
AcDbLine
 10
26.331384
 20
19.087252
 30
0.0
 11
26.38741
 21
19.087252
 31
0.0
  0
LINE
  5
11B
100
AcDbEntity
  8
2
370
    15
390
0
  6
Continuous
 62
     7
100
AcDbLine
 10
26.359395
 20
19.115267
 30
0.0
 11
26.359395
 21
19.05924
 31
0.0
  0
LINE
  5
11C
100
AcDbEntity
  8
2
370
    15
390
0
  6
Continuous
 62
     7
100
AcDbLine
 10
26.447618
 20
19.087252
 30
0.0
 11
26.415803
 21
19.087252
 31
0.0
  0
LINE
  5
11D
100
AcDbEntity
  8
2
370
    15
390
0
  6
Continuous
 62
     7
100
AcDbLine
 10
26.265706
 20
19.087252
 30
0.0
 11
26.302987
 21
19.087252
 31
0.0
  0
ARC
  5
11E
100
AcDbEntity
  8
2
370
    15
390
0
  6
Continuous
 62
     7
100
AcDbCircle
 10
27.056302
 20
19.087254
 30
0.0
 40
0.550155
100
AcDbArc
 50
167.721437
 51
192.278563
  0
LINE
  5
11F
100
AcDbEntity
  8
2
370
    15
390
0
  6
Continuous
 62
     7
100
AcDbLine
 10
26.518727
 20
18.9685
 30
0.0
 11
26.518727
 21
18.736254
 31
0.0
  0
LINE
  5
120
100
AcDbEntity
  8
2
370
    15
390
0
  6
Continuous
 62
     7
100
AcDbLine
 10
26.518727
 20
19.204245
 30
0.0
 11
26.518727
 21
19.343252
 31
0.0
  0
LINE
  5
121
100
AcDbEntity
  8
0
370
    15
390
0
  6
Continuous
 62
     7
100
AcDbLine
 10
25.974729
 20
20.930617
 30
0.0
 11
25.974729
 21
20.476249
 31
0.0
  0
LINE
  5
122
100
AcDbEntity
  8
2
370
    15
390
0
  6
Continuous
 62
     7
100
AcDbLine
 10
26.56025
 20
17.072774
 30
0.0
 11
26.574731
 21
17.087251
 31
0.0
  0
LINE
  5
123
100
AcDbEntity
  8
0
370
    15
390
0
  6
Continuous
 62
     1
100
AcDbLine
 10
26.412229
 20
17.069253
 30
0.0
 11
26.576729
 21
17.069253
 31
0.0
  0
LINE
  5
124
100
AcDbEntity
  8
0
370
    15
390
0
  6
Continuous
 62
     1
100
AcDbLine
 10
26.81179
 20
16.900098
 30
0.0
 11
26.79633
 21
16.859163
 31
0.0
  0
LINE
  5
125
100
AcDbEntity
  8
0
370
    15
390
0
  6
Continuous
 62
     1
100
AcDbLine
 10
26.79633
 20
16.859163
 30
0.0
 11
26.786705
 21
16.853387
 31
0.0
  0
LINE
  5
126
100
AcDbEntity
  8
0
370
    15
390
0
  6
Continuous
 62
     1
100
AcDbLine
 10
26.786705
 20
16.853387
 30
0.0
 11
26.775155
 21
16.837991
 31
0.0
  0
LINE
  5
127
100
AcDbEntity
  8
0
370
    15
390
0
  6
Continuous
 62
     1
100
AcDbLine
 10
26.775155
 20
16.837991
 30
0.0
 11
26.755904
 21
16.822597
 31
0.0
  0
LINE
  5
128
100
AcDbEntity
  8
0
370
    15
390
0
  6
Continuous
 62
     1
100
AcDbLine
 10
26.755904
 20
16.822597
 30
0.0
 11
26.734729
 21
16.809125
 31
0.0
  0
LINE
  5
129
100
AcDbEntity
  8
0
370
    15
390
0
  6
Continuous
 62
     1
100
AcDbLine
 10
26.734729
 20
16.809125
 30
0.0
 11
26.715478
 21
16.799505
 31
0.0
  0
LINE
  5
12A
100
AcDbEntity
  8
0
370
    15
390
0
  6
Continuous
 62
     1
100
AcDbLine
 10
26.715478
 20
16.799505
 30
0.0
 11
26.696227
 21
16.795656
 31
0.0
  0
LINE
  5
12B
100
AcDbEntity
  8
0
370
    15
390
0
  6
Continuous
 62
     1
100
AcDbLine
 10
26.696227
 20
16.795656
 30
0.0
 11
26.676976
 21
16.795656
 31
0.0
  0
LINE
  5
12C
100
AcDbEntity
  8
0
370
    15
390
0
  6
Continuous
 62
     1
100
AcDbLine
 10
26.676976
 20
16.795656
 30
0.0
 11
26.655801
 21
16.797578
 31
0.0
  0
LINE
  5
12D
100
AcDbEntity
  8
0
370
    15
390
0
  6
Continuous
 62
     1
100
AcDbLine
 10
26.655801
 20
16.797578
 30
0.0
 11
26.630775
 21
16.791807
 31
0.0
  0
LINE
  5
12E
100
AcDbEntity
  8
0
370
    15
390
0
  6
Continuous
 62
     1
100
AcDbLine
 10
26.630775
 20
16.791807
 30
0.0
 11
26.603824
 21
16.787958
 31
0.0
  0
LINE
  5
12F
100
AcDbEntity
  8
0
370
    15
390
0
  6
Continuous
 62
     1
100
AcDbLine
 10
26.603824
 20
16.787958
 30
0.0
 11
26.553773
 21
16.768712
 31
0.0
  0
LINE
  5
130
100
AcDbEntity
  8
0
370
    15
390
0
  6
Continuous
 62
     1
100
AcDbLine
 10
26.553773
 20
16.768712
 30
0.0
 11
26.521047
 21
16.757165
 31
0.0
  0
LINE
  5
131
100
AcDbEntity
  8
0
370
    15
390
0
  6
Continuous
 62
     1
100
AcDbLine
 10
26.521047
 20
16.757165
 30
0.0
 11
26.499871
 21
16.747545
 31
0.0
  0
LINE
  5
132
100
AcDbEntity
  8
0
370
    15
390
0
  6
Continuous
 62
     1
100
AcDbLine
 10
26.499871
 20
16.747545
 30
0.0
 11
26.47292
 21
16.739847
 31
0.0
  0
LINE
  5
133
100
AcDbEntity
  8
0
370
    15
390
0
  6
Continuous
 62
     1
100
AcDbLine
 10
26.47292
 20
16.739847
 30
0.0
 11
26.438269
 21
16.716753
 31
0.0
  0
LINE
  5
134
100
AcDbEntity
  8
0
370
    15
390
0
  6
Continuous
 62
     1
100
AcDbLine
 10
26.438269
 20
16.716753
 30
0.0
 11
26.419019
 21
16.705205
 31
0.0
  0
LINE
  5
135
100
AcDbEntity
  8
0
370
    15
390
0
  6
Continuous
 62
     1
100
AcDbLine
 10
26.419019
 20
16.705205
 30
0.0
 11
26.412229
 21
16.703283
 31
0.0
  0
LINE
  5
136
100
AcDbEntity
  8
0
370
    15
390
0
  6
Continuous
 62
     1
100
AcDbLine
 10
26.412229
 20
16.703283
 30
0.0
 11
26.412229
 21
17.069253
 31
0.0
  0
LINE
  5
137
100
AcDbEntity
  8
0
370
    15
390
0
  6
Continuous
 62
     1
100
AcDbLine
 10
26.84302
 20
17.282228
 30
0.0
 11
26.412229
 21
16.851434
 31
0.0
  0
LINE
  5
138
100
AcDbEntity
  8
0
370
    15
390
0
  6
Continuous
 62
     1
100
AcDbLine
 10
26.84302
 20
17.19384
 30
0.0
 11
26.412229
 21
16.763048
 31
0.0
  0
LINE
  5
139
100
AcDbEntity
  8
0
370
    15
390
0
  6
Continuous
 62
     1
100
AcDbLine
 10
26.839722
 20
17.102151
 30
0.0
 11
26.479215
 21
16.741643
 31
0.0
  0
LINE
  5
13A
100
AcDbEntity
  8
0
370
    15
390
0
  6
Continuous
 62
     1
100
AcDbLine
 10
26.820367
 20
16.994409
 30
0.0
 11
26.615597
 21
16.78964
 31
0.0
  0
LINE
  5
13B
100
AcDbEntity
  8
0
370
    15
390
0
  6
Continuous
 62
     1
100
AcDbLine
 10
26.811524
 20
16.897176
 30
0.0
 11
26.712226
 21
16.79788
 31
0.0
  0
LINE
  5
13C
100
AcDbEntity
  8
0
370
    15
390
0
  6
Continuous
 62
     1
100
AcDbLine
 10
26.576729
 20
17.281101
 30
0.0
 11
26.83261
 21
17.536982
 31
0.0
  0
LINE
  5
13D
100
AcDbEntity
  8
0
370
    15
390
0
  6
Continuous
 62
     1
100
AcDbLine
 10
26.576729
 20
17.369489
 30
0.0
 11
26.755493
 21
17.548254
 31
0.0
  0
LINE
  5
13E
100
AcDbEntity
  8
0
370
    15
390
0
  6
Continuous
 62
     1
100
AcDbLine
 10
26.576729
 20
17.457878
 30
0.0
 11
26.667105
 21
17.548254
 31
0.0
  0
LINE
  5
13F
100
AcDbEntity
  8
0
370
    15
390
0
  6
Continuous
 62
     1
100
AcDbLine
 10
26.576729
 20
17.104326
 30
0.0
 11
26.84905
 21
17.376646
 31
0.0
  0
LINE
  5
140
100
AcDbEntity
  8
0
370
    15
390
0
  6
Continuous
 62
     1
100
AcDbLine
 10
26.541657
 20
17.069253
 30
0.0
 11
26.412229
 21
16.939825
 31
0.0
  0
LINE
  5
141
100
AcDbEntity
  8
0
370
    15
390
0
  6
Continuous
 62
     1
100
AcDbLine
 10
26.453269
 20
17.069253
 30
0.0
 11
26.412229
 21
17.028211
 31
0.0
  0
LINE
  5
142
100
AcDbEntity
  8
0
370
    15
390
0
  6
Continuous
 62
     1
100
AcDbLine
 10
26.576729
 20
17.192712
 30
0.0
 11
26.844523
 21
17.460508
 31
0.0
  0
LINE
  5
143
100
AcDbEntity
  8
12
370
    15
390
0
  6
Continuous
 62
     7
100
AcDbLine
 10
26.619227
 20
19.723398
 30
0.0
 11
26.533227
 21
19.723398
 31
0.0
  0
LINE
  5
144
100
AcDbEntity
  8
12
370
    15
390
0
  6
Continuous
 62
     7
100
AcDbLine
 10
26.619227
 20
19.714903
 30
0.0
 11
26.619227
 21
19.671904
 31
0.0
  0
ARC
  5
145
100
AcDbEntity
  8
12
370
    15
390
0
  6
Continuous
 62
     7
100
AcDbCircle
 10
26.609225
 20
19.671904
 30
0.0
 40
0.010003
100
AcDbArc
 50
270.013463
 51
359.997464
  0
ARC
  5
146
100
AcDbEntity
  8
12
370
    15
390
0
  6
Continuous
 62
     7
100
AcDbCircle
 10
26.543226
 20
19.671901
 30
0.0
 40
0.009999
100
AcDbArc
 50
179.983882
 51
270.0
  0
LINE
  5
147
100
AcDbEntity
  8
12
370
    15
390
0
  6
Continuous
 62
     7
100
AcDbLine
 10
26.533227
 20
19.714903
 30
0.0
 11
26.533227
 21
19.671904
 31
0.0
  0
ARC
  5
148
100
AcDbEntity
  8
12
370
    15
390
0
  6
Continuous
 62
     7
100
AcDbCircle
 10
26.576227
 20
19.540956
 30
0.0
 40
0.125366
100
AcDbArc
 50
74.738269
 51
105.261731
  0
LINE
  5
149
100
AcDbEntity
  8
12
370
    15
390
0
  6
Continuous
 62
     7
100
AcDbLine
 10
26.533227
 20
19.503824
 30
0.0
 11
26.619227
 21
19.503824
 31
0.0
  0
LINE
  5
14A
100
AcDbEntity
  8
12
370
    15
390
0
  6
Continuous
 62
     7
100
AcDbLine
 10
26.533227
 20
19.503824
 30
0.0
 11
26.533227
 21
19.555323
 31
0.0
  0
ARC
  5
14B
100
AcDbEntity
  8
12
370
    15
390
0
  6
Continuous
 62
     7
100
AcDbCircle
 10
26.543226
 20
19.555322
 30
0.0
 40
0.009999
100
AcDbArc
 50
90.0
 51
179.994264
  0
ARC
  5
14C
100
AcDbEntity
  8
12
370
    15
390
0
  6
Continuous
 62
     7
100
AcDbCircle
 10
26.609228
 20
19.555322
 30
0.0
 40
0.009999
100
AcDbArc
 50
0.005736
 51
90.0
  0
LINE
  5
14D
100
AcDbEntity
  8
12
370
    15
390
0
  6
Continuous
 62
     7
100
AcDbLine
 10
26.619227
 20
19.503824
 30
0.0
 11
26.619227
 21
19.555323
 31
0.0
  0
ARC
  5
14E
100
AcDbEntity
  8
12
370
    15
390
0
  6
Continuous
 62
     7
100
AcDbCircle
 10
26.576227
 20
19.686374
 30
0.0
 40
0.125471
100
AcDbArc
 50
254.751282
 51
285.248718
  0
LINE
  5
14F
100
AcDbEntity
  8
12
370
    15
390
0
  6
Continuous
 62
     7
100
AcDbLine
 10
26.619227
 20
19.723398
 30
0.0
 11
26.533227
 21
19.723398
 31
0.0
  0
ARC
  5
150
100
AcDbEntity
  8
12
370
    15
390
0
  6
Continuous
 62
     7
100
AcDbCircle
 10
26.609225
 20
19.671904
 30
0.0
 40
0.010003
100
AcDbArc
 50
270.013463
 51
359.997464
  0
ARC
  5
151
100
AcDbEntity
  8
12
370
    15
390
0
  6
Continuous
 62
     7
100
AcDbCircle
 10
26.543226
 20
19.671901
 30
0.0
 40
0.009999
100
AcDbArc
 50
179.983882
 51
270.0
  0
LINE
  5
152
100
AcDbEntity
  8
12
370
    15
390
0
  6
Continuous
 62
     7
100
AcDbLine
 10
26.533227
 20
19.714903
 30
0.0
 11
26.533227
 21
19.671904
 31
0.0
  0
ARC
  5
153
100
AcDbEntity
  8
12
370
    15
390
0
  6
Continuous
 62
     7
100
AcDbCircle
 10
26.576227
 20
19.540956
 30
0.0
 40
0.125366
100
AcDbArc
 50
74.738269
 51
105.261731
  0
LINE
  5
154
100
AcDbEntity
  8
12
370
    15
390
0
  6
Continuous
 62
     7
100
AcDbLine
 10
26.533227
 20
19.503824
 30
0.0
 11
26.619227
 21
19.503824
 31
0.0
  0
LINE
  5
155
100
AcDbEntity
  8
12
370
    15
390
0
  6
Continuous
 62
     7
100
AcDbLine
 10
26.533227
 20
19.503824
 30
0.0
 11
26.533227
 21
19.555323
 31
0.0
  0
ARC
  5
156
100
AcDbEntity
  8
12
370
    15
390
0
  6
Continuous
 62
     7
100
AcDbCircle
 10
26.543226
 20
19.555322
 30
0.0
 40
0.009999
100
AcDbArc
 50
90.0
 51
179.994264
  0
ARC
  5
157
100
AcDbEntity
  8
12
370
    15
390
0
  6
Continuous
 62
     7
100
AcDbCircle
 10
26.609228
 20
19.555322
 30
0.0
 40
0.009999
100
AcDbArc
 50
0.005736
 51
90.0
  0
LINE
  5
158
100
AcDbEntity
  8
12
370
    15
390
0
  6
Continuous
 62
     7
100
AcDbLine
 10
26.619227
 20
19.503824
 30
0.0
 11
26.619227
 21
19.555323
 31
0.0
  0
ARC
  5
159
100
AcDbEntity
  8
12
370
    15
390
0
  6
Continuous
 62
     7
100
AcDbCircle
 10
26.576227
 20
19.686374
 30
0.0
 40
0.125471
100
AcDbArc
 50
254.751282
 51
285.248718
  0
ELLIPSE
  5
15A
100
AcDbEntity
  8
0
370
    15
390
0
  6
Continuous
 62
     1
100
AcDbEllipse
 10
26.577959
 20
19.613686
 30
0.0
 11
0.0011658668518066
 21
0.0524406433105469
 31
0.0
210
0.0
220
0.0
230
1.0
 40
0.826844
 41
0.0
 42
6.2831853071795862
  0
LINE
  5
15B
100
AcDbEntity
  8
12
370
    15
390
0
  6
Continuous
 62
     7
100
AcDbLine
 10
26.619227
 20
19.723398
 30
0.0
 11
26.619227
 21
19.671904
 31
0.0
  0
LINE
  5
15C
100
AcDbEntity
  8
12
370
    15
390
0
  6
Continuous
 62
     7
100
AcDbLine
 10
26.596728
 20
18.575552
 30
0.0
 11
26.510728
 21
18.575552
 31
0.0
  0
LINE
  5
15D
100
AcDbEntity
  8
12
370
    15
390
0
  6
Continuous
 62
     7
100
AcDbLine
 10
26.596728
 20
18.567057
 30
0.0
 11
26.596728
 21
18.524057
 31
0.0
  0
ARC
  5
15E
100
AcDbEntity
  8
12
370
    15
390
0
  6
Continuous
 62
     7
100
AcDbCircle
 10
26.586726
 20
18.524058
 30
0.0
 40
0.010003
100
AcDbArc
 50
270.013463
 51
359.997464
  0
ARC
  5
15F
100
AcDbEntity
  8
12
370
    15
390
0
  6
Continuous
 62
     7
100
AcDbCircle
 10
26.520727
 20
18.524055
 30
0.0
 40
0.009999
100
AcDbArc
 50
179.983882
 51
270.0
  0
LINE
  5
160
100
AcDbEntity
  8
12
370
    15
390
0
  6
Continuous
 62
     7
100
AcDbLine
 10
26.510728
 20
18.567057
 30
0.0
 11
26.510728
 21
18.524057
 31
0.0
  0
ARC
  5
161
100
AcDbEntity
  8
12
370
    15
390
0
  6
Continuous
 62
     7
100
AcDbCircle
 10
26.553728
 20
18.39311
 30
0.0
 40
0.125366
100
AcDbArc
 50
74.738269
 51
105.261731
  0
LINE
  5
162
100
AcDbEntity
  8
12
370
    15
390
0
  6
Continuous
 62
     7
100
AcDbLine
 10
26.510728
 20
18.355978
 30
0.0
 11
26.596728
 21
18.355978
 31
0.0
  0
LINE
  5
163
100
AcDbEntity
  8
12
370
    15
390
0
  6
Continuous
 62
     7
100
AcDbLine
 10
26.510728
 20
18.355978
 30
0.0
 11
26.510728
 21
18.407476
 31
0.0
  0
ARC
  5
164
100
AcDbEntity
  8
12
370
    15
390
0
  6
Continuous
 62
     7
100
AcDbCircle
 10
26.520724
 20
18.407479
 30
0.0
 40
0.009996
100
AcDbArc
 50
89.976148
 51
180.012923
  0
ARC
  5
165
100
AcDbEntity
  8
12
370
    15
390
0
  6
Continuous
 62
     7
100
AcDbCircle
 10
26.586732
 20
18.407479
 30
0.0
 40
0.009996
100
AcDbArc
 50
359.987077
 51
450.023852
  0
LINE
  5
166
100
AcDbEntity
  8
12
370
    15
390
0
  6
Continuous
 62
     7
100
AcDbLine
 10
26.596728
 20
18.355978
 30
0.0
 11
26.596728
 21
18.407476
 31
0.0
  0
ARC
  5
167
100
AcDbEntity
  8
12
370
    15
390
0
  6
Continuous
 62
     7
100
AcDbCircle
 10
26.553728
 20
18.538528
 30
0.0
 40
0.125471
100
AcDbArc
 50
254.751282
 51
285.248718
  0
LINE
  5
168
100
AcDbEntity
  8
12
370
    15
390
0
  6
Continuous
 62
     7
100
AcDbLine
 10
26.596728
 20
18.575552
 30
0.0
 11
26.510728
 21
18.575552
 31
0.0
  0
ARC
  5
169
100
AcDbEntity
  8
12
370
    15
390
0
  6
Continuous
 62
     7
100
AcDbCircle
 10
26.586726
 20
18.524058
 30
0.0
 40
0.010003
100
AcDbArc
 50
270.013463
 51
359.997464
  0
ARC
  5
16A
100
AcDbEntity
  8
12
370
    15
390
0
  6
Continuous
 62
     7
100
AcDbCircle
 10
26.520727
 20
18.524055
 30
0.0
 40
0.009999
100
AcDbArc
 50
179.983882
 51
270.0
  0
LINE
  5
16B
100
AcDbEntity
  8
12
370
    15
390
0
  6
Continuous
 62
     7
100
AcDbLine
 10
26.510728
 20
18.567057
 30
0.0
 11
26.510728
 21
18.524057
 31
0.0
  0
ARC
  5
16C
100
AcDbEntity
  8
12
370
    15
390
0
  6
Continuous
 62
     7
100
AcDbCircle
 10
26.553728
 20
18.39311
 30
0.0
 40
0.125366
100
AcDbArc
 50
74.738269
 51
105.261731
  0
LINE
  5
16D
100
AcDbEntity
  8
12
370
    15
390
0
  6
Continuous
 62
     7
100
AcDbLine
 10
26.510728
 20
18.355978
 30
0.0
 11
26.510728
 21
18.407476
 31
0.0
  0
ARC
  5
16E
100
AcDbEntity
  8
12
370
    15
390
0
  6
Continuous
 62
     7
100
AcDbCircle
 10
26.520724
 20
18.407479
 30
0.0
 40
0.009996
100
AcDbArc
 50
89.976148
 51
180.012923
  0
ARC
  5
16F
100
AcDbEntity
  8
12
370
    15
390
0
  6
Continuous
 62
     7
100
AcDbCircle
 10
26.586732
 20
18.407479
 30
0.0
 40
0.009996
100
AcDbArc
 50
359.987077
 51
450.023852
  0
LINE
  5
170
100
AcDbEntity
  8
12
370
    15
390
0
  6
Continuous
 62
     7
100
AcDbLine
 10
26.596728
 20
18.355978
 30
0.0
 11
26.596728
 21
18.407476
 31
0.0
  0
ARC
  5
171
100
AcDbEntity
  8
12
370
    15
390
0
  6
Continuous
 62
     7
100
AcDbCircle
 10
26.553728
 20
18.538528
 30
0.0
 40
0.125471
100
AcDbArc
 50
254.751282
 51
285.248718
  0
ELLIPSE
  5
172
100
AcDbEntity
  8
0
370
    15
390
0
  6
Continuous
 62
     1
100
AcDbEllipse
 10
26.55546
 20
18.465841
 30
0.0
 11
0.0011658668518066
 21
0.0524406433105469
 31
0.0
210
0.0
220
0.0
230
1.0
 40
0.826844
 41
0.0
 42
6.2831853071795862
  0
LINE
  5
173
100
AcDbEntity
  8
12
370
    15
390
0
  6
Continuous
 62
     7
100
AcDbLine
 10
26.596728
 20
18.575552
 30
0.0
 11
26.596728
 21
18.524057
 31
0.0
  0
LINE
  5
174
100
AcDbEntity
  8
2
370
    15
390
0
  6
Continuous
 62
     7
100
AcDbLine
 10
26.510728
 20
18.346252
 30
0.0
 11
26.510728
 21
18.583254
 31
0.0
  0
LINE
  5
175
100
AcDbEntity
  8
12
370
    15
390
0
  6
Continuous
 62
     7
100
AcDbLine
 10
26.57323
 20
17.408552
 30
0.0
 11
26.487229
 21
17.408552
 31
0.0
  0
LINE
  5
176
100
AcDbEntity
  8
12
370
    15
390
0
  6
Continuous
 62
     7
100
AcDbLine
 10
26.57323
 20
17.400056
 30
0.0
 11
26.57323
 21
17.357057
 31
0.0
  0
ARC
  5
177
100
AcDbEntity
  8
12
370
    15
390
0
  6
Continuous
 62
     7
100
AcDbCircle
 10
26.563227
 20
17.357058
 30
0.0
 40
0.010003
100
AcDbArc
 50
270.013463
 51
359.997464
  0
ARC
  5
178
100
AcDbEntity
  8
12
370
    15
390
0
  6
Continuous
 62
     7
100
AcDbCircle
 10
26.497229
 20
17.357054
 30
0.0
 40
0.009999
100
AcDbArc
 50
179.983882
 51
270.0
  0
LINE
  5
179
100
AcDbEntity
  8
12
370
    15
390
0
  6
Continuous
 62
     7
100
AcDbLine
 10
26.487229
 20
17.400056
 30
0.0
 11
26.487229
 21
17.357057
 31
0.0
  0
ARC
  5
17A
100
AcDbEntity
  8
12
370
    15
390
0
  6
Continuous
 62
     7
100
AcDbCircle
 10
26.53023
 20
17.22611
 30
0.0
 40
0.125366
100
AcDbArc
 50
74.738269
 51
105.261731
  0
LINE
  5
17B
100
AcDbEntity
  8
12
370
    15
390
0
  6
Continuous
 62
     7
100
AcDbLine
 10
26.487229
 20
17.188978
 30
0.0
 11
26.57323
 21
17.188978
 31
0.0
  0
LINE
  5
17C
100
AcDbEntity
  8
12
370
    15
390
0
  6
Continuous
 62
     7
100
AcDbLine
 10
26.487229
 20
17.188978
 30
0.0
 11
26.487229
 21
17.240476
 31
0.0
  0
ARC
  5
17D
100
AcDbEntity
  8
12
370
    15
390
0
  6
Continuous
 62
     7
100
AcDbCircle
 10
26.497229
 20
17.240475
 30
0.0
 40
0.009999
100
AcDbArc
 50
90.0
 51
179.994264
  0
ARC
  5
17E
100
AcDbEntity
  8
12
370
    15
390
0
  6
Continuous
 62
     7
100
AcDbCircle
 10
26.56323
 20
17.240475
 30
0.0
 40
0.009999
100
AcDbArc
 50
0.005736
 51
90.0
  0
LINE
  5
17F
100
AcDbEntity
  8
12
370
    15
390
0
  6
Continuous
 62
     7
100
AcDbLine
 10
26.57323
 20
17.188978
 30
0.0
 11
26.57323
 21
17.240476
 31
0.0
  0
ARC
  5
180
100
AcDbEntity
  8
12
370
    15
390
0
  6
Continuous
 62
     7
100
AcDbCircle
 10
26.53023
 20
17.371528
 30
0.0
 40
0.125471
100
AcDbArc
 50
254.751282
 51
285.248718
  0
LINE
  5
181
100
AcDbEntity
  8
12
370
    15
390
0
  6
Continuous
 62
     7
100
AcDbLine
 10
26.57323
 20
17.408552
 30
0.0
 11
26.487229
 21
17.408552
 31
0.0
  0
ARC
  5
182
100
AcDbEntity
  8
12
370
    15
390
0
  6
Continuous
 62
     7
100
AcDbCircle
 10
26.563227
 20
17.357058
 30
0.0
 40
0.010003
100
AcDbArc
 50
270.013463
 51
359.997464
  0
ARC
  5
183
100
AcDbEntity
  8
12
370
    15
390
0
  6
Continuous
 62
     7
100
AcDbCircle
 10
26.497229
 20
17.357054
 30
0.0
 40
0.009999
100
AcDbArc
 50
179.983882
 51
270.0
  0
LINE
  5
184
100
AcDbEntity
  8
12
370
    15
390
0
  6
Continuous
 62
     7
100
AcDbLine
 10
26.487229
 20
17.400056
 30
0.0
 11
26.487229
 21
17.357057
 31
0.0
  0
ARC
  5
185
100
AcDbEntity
  8
12
370
    15
390
0
  6
Continuous
 62
     7
100
AcDbCircle
 10
26.53023
 20
17.22611
 30
0.0
 40
0.125366
100
AcDbArc
 50
74.738269
 51
105.261731
  0
LINE
  5
186
100
AcDbEntity
  8
12
370
    15
390
0
  6
Continuous
 62
     7
100
AcDbLine
 10
26.487229
 20
17.188978
 30
0.0
 11
26.487229
 21
17.240476
 31
0.0
  0
ARC
  5
187
100
AcDbEntity
  8
12
370
    15
390
0
  6
Continuous
 62
     7
100
AcDbCircle
 10
26.497229
 20
17.240475
 30
0.0
 40
0.009999
100
AcDbArc
 50
90.0
 51
179.994264
  0
ARC
  5
188
100
AcDbEntity
  8
12
370
    15
390
0
  6
Continuous
 62
     7
100
AcDbCircle
 10
26.56323
 20
17.240475
 30
0.0
 40
0.009999
100
AcDbArc
 50
0.005736
 51
90.0
  0
LINE
  5
189
100
AcDbEntity
  8
12
370
    15
390
0
  6
Continuous
 62
     7
100
AcDbLine
 10
26.57323
 20
17.188978
 30
0.0
 11
26.57323
 21
17.240476
 31
0.0
  0
ARC
  5
18A
100
AcDbEntity
  8
12
370
    15
390
0
  6
Continuous
 62
     7
100
AcDbCircle
 10
26.53023
 20
17.371528
 30
0.0
 40
0.125471
100
AcDbArc
 50
254.751282
 51
285.248718
  0
ELLIPSE
  5
18B
100
AcDbEntity
  8
0
370
    15
390
0
  6
Continuous
 62
     1
100
AcDbEllipse
 10
26.531961
 20
17.298839
 30
0.0
 11
0.0011658668518066
 21
0.0524406433105469
 31
0.0
210
0.0
220
0.0
230
1.0
 40
0.826844
 41
0.0
 42
6.2831853071795862
  0
LINE
  5
18C
100
AcDbEntity
  8
12
370
    15
390
0
  6
Continuous
 62
     7
100
AcDbLine
 10
26.57323
 20
17.408552
 30
0.0
 11
26.57323
 21
17.357057
 31
0.0
  0
LINE
  5
18D
100
AcDbEntity
  8
0
370
    15
390
0
  6
Continuous
 62
     1
100
AcDbLine
 10
26.491122
 20
20.391253
 30
0.0
 11
26.695733
 21
20.391253
 31
0.0
  0
LINE
  5
18E
100
AcDbEntity
  8
0
370
    15
390
0
  6
Continuous
 62
     1
100
AcDbLine
 10
26.467402
 20
19.079252
 30
0.0
 11
26.703367
 21
19.079254
 31
0.0
  0
LINE
  5
18F
100
AcDbEntity
  8
0
370
    15
390
0
  6
Continuous
 62
     1
100
AcDbLine
 10
26.471015
 20
17.907255
 30
0.0
 11
26.691915
 21
17.907255
 31
0.0
  0
LINE
  5
190
100
AcDbEntity
  8
2
370
    15
390
0
  6
Continuous
 62
     7
100
AcDbLine
 10
26.362729
 20
16.517156
 30
0.0
 11
26.37473
 21
16.529157
 31
0.0
  0
LINE
  5
191
100
AcDbEntity
  8
2
370
    15
390
0
  6
Continuous
 62
     7
100
AcDbLine
 10
26.37473
 20
17.072774
 30
0.0
 11
26.37473
 21
16.529157
 31
0.0
  0
LINE
  5
192
100
AcDbEntity
  8
0
370
    15
390
0
  6
Continuous
 62
     1
100
AcDbLine
 10
26.904046
 20
20.922254
 30
0.0
 11
26.647229
 21
20.922254
 31
0.0
  0
LINE
  5
193
100
AcDbEntity
  8
0
370
    15
390
0
  6
Continuous
 62
     1
100
AcDbLine
 10
26.763625
 20
20.922254
 30
0.0
 11
26.939645
 21
21.098272
 31
0.0
  0
LINE
  5
194
100
AcDbEntity
  8
0
370
    15
390
0
  6
Continuous
 62
     1
100
AcDbLine
 10
26.675237
 20
20.922254
 30
0.0
 11
26.944195
 21
21.191212
 31
0.0
  0
LINE
  5
195
100
AcDbEntity
  8
0
370
    15
390
0
  6
Continuous
 62
     1
100
AcDbLine
 10
26.852014
 20
20.922254
 30
0.0
 11
26.917539
 21
20.987778
 31
0.0
  0
LINE
  5
196
100
AcDbEntity
  8
2
370
    15
390
0
  6
Continuous
 62
     7
100
AcDbLine
 10
26.692866
 20
21.579255
 30
0.0
 11
26.692866
 21
21.532256
 31
0.0
  0
LINE
  5
197
100
AcDbEntity
  8
2
370
    15
390
0
  6
Continuous
 62
     7
100
AcDbLine
 10
26.700997
 20
22.495851
 30
0.0
 11
26.608499
 21
22.549254
 31
0.0
  0
LINE
  5
198
100
AcDbEntity
  8
2
370
    15
390
0
  6
Continuous
 62
     7
100
AcDbLine
 10
26.700997
 20
22.495851
 30
0.0
 11
26.700997
 21
21.799254
 31
0.0
  0
LINE
  5
199
100
AcDbEntity
  8
2
370
    15
390
0
  6
Continuous
 62
     7
100
AcDbLine
 10
26.690496
 20
20.942755
 30
0.0
 11
26.639997
 21
20.892254
 31
0.0
  0
LINE
  5
19A
100
AcDbEntity
  8
2
370
    15
390
0
  6
Continuous
 62
     7
100
AcDbLine
 10
26.639497
 20
21.377254
 30
0.0
 11
26.639497
 21
21.377254
 31
0.0
  0
LINE
  5
19B
100
AcDbEntity
  8
2
370
    15
390
0
  6
CL____X1
 62
     7
100
AcDbLine
 10
26.644555
 20
20.896112
 30
0.0
 11
26.644555
 21
21.375357
 31
0.0
  0
LINE
  5
19C
100
AcDbEntity
  8
2
370
    15
390
0
  6
Continuous
 62
     7
100
AcDbLine
 10
26.639497
 20
21.377254
 30
0.0
 11
26.628499
 21
21.377254
 31
0.0
  0
LINE
  5
19D
100
AcDbEntity
  8
2
370
    15
390
0
  6
Continuous
 62
     7
100
AcDbLine
 10
26.629998
 20
20.549253
 30
0.0
 11
26.639997
 21
20.559254
 31
0.0
  0
LINE
  5
19E
100
AcDbEntity
  8
2
370
    15
390
0
  6
Continuous
 62
     7
100
AcDbLine
 10
26.629998
 20
20.549253
 30
0.0
 11
26.569497
 21
20.549253
 31
0.0
  0
LINE
  5
19F
100
AcDbEntity
  8
2
370
    15
390
0
  6
Continuous
 62
     7
100
AcDbLine
 10
26.57697
 20
22.549254
 30
0.0
 11
26.608499
 21
22.549254
 31
0.0
  0
LINE
  5
1A0
100
AcDbEntity
  8
2
370
    15
390
0
  6
Continuous
 62
     7
100
AcDbLine
 10
26.639997
 20
20.892254
 30
0.0
 11
26.639997
 21
20.559254
 31
0.0
  0
LINE
  5
1A1
100
AcDbEntity
  8
2
370
    15
390
0
  6
Continuous
 62
     7
100
AcDbLine
 10
26.690496
 20
21.347811
 30
0.0
 11
26.690496
 21
20.942755
 31
0.0
  0
LINE
  5
1A2
100
AcDbEntity
  8
2
370
    15
390
0
  6
Continuous
 62
     7
100
AcDbLine
 10
26.690496
 20
21.347811
 30
0.0
 11
26.639497
 21
21.377254
 31
0.0
  0
ARC
  5
1A3
100
AcDbEntity
  8
2
370
    15
390
0
  6
Continuous
 62
     7
100
AcDbCircle
 10
26.522046
 20
22.222728
 30
0.0
 40
0.326526
100
AcDbArc
 50
56.766973
 51
123.233027
  0
LINE
  5
1A4
100
AcDbEntity
  8
2
370
    15
390
0
  6
Continuous
 62
     7
100
AcDbLine
 10
26.343095
 20
21.799254
 30
0.0
 11
26.343095
 21
22.495851
 31
0.0
  0
LINE
  5
1A5
100
AcDbEntity
  8
2
370
    15
390
0
  6
Continuous
 62
     7
100
AcDbLine
 10
26.535729
 20
20.549253
 30
0.0
 11
26.535729
 21
20.146951
 31
0.0
  0
LINE
  5
1A6
100
AcDbEntity
  8
0
370
    15
390
0
  6
Continuous
 62
     1
100
AcDbLine
 10
26.699845
 20
21.477195
 30
0.0
 11
26.832906
 21
21.610255
 31
0.0
  0
LINE
  5
1A7
100
AcDbEntity
  8
1
370
    15
390
0
  6
Continuous
 62
     1
100
AcDbLine
 10
26.755729
 20
21.579255
 30
0.0
 11
26.733729
 21
21.579255
 31
0.0
  0
ARC
  5
1A8
100
AcDbEntity
  8
1
370
    15
390
0
  6
Continuous
 62
     1
100
AcDbCircle
 10
26.733731
 20
21.539255
 30
0.0
 40
0.040001
100
AcDbArc
 50
90.002204
 51
180.000528
  0
LINE
  5
1A9
100
AcDbEntity
  8
1
370
    15
390
0
  6
Continuous
 62
     1
100
AcDbLine
 10
26.69373
 20
21.391254
 30
0.0
 11
26.69373
 21
21.539254
 31
0.0
  0
LINE
  5
1AA
100
AcDbEntity
  8
1
370
    15
390
0
  6
Continuous
 62
     1
100
AcDbLine
 10
26.646728
 20
21.344254
 30
0.0
 11
26.69373
 21
21.391254
 31
0.0
  0
LINE
  5
1AB
100
AcDbEntity
  8
2
370
    15
390
0
  6
Continuous
 62
     7
100
AcDbLine
 10
26.755729
 20
21.579255
 30
0.0
 11
26.700997
 21
21.579255
 31
0.0
  0
LINE
  5
1AC
100
AcDbEntity
  8
2
370
    15
390
0
  6
Continuous
 62
     7
100
AcDbLine
 10
26.692866
 20
21.532256
 30
0.0
 11
26.628499
 21
21.532256
 31
0.0
  0
ARC
  5
1AD
100
AcDbEntity
  8
12
370
    15
390
0
  6
Continuous
 62
     7
100
AcDbCircle
 10
26.68163
 20
21.419539
 30
0.0
 40
0.009998
100
AcDbArc
 50
359.991279
 51
495.083768
  0
ELLIPSE
  5
1AE
100
AcDbEntity
  8
0
370
    15
390
0
  6
Continuous
 62
     1
100
AcDbEllipse
 10
26.652647
 20
21.47886
 30
0.0
 11
0.0006189346313477
 21
0.0531959533691406
 31
0.0
210
0.0
220
0.0
230
1.0
 40
0.750215
 41
0.0
 42
6.2831853071795862
  0
LINE
  5
1AF
100
AcDbEntity
  8
0
370
    15
390
0
  6
Continuous
 62
     7
100
AcDbLine
 10
26.753814
 20
21.76876
 30
0.0
 11
26.700997
 21
21.799254
 31
0.0
  0
LINE
  5
1B0
100
AcDbEntity
  8
0
370
    15
390
0
  6
Continuous
 62
     7
100
AcDbLine
 10
26.753814
 20
21.76876
 30
0.0
 11
26.753814
 21
21.579255
 31
0.0
  0
LINE
  5
1B1
100
AcDbEntity
  8
12
370
    15
390
0
  6
Continuous
 62
     7
100
AcDbLine
 10
26.612342
 20
21.377254
 30
0.0
 11
26.612342
 21
21.419538
 31
0.0
  0
LINE
  5
1B2
100
AcDbEntity
  8
12
370
    15
390
0
  6
Continuous
 62
     7
100
AcDbLine
 10
26.612342
 20
21.377254
 30
0.0
 11
26.612342
 21
21.532222
 31
0.0
  0
LINE
  5
1B3
100
AcDbEntity
  8
12
370
    15
390
0
  6
Continuous
 62
     7
100
AcDbLine
 10
26.691628
 20
21.378353
 30
0.0
 11
26.691628
 21
21.419538
 31
0.0
  0
LINE
  5
1B4
100
AcDbEntity
  8
0
370
    15
390
0
  6
Continuous
 62
     7
100
AcDbLine
 10
26.691628
 20
21.378353
 30
0.0
 11
26.612342
 21
21.378353
 31
0.0
  0
ARC
  5
1B5
100
AcDbEntity
  8
12
370
    15
390
0
  6
Continuous
 62
     7
100
AcDbCircle
 10
26.65534
 20
21.550527
 30
0.0
 40
0.125408
100
AcDbArc
 50
254.744354
 51
278.811127
  0
LINE
  5
1B6
100
AcDbEntity
  8
1
370
    15
390
0
  6
Continuous
 62
     7
100
AcDbLine
 10
25.974729
 20
22.662997
 30
0.0
 11
25.974729
 21
20.802065
 31
0.0
  0
LINE
  5
1B7
100
AcDbEntity
  8
0
370
    15
390
0
  6
Continuous
 62
     1
100
AcDbLine
 10
26.957023
 20
21.610255
 30
0.0
 11
26.950269
 21
21.579255
 31
0.0
  0
LINE
  5
1B8
100
AcDbEntity
  8
0
370
    15
390
0
  6
Continuous
 62
     1
100
AcDbLine
 10
26.957023
 20
21.610255
 30
0.0
 11
26.756228
 21
21.610255
 31
0.0
  0
LINE
  5
1B9
100
AcDbEntity
  8
0
370
    15
390
0
  6
Continuous
 62
     1
100
AcDbLine
 10
26.95478
 20
22.057006
 30
0.0
 11
26.95478
 21
22.057006
 31
0.0
  0
LINE
  5
1BA
100
AcDbEntity
  8
0
370
    15
390
0
  6
Continuous
 62
     1
100
AcDbLine
 10
26.94881
 20
21.979428
 30
0.0
 11
26.945826
 21
21.928704
 31
0.0
  0
LINE
  5
1BB
100
AcDbEntity
  8
0
370
    15
390
0
  6
Continuous
 62
     1
100
AcDbLine
 10
26.945826
 20
21.928704
 30
0.0
 11
26.951795
 21
21.907819
 31
0.0
  0
LINE
  5
1BC
100
AcDbEntity
  8
0
370
    15
390
0
  6
Continuous
 62
     1
100
AcDbLine
 10
26.951795
 20
21.907819
 30
0.0
 11
26.957765
 21
21.872014
 31
0.0
  0
LINE
  5
1BD
100
AcDbEntity
  8
0
370
    15
390
0
  6
Continuous
 62
     1
100
AcDbLine
 10
26.957765
 20
21.872014
 30
0.0
 11
26.95478
 21
21.830241
 31
0.0
  0
LINE
  5
1BE
100
AcDbEntity
  8
0
370
    15
390
0
  6
Continuous
 62
     1
100
AcDbLine
 10
26.95478
 20
21.830241
 30
0.0
 11
26.95478
 21
21.794436
 31
0.0
  0
LINE
  5
1BF
100
AcDbEntity
  8
0
370
    15
390
0
  6
Continuous
 62
     1
100
AcDbLine
 10
26.95478
 20
21.794436
 30
0.0
 11
26.951795
 21
21.746695
 31
0.0
  0
LINE
  5
1C0
100
AcDbEntity
  8
0
370
    15
390
0
  6
Continuous
 62
     1
100
AcDbLine
 10
26.951795
 20
21.746695
 30
0.0
 11
26.951795
 21
21.716859
 31
0.0
  0
LINE
  5
1C1
100
AcDbEntity
  8
0
370
    15
390
0
  6
Continuous
 62
     1
100
AcDbLine
 10
26.951795
 20
21.716859
 30
0.0
 11
26.957765
 21
21.687022
 31
0.0
  0
LINE
  5
1C2
100
AcDbEntity
  8
0
370
    15
390
0
  6
Continuous
 62
     1
100
AcDbLine
 10
26.957765
 20
21.687022
 30
0.0
 11
26.96075
 21
21.645249
 31
0.0
  0
LINE
  5
1C3
100
AcDbEntity
  8
0
370
    15
390
0
  6
Continuous
 62
     1
100
AcDbLine
 10
26.96075
 20
21.645249
 30
0.0
 11
26.957023
 21
21.610255
 31
0.0
  0
LINE
  5
1C4
100
AcDbEntity
  8
0
370
    15
390
0
  6
DIVIDE
 62
     7
100
AcDbLine
 10
26.37473
 20
16.529157
 30
0.0
 11
26.37473
 21
16.294656
 31
0.0
  0
LINE
  5
1C5
100
AcDbEntity
  8
0
370
    15
390
0
  6
DIVIDE
 62
     7
100
AcDbLine
 10
26.36073
 20
16.280656
 30
0.0
 11
26.37473
 21
16.294656
 31
0.0
  0
LINE
  5
1C6
100
AcDbEntity
  8
0
370
    15
390
0
  6
DIVIDE
 62
     7
100
AcDbLine
 10
26.193728
 20
16.093254
 30
0.0
 11
26.193728
 21
16.280656
 31
0.0
  0
LINE
  5
1C7
100
AcDbEntity
  8
0
370
    15
390
0
  6
DIVIDE
 62
     7
100
AcDbLine
 10
26.179729
 20
16.079256
 30
0.0
 11
26.193728
 21
16.093254
 31
0.0
  0
LINE
  5
1C8
100
AcDbEntity
  8
0
370
    15
390
0
  6
Continuous
 62
     1
100
AcDbLine
 10
26.868223
 20
22.342608
 30
0.0
 11
26.8921
 21
22.348577
 31
0.0
  0
LINE
  5
1C9
100
AcDbEntity
  8
0
370
    15
390
0
  6
Continuous
 62
     1
100
AcDbLine
 10
26.8921
 20
22.348577
 30
0.0
 11
26.912993
 21
22.348577
 31
0.0
  0
LINE
  5
1CA
100
AcDbEntity
  8
0
370
    15
390
0
  6
Continuous
 62
     1
100
AcDbLine
 10
26.912993
 20
22.348577
 30
0.0
 11
26.95478
 21
22.333657
 31
0.0
  0
LINE
  5
1CB
100
AcDbEntity
  8
0
370
    15
390
0
  6
Continuous
 62
     1
100
AcDbLine
 10
26.95478
 20
22.333657
 30
0.0
 11
26.94881
 21
21.979428
 31
0.0
  0
LINE
  5
1CC
100
AcDbEntity
  8
0
370
    15
390
0
  6
Continuous
 62
     1
100
AcDbLine
 10
26.868223
 20
22.342608
 30
0.0
 11
26.84732
 21
22.342608
 31
0.0
  0
LINE
  5
1CD
100
AcDbEntity
  8
0
370
    15
390
0
  6
CL____X1
 62
     1
100
AcDbLine
 10
26.755729
 20
21.964375
 30
0.0
 11
26.84732
 21
22.017255
 31
0.0
  0
LINE
  5
1CE
100
AcDbEntity
  8
0
370
    15
390
0
  6
CL____X1
 62
     1
100
AcDbLine
 10
26.84732
 20
22.017255
 30
0.0
 11
26.700997
 21
22.017255
 31
0.0
  0
LINE
  5
1CF
100
AcDbEntity
  8
0
370
    15
390
0
  6
CL____X1
 62
     1
100
AcDbLine
 10
26.755729
 20
21.579255
 30
0.0
 11
26.755729
 21
21.964375
 31
0.0
  0
LINE
  5
1D0
100
AcDbEntity
  8
0
370
    15
390
0
  6
CL____X1
 62
     1
100
AcDbLine
 10
26.755729
 20
21.964375
 30
0.0
 11
26.700997
 21
21.964375
 31
0.0
  0
LINE
  5
1D1
100
AcDbEntity
  8
0
370
    15
390
0
  6
CL____X1
 62
     1
100
AcDbLine
 10
26.84732
 20
22.342608
 30
0.0
 11
26.84732
 21
22.017255
 31
0.0
  0
LINE
  5
1D2
100
AcDbEntity
  8
2
370
    15
390
0
  6
Continuous
 62
     7
100
AcDbLine
 10
25.974729
 20
21.347811
 30
0.0
 11
26.690496
 21
21.347811
 31
0.0
  0
LINE
  5
1D3
100
AcDbEntity
  8
2
370
    15
390
0
  6
Continuous
 62
     7
100
AcDbLine
 10
25.974729
 20
21.377253
 30
0.0
 11
26.628499
 21
21.377254
 31
0.0
  0
LINE
  5
1D4
100
AcDbEntity
  8
2
370
    15
390
0
  6
Continuous
 62
     7
100
AcDbLine
 10
25.974729
 20
21.579255
 30
0.0
 11
26.700997
 21
21.579255
 31
0.0
  0
LINE
  5
1D5
100
AcDbEntity
  8
2
370
    15
390
0
  6
Continuous
 62
     7
100
AcDbLine
 10
25.974729
 20
21.532256
 30
0.0
 11
26.628499
 21
21.532256
 31
0.0
  0
LINE
  5
1D6
100
AcDbEntity
  8
0
370
    15
390
0
  6
Continuous
 62
     7
100
AcDbLine
 10
25.974729
 20
21.76876
 30
0.0
 11
26.753814
 21
21.76876
 31
0.0
  0
LINE
  5
1D7
100
AcDbEntity
  8
2
370
    15
390
0
  6
Continuous
 62
     7
100
AcDbLine
 10
25.974729
 20
21.799254
 30
0.0
 11
26.700997
 21
21.799254
 31
0.0
  0
ARC
  5
1D8
100
AcDbEntity
  8
2
370
    15
390
0
  6
Continuous
 62
     7
100
AcDbCircle
 10
25.982968
 20
21.308274
 30
0.0
 40
1.24098
100
AcDbArc
 50
73.13034
 51
90.380421
  0
LINE
  5
1D9
100
AcDbEntity
  8
2
370
    15
390
0
  6
Continuous
 62
     7
100
AcDbLine
 10
25.974729
 20
22.549254
 30
0.0
 11
26.57697
 21
22.549254
 31
0.0
  0
LINE
  5
1DA
100
AcDbEntity
  8
2
370
    15
390
0
  6
Continuous
 62
     7
100
AcDbLine
 10
25.974729
 20
20.942755
 30
0.0
 11
26.690496
 21
20.942755
 31
0.0
  0
LINE
  5
1DB
100
AcDbEntity
  8
2
370
    15
390
0
  6
Continuous
 62
     7
100
AcDbLine
 10
25.974729
 20
20.892254
 30
0.0
 11
26.639997
 21
20.892254
 31
0.0
  0
LINE
  5
1DC
100
AcDbEntity
  8
2
370
    15
390
0
  6
Continuous
 62
     7
100
AcDbLine
 10
25.974729
 20
20.559253
 30
0.0
 11
26.639997
 21
20.559254
 31
0.0
  0
LINE
  5
1DD
100
AcDbEntity
  8
2
370
    15
390
0
  6
Continuous
 62
     7
100
AcDbLine
 10
26.629998
 20
20.549253
 30
0.0
 11
25.974729
 21
20.549253
 31
0.0
  0
LINE
  5
1DE
100
AcDbEntity
  8
2
370
    15
390
0
  6
Continuous
 62
     7
100
AcDbLine
 10
25.974729
 20
19.823252
 30
0.0
 11
26.598729
 21
19.823252
 31
0.0
  0
LINE
  5
1DF
100
AcDbEntity
  8
2
370
    15
390
0
  6
Continuous
 62
     7
100
AcDbLine
 10
25.974729
 20
19.733252
 30
0.0
 11
26.533227
 21
19.733252
 31
0.0
  0
LINE
  5
1E0
100
AcDbEntity
  8
2
370
    15
390
0
  6
Continuous
 62
     7
100
AcDbLine
 10
25.974729
 20
19.496252
 30
0.0
 11
26.533227
 21
19.496252
 31
0.0
  0
LINE
  5
1E1
100
AcDbEntity
  8
2
370
    15
390
0
  6
Continuous
 62
     7
100
AcDbLine
 10
25.974729
 20
19.406252
 30
0.0
 11
26.581727
 21
19.406252
 31
0.0
  0
LINE
  5
1E2
100
AcDbEntity
  8
2
370
    15
390
0
  6
Continuous
 62
     7
100
AcDbLine
 10
25.974729
 20
18.673254
 30
0.0
 11
26.581727
 21
18.673254
 31
0.0
  0
LINE
  5
1E3
100
AcDbEntity
  8
2
370
    15
390
0
  6
Continuous
 62
     7
100
AcDbLine
 10
25.974729
 20
18.25625
 30
0.0
 11
26.581727
 21
18.25625
 31
0.0
  0
LINE
  5
1E4
100
AcDbEntity
  8
2
370
    15
390
0
  6
Continuous
 62
     7
100
AcDbLine
 10
26.598229
 20
18.346252
 30
0.0
 11
25.974729
 21
18.346252
 31
0.0
  0
LINE
  5
1E5
100
AcDbEntity
  8
2
370
    15
390
0
  6
Continuous
 62
     7
100
AcDbLine
 10
25.974729
 20
18.583254
 30
0.0
 11
26.510728
 21
18.583254
 31
0.0
  0
LINE
  5
1E6
100
AcDbEntity
  8
2
370
    15
390
0
  6
Continuous
 62
     7
100
AcDbLine
 10
25.974729
 20
17.506254
 30
0.0
 11
26.574727
 21
17.506254
 31
0.0
  0
LINE
  5
1E7
100
AcDbEntity
  8
2
370
    15
390
0
  6
Continuous
 62
     7
100
AcDbLine
 10
25.974729
 20
17.416254
 30
0.0
 11
26.487229
 21
17.416254
 31
0.0
  0
LINE
  5
1E8
100
AcDbEntity
  8
2
370
    15
390
0
  6
Continuous
 62
     7
100
AcDbLine
 10
25.974729
 20
17.17925
 30
0.0
 11
26.487229
 21
17.17925
 31
0.0
  0
LINE
  5
1E9
100
AcDbEntity
  8
2
370
    15
390
0
  6
Continuous
 62
     7
100
AcDbLine
 10
25.974729
 20
17.072774
 30
0.0
 11
26.556729
 21
17.072774
 31
0.0
  0
LINE
  5
1EA
100
AcDbEntity
  8
2
370
    15
390
0
  6
Continuous
 62
     7
100
AcDbLine
 10
25.974729
 20
17.087251
 30
0.0
 11
26.574731
 21
17.087251
 31
0.0
  0
LINE
  5
1EB
100
AcDbEntity
  8
2
370
    15
390
0
  6
Continuous
 62
     7
100
AcDbLine
 10
25.974729
 20
16.529157
 30
0.0
 11
26.37473
 21
16.529157
 31
0.0
  0
LINE
  5
1EC
100
AcDbEntity
  8
2
370
    15
390
0
  6
Continuous
 62
     7
100
AcDbLine
 10
25.974729
 20
16.517156
 30
0.0
 11
26.362729
 21
16.517156
 31
0.0
  0
LINE
  5
1ED
100
AcDbEntity
  8
0
370
    15
390
0
  6
DIVIDE
 62
     7
100
AcDbLine
 10
26.37473
 20
16.294656
 30
0.0
 11
25.974729
 21
16.294656
 31
0.0
  0
LINE
  5
1EE
100
AcDbEntity
  8
0
370
    15
390
0
  6
DIVIDE
 62
     7
100
AcDbLine
 10
26.360731
 20
16.280656
 30
0.0
 11
25.974729
 21
16.280656
 31
0.0
  0
LINE
  5
1EF
100
AcDbEntity
  8
0
370
    15
390
0
  6
DIVIDE
 62
     7
100
AcDbLine
 10
26.193728
 20
16.093254
 30
0.0
 11
25.974729
 21
16.093254
 31
0.0
  0
LINE
  5
1F0
100
AcDbEntity
  8
0
370
    15
390
0
  6
DIVIDE
 62
     7
100
AcDbLine
 10
26.179729
 20
16.079256
 30
0.0
 11
25.974729
 21
16.079256
 31
0.0
  0
LINE
  5
1F1
100
AcDbEntity
  8
3
370
    15
390
0
  6
Continuous
 62
     1
100
AcDbLine
 10
25.205227
 20
21.391254
 30
0.0
 11
24.817936
 21
21.391254
 31
0.0
  0
LINE
  5
1F2
100
AcDbEntity
  8
3
370
    15
390
0
  6
Continuous
 62
     1
100
AcDbLine
 10
25.193231
 20
22.190434
 30
0.0
 11
24.60843
 21
22.190434
 31
0.0
  0
LINE
  5
1F3
100
AcDbEntity
  8
1
370
    15
390
0
  6
Continuous
 62
     7
100
AcDbLine
 10
25.372731
 20
17.464449
 30
0.0
 11
25.372731
 21
17.301561
 31
0.0
  0
LINE
  5
1F4
100
AcDbEntity
  8
1
370
    15
390
0
  6
Continuous
 62
     7
100
AcDbLine
 10
25.974729
 20
20.349591
 30
0.0
 11
25.974729
 21
15.826663
 31
0.0
  0
LINE
  5
1F6
100
AcDbEntity
  8
4
370
    15
390
0
  6
TYPE___6
 62
     1
100
AcDbLine
 10
25.537229
 20
16.079256
 30
0.0
 11
25.537229
 21
17.069253
 31
0.0
  0
LINE
  5
1F8
100
AcDbEntity
  8
4
370
    15
390
0
  6
TYPE___8
 62
     1
100
AcDbLine
 10
25.537229
 20
16.079256
 30
0.0
 11
25.974729
 21
15.826663
 31
0.0
  0
LINE
  5
1F9
100
AcDbEntity
  8
3
370
    15
390
0
  6
Continuous
 62
     1
100
AcDbLine
 10
25.372731
 20
17.069253
 30
0.0
 11
25.157645
 21
16.751888
 31
0.0
  0
LINE
  5
1FA
100
AcDbEntity
  8
3
370
    15
390
0
  6
Continuous
 62
     1
100
AcDbLine
 10
24.881742
 20
16.751888
 30
0.0
 11
25.157645
 21
16.751888
 31
0.0
  0
LINE
  5
1FB
100
AcDbEntity
  8
1
370
    15
390
0
  6
Continuous
 62
     7
100
AcDbLine
 10
25.32573
 20
19.72768
 30
0.0
 11
25.32573
 21
19.564793
 31
0.0
  0
LINE
  5
1FC
100
AcDbEntity
  8
3
370
    15
390
0
  6
Continuous
 62
     1
100
AcDbLine
 10
25.32573
 20
19.422801
 30
0.0
 11
24.60843
 21
19.422801
 31
0.0
  0
ARC
  5
1FD
100
AcDbEntity
  8
3
370
    15
390
0
  6
Continuous
 62
     1
100
AcDbCircle
 10
25.326225
 20
18.703379
 30
0.0
 40
0.581717
100
AcDbArc
 50
60.092953
 51
89.999729
  0
ARC
  5
1FE
100
AcDbEntity
  8
3
370
    15
390
0
  6
Continuous
 62
     1
100
AcDbCircle
 10
25.32622
 20
18.703395
 30
0.0
 40
0.581698
100
AcDbArc
 50
120.000305
 51
146.52141
  0
LINE
  5
1FF
100
AcDbEntity
  8
1
370
    15
390
0
  6
Continuous
 62
     7
100
AcDbLine
 10
25.349729
 20
18.234673
 30
0.0
 11
25.349729
 21
18.071785
 31
0.0
  0
LINE
  5
200
100
AcDbEntity
  8
3
370
    15
390
0
  6
Continuous
 62
     1
100
AcDbLine
 10
25.422461
 20
21.317733
 30
0.0
 11
25.422461
 21
21.579255
 31
0.0
  0
LINE
  5
201
100
AcDbEntity
  8
3
370
    15
390
0
  6
Continuous
 62
     1
100
AcDbLine
 10
25.290731
 20
21.579255
 30
0.0
 11
25.845804
 21
21.579255
 31
0.0
  0
LINE
  5
202
100
AcDbEntity
  8
3
370
    15
390
0
  6
Continuous
 62
     1
100
AcDbLine
 10
25.271231
 20
21.626254
 30
0.0
 11
25.634132
 21
21.626254
 31
0.0
  0
LINE
  5
203
100
AcDbEntity
  8
0
370
    15
390
0
  6
Continuous
 62
     1
100
AcDbLine
 10
26.862767
 20
18.720255
 30
0.0
 11
27.731429
 21
18.720255
 31
0.0
  0
LINE
  5
204
100
AcDbEntity
  8
0
370
    15
390
0
  6
Continuous
 62
     1
100
AcDbLine
 10
26.918729
 20
19.438253
 30
0.0
 11
27.731429
 21
19.438253
 31
0.0
  0
LINE
  5
205
100
AcDbEntity
  8
3
370
    15
390
0
  6
Continuous
 62
     1
100
AcDbLine
 10
27.6309
 20
19.438253
 30
0.0
 11
27.6309
 21
18.720255
 31
0.0
  0
LINE
  5
206
100
AcDbEntity
  8
0
370
    15
390
0
  6
Continuous
 62
     1
100
AcDbLine
 10
26.918729
 20
18.266254
 30
0.0
 11
27.731429
 21
18.266254
 31
0.0
  0
LINE
  5
207
100
AcDbEntity
  8
0
370
    15
390
0
  6
Continuous
 62
     1
100
AcDbLine
 10
26.871377
 20
17.548254
 30
0.0
 11
27.731429
 21
17.548254
 31
0.0
  0
LINE
  5
208
100
AcDbEntity
  8
3
370
    15
390
0
  6
Continuous
 62
     1
100
AcDbLine
 10
27.6309
 20
18.266254
 30
0.0
 11
27.6309
 21
17.548254
 31
0.0
  0
LINE
  5
209
100
AcDbEntity
  8
3
370
    15
390
0
  6
Continuous
 62
     1
100
AcDbLine
 10
25.422461
 20
25.199603
 30
0.0
 11
25.422461
 21
21.626254
 31
0.0
  0
LINE
  5
20A
100
AcDbEntity
  8
4
370
    15
390
0
  6
Continuous
 62
     1
100
AcDbLine
 10
24.784997
 20
19.497056
 30
0.0
 11
24.821231
 21
19.425765
 31
0.0
  0
LINE
  5
20B
100
AcDbEntity
  8
4
370
    15
390
0
  6
Continuous
 62
     1
100
AcDbLine
 10
24.821231
 20
19.425765
 30
0.0
 11
24.985424
 21
19.631194
 31
0.0
  0
LINE
  5
20C
100
AcDbEntity
  8
4
370
    15
390
0
  6
Continuous
 62
     1
100
AcDbLine
 10
24.98535
 20
19.637413
 30
0.0
 11
24.892673
 21
19.637413
 31
0.0
  0
LINE
  5
20D
100
AcDbEntity
  8
3
370
    15
390
0
  6
Continuous
 62
     1
100
AcDbLine
 10
25.255227
 20
21.425145
 30
0.0
 11
24.816076
 21
21.425145
 31
0.0
  0
LINE
  5
20E
100
AcDbEntity
  8
4
370
    15
390
0
  6
Continuous
 62
     1
100
AcDbLine
 10
24.784997
 20
21.49587
 30
0.0
 11
24.821231
 21
21.424579
 31
0.0
  0
LINE
  5
20F
100
AcDbEntity
  8
4
370
    15
390
0
  6
Continuous
 62
     1
100
AcDbLine
 10
24.821231
 20
21.424579
 30
0.0
 11
24.985424
 21
21.630006
 31
0.0
  0
LINE
  5
210
100
AcDbEntity
  8
4
370
    15
390
0
  6
Continuous
 62
     1
100
AcDbLine
 10
24.98535
 20
21.636226
 30
0.0
 11
24.892673
 21
21.636226
 31
0.0
  0
LINE
  5
211
100
AcDbEntity
  8
0
370
    15
390
0
  6
Continuous
 62
     1
100
AcDbLine
 10
24.982694
 20
21.579255
 30
0.0
 11
25.145764
 21
21.579255
 31
0.0
  0
LINE
  5
212
100
AcDbEntity
  8
4
370
    15
390
0
  6
CL____X1
 62
     1
100
AcDbLine
 10
25.974729
 20
16.079256
 30
0.0
 11
25.537229
 21
16.079256
 31
0.0
  0
LINE
  5
213
100
AcDbEntity
  8
2
370
    15
390
0
  6
Continuous
 62
     7
100
AcDbLine
 10
25.974729
 20
17.810442
 30
0.0
 11
25.974729
 21
17.728434
 31
0.0
  0
LINE
  5
214
100
AcDbEntity
  8
2
370
    15
390
0
  6
Continuous
 62
     7
100
AcDbLine
 10
25.934911
 20
17.768251
 30
0.0
 11
26.016915
 21
17.768251
 31
0.0
  0
LINE
  5
215
100
AcDbEntity
  8
2
370
    15
390
0
  6
Continuous
 62
     7
100
AcDbLine
 10
26.056386
 20
17.768251
 30
0.0
 11
26.104901
 21
17.768251
 31
0.0
  0
LINE
  5
216
100
AcDbEntity
  8
2
370
    15
390
0
  6
Continuous
 62
     7
100
AcDbLine
 10
25.974729
 20
20.455443
 30
0.0
 11
25.974729
 21
20.373435
 31
0.0
  0
LINE
  5
217
100
AcDbEntity
  8
2
370
    15
390
0
  6
Continuous
 62
     7
100
AcDbLine
 10
26.056386
 20
20.413253
 30
0.0
 11
26.104901
 21
20.413253
 31
0.0
  0
LINE
  5
218
100
AcDbEntity
  8
2
370
    15
390
0
  6
Continuous
 62
     7
100
AcDbLine
 10
25.974729
 20
19.129442
 30
0.0
 11
25.974729
 21
19.047434
 31
0.0
  0
LINE
  5
219
100
AcDbEntity
  8
2
370
    15
390
0
  6
Continuous
 62
     7
100
AcDbLine
 10
26.051938
 20
19.087252
 30
0.0
 11
26.117269
 21
19.087252
 31
0.0
  0
LINE
  5
21A
100
AcDbEntity
  8
2
370
    15
390
0
  6
Continuous
 62
     7
100
AcDbLine
 10
25.974729
 20
20.362441
 30
0.0
 11
25.974729
 21
20.448803
 31
0.0
  0
LINE
  5
21B
100
AcDbEntity
  8
2
370
    15
390
0
  6
Continuous
 62
     7
100
AcDbLine
 10
25.974729
 20
20.413253
 30
0.0
 11
26.016915
 21
20.413253
 31
0.0
  0
LINE
  5
21C
100
AcDbEntity
  8
2
370
    15
390
0
  6
Continuous
 62
     7
100
AcDbLine
 10
25.974729
 20
19.087252
 30
0.0
 11
26.016915
 21
19.087252
 31
0.0
  0
ARC
  5
21D
100
AcDbEntity
  8
2
370
    15
390
0
  6
Continuous
 62
     7
100
AcDbCircle
 10
25.974729
 20
19.087252
 30
0.0
 40
0.117001
100
AcDbArc
 50
270.0
 51
450.0
  0
ARC
  5
21E
100
AcDbEntity
  8
2
370
    15
390
0
  6
Continuous
 62
     7
100
AcDbCircle
 10
25.974729
 20
20.413253
 30
0.0
 40
0.117001
100
AcDbArc
 50
270.0
 51
450.0
  0
ARC
  5
21F
100
AcDbEntity
  8
2
370
    15
390
0
  6
Continuous
 62
     7
100
AcDbCircle
 10
25.974728
 20
17.768251
 30
0.0
 40
0.117001
100
AcDbArc
 50
270.0
 51
450.0
  0
LINE
  5
220
100
AcDbEntity
  8
1
370
    15
390
0
  6
Continuous
 62
     1
100
AcDbLine
 10
25.302228
 20
21.344254
 30
0.0
 11
25.369444
 21
21.344254
 31
0.0
  0
LINE
  5
221
100
AcDbEntity
  8
1
370
    15
390
0
  6
Continuous
 62
     1
100
AcDbLine
 10
25.255227
 20
21.391254
 30
0.0
 11
25.369444
 21
21.391254
 31
0.0
  0
LINE
  5
222
100
AcDbEntity
  8
1
370
    15
390
0
  6
Continuous
 62
     1
100
AcDbLine
 10
25.372731
 20
17.492418
 30
0.0
 11
25.477915
 21
17.492418
 31
0.0
  0
LINE
  5
223
100
AcDbEntity
  8
1
370
    15
390
0
  6
Continuous
 62
     1
100
AcDbLine
 10
25.349729
 20
17.532255
 30
0.0
 11
25.477915
 21
17.532255
 31
0.0
  0
LINE
  5
224
100
AcDbEntity
  8
1
370
    15
390
0
  6
Continuous
 62
     1
100
AcDbLine
 10
25.349729
 20
18.662685
 30
0.0
 11
25.477915
 21
18.662685
 31
0.0
  0
LINE
  5
225
100
AcDbEntity
  8
1
370
    15
390
0
  6
Continuous
 62
     1
100
AcDbLine
 10
25.32573
 20
18.704256
 30
0.0
 11
25.477915
 21
18.704256
 31
0.0
  0
LINE
  5
226
100
AcDbEntity
  8
1
370
    15
390
0
  6
Continuous
 62
     1
100
AcDbLine
 10
25.32573
 20
19.80455
 30
0.0
 11
25.477915
 21
19.80455
 31
0.0
  0
LINE
  5
227
100
AcDbEntity
  8
1
370
    15
390
0
  6
Continuous
 62
     1
100
AcDbLine
 10
25.302228
 20
19.845255
 30
0.0
 11
25.477915
 21
19.845255
 31
0.0
  0
LINE
  5
228
100
AcDbEntity
  8
1
370
    15
390
0
  6
Continuous
 62
     1
100
AcDbLine
 10
25.26613
 20
20.891254
 30
0.0
 11
25.477915
 21
20.891254
 31
0.0
  0
LINE
  5
229
100
AcDbEntity
  8
3
370
    15
390
0
  6
Continuous
 62
     1
100
AcDbLine
 10
25.95697
 20
24.741603
 30
0.0
 11
25.634132
 21
24.741603
 31
0.0
  0
LINE
  5
22A
100
AcDbEntity
  8
3
370
    15
390
0
  6
Continuous
 62
     1
100
AcDbLine
 10
25.634132
 20
24.741603
 30
0.0
 11
25.634132
 21
21.626254
 31
0.0
  0
LINE
  5
22B
100
AcDbEntity
  8
3
370
    15
390
0
  6
Continuous
 62
     1
100
AcDbLine
 10
25.95697
 20
24.283473
 30
0.0
 11
25.845804
 21
24.283473
 31
0.0
  0
LINE
  5
22C
100
AcDbEntity
  8
3
370
    15
390
0
  6
Continuous
 62
     1
100
AcDbLine
 10
25.845804
 20
21.579255
 30
0.0
 11
25.845804
 21
24.283473
 31
0.0
  0
LINE
  5
22D
100
AcDbEntity
  8
0
370
    15
390
0
  6
Continuous
 62
     1
100
AcDbLine
 10
26.597905
 20
17.069253
 30
0.0
 11
28.45874
 21
17.069253
 31
0.0
  0
LINE
  5
22E
100
AcDbEntity
  8
0
370
    15
390
0
  6
Continuous
 62
     1
100
AcDbLine
 10
25.00556
 20
19.258786
 30
0.0
 11
25.285865
 21
18.773299
 31
0.0
  0
LINE
  5
22F
100
AcDbEntity
  8
0
370
    15
390
0
  6
Continuous
 62
     1
100
AcDbLine
 10
26.999173
 20
19.079254
 30
0.0
 11
29.687185
 21
19.079209
 31
0.0
  0
LINE
  5
230
100
AcDbEntity
  8
0
370
    15
390
0
  6
Continuous
 62
     1
100
AcDbLine
 10
26.794986
 20
17.907255
 30
0.0
 11
29.687185
 21
17.907255
 31
0.0
  0
LINE
  5
231
100
AcDbEntity
  8
4
370
    15
390
0
  6
Continuous
 62
     7
100
AcDbLine
 10
28.317948
 20
22.107017
 30
0.0
 11
28.397977
 21
22.275352
 31
0.0
  0
TEXT
  5
232
100
AcDbEntity
  8
4
370
    15
390
0
  6
Continuous
 62
     7
100
AcDbText
 10
28.290456
 20
22.122183
 30
0.0
 40
0.16275
  1
O
  7
Vcadd_SIMP
100
AcDbText
  0
LINE
  5
233
100
AcDbEntity
  8
1
370
    15
390
0
  6
Continuous
 62
     7
100
AcDbLine
 10
22.263439
 20
22.593143
 30
0.0
 11
22.398644
 21
22.593143
 31
0.0
  0
LINE
  5
234
100
AcDbEntity
  8
1
370
    15
390
0
  6
Continuous
 62
     7
100
AcDbLine
 10
22.513039
 20
22.394996
 30
0.0
 11
22.398644
 21
22.593143
 31
0.0
  0
CIRCLE
  5
235
100
AcDbEntity
  8
1
370
    15
390
0
  6
Continuous
 62
     1
100
AcDbCircle
 10
22.392681
 20
22.532379
 30
0.0
 40
0.276708
  0
LINE
  5
236
100
AcDbEntity
  8
1
370
    15
390
0
  6
Continuous
 62
     7
100
AcDbLine
 10
22.263439
 20
22.593143
 30
0.0
 11
22.263439
 21
22.779125
 31
0.0
  0
LINE
  5
237
100
AcDbEntity
  8
1
370
    15
390
0
  6
Continuous
 62
     7
100
AcDbLine
 10
22.513039
 20
22.283214
 30
0.0
 11
22.513039
 21
22.394996
 31
0.0
  0
LINE
  5
238
100
AcDbEntity
  8
1
370
    15
390
0
  6
Continuous
 62
     1
100
AcDbLine
 10
22.398644
 20
22.628131
 30
0.0
 11
22.398644
 21
23.151462
 31
0.0
  0
LINE
  5
239
100
AcDbEntity
  8
1
370
    15
390
0
  6
Continuous
 62
     1
100
AcDbLine
 10
22.117569
 20
23.079979
 30
0.0
 11
22.381493
 21
22.622848
 31
0.0
  0
INSERT
  5
247
100
AcDbEntity
  8
3
370
    30
390
0
  6
Continuous
 62
     1
100
AcDbBlockReference
  2
MAU
 10
22.398644
 20
23.066139
 30
0.0
 42
-1.0
 50
270.0
  0
LINE
  5
248
100
AcDbEntity
  8
3
370
    15
390
0
  6
Continuous
 62
     1
100
AcDbLine
 10
22.651325
 20
23.066139
 30
0.0
 11
22.398644
 21
23.066139
 31
0.0
  0
INSERT
  5
256
100
AcDbEntity
  8
3
370
    40
390
0
  6
Continuous
 62
     1
100
AcDbBlockReference
  2
MAL
 10
22.162644
 20
23.001907
 30
0.0
 42
-1.0
 50
205.0
  0
LINE
  5
257
100
AcDbEntity
  8
3
370
    15
390
0
  6
Continuous
 62
     1
100
AcDbLine
 10
21.949074
 20
22.891418
 30
0.0
 11
22.162644
 21
23.001907
 31
0.0
  0
INSERT
  5
258
100
AcDbEntity
  8
3
370
    30
390
0
  6
Continuous
 62
     1
100
AcDbBlockReference
  2
MAU
 10
22.398644
 20
22.707767
 30
0.0
 42
-1.0
 50
270.0
  0
LINE
  5
259
100
AcDbEntity
  8
3
370
    15
390
0
  6
Continuous
 62
     1
100
AcDbLine
 10
22.812969
 20
22.707767
 30
0.0
 11
22.398644
 21
22.707767
 31
0.0
  0
LINE
  5
25A
100
AcDbEntity
  8
4
370
    15
390
0
  6
Continuous
 62
     1
100
AcDbLine
 10
22.812969
 20
22.707767
 30
0.0
 11
23.388647
 21
22.707767
 31
0.0
  0
TEXT
  5
25B
100
AcDbEntity
  8
4
370
    15
390
0
  6
Continuous
 62
     7
100
AcDbText
 10
23.46106
 20
22.643222
 30
0.0
 40
0.16275
  1
O
  7
Vcadd_SIMP
100
AcDbText
  0
TEXT
  5
25C
100
AcDbEntity
  8
4
370
    15
390
0
  6
Continuous
 62
     7
100
AcDbText
 10
22.696472
 20
22.997406
 30
0.0
 40
0.142
  1
30^ **
  7
Vcadd_SIMP
100
AcDbText
  0
LINE
  5
25D
100
AcDbEntity
  8
4
370
    15
390
0
  6
Continuous
 62
     7
100
AcDbLine
 10
23.489362
 20
22.628059
 30
0.0
 11
23.569391
 21
22.796394
 31
0.0
  0
LINE
  5
25E
100
AcDbEntity
  8
4
370
    15
390
0
  6
Continuous
 62
     7
100
AcDbLine
 10
24.466315
 20
22.11008
 30
0.0
 11
24.546343
 21
22.278415
 31
0.0
  0
LINE
  5
25F
100
AcDbEntity
  8
4
370
    15
390
0
  6
Continuous
 62
     7
100
AcDbLine
 10
24.466315
 20
21.327847
 30
0.0
 11
24.546343
 21
21.496184
 31
0.0
  0
LINE
  5
260
100
AcDbEntity
  8
4
370
    15
390
0
  6
Continuous
 62
     7
100
AcDbLine
 10
24.466315
 20
20.408753
 30
0.0
 11
24.546343
 21
20.577088
 31
0.0
  0
TEXT
  5
261
100
AcDbEntity
  8
4
370
    15
390
0
  6
Continuous
 62
     7
100
AcDbText
 10
24.440079
 20
22.125245
 30
0.0
 40
0.16275
  1
O
  7
Vcadd_SIMP
100
AcDbText
  0
TEXT
  5
262
100
AcDbEntity
  8
4
370
    15
390
0
  6
Continuous
 62
     7
100
AcDbText
 10
24.440079
 20
20.423918
 30
0.0
 40
0.16275
  1
O
  7
Vcadd_SIMP
100
AcDbText
  0
TEXT
  5
263
100
AcDbEntity
  8
4
370
    15
390
0
  6
Continuous
 62
     7
100
AcDbText
 10
24.440079
 20
21.355762
 30
0.0
 40
0.16275
  1
O
  7
Vcadd_SIMP
100
AcDbText
  0
LINE
  5
264
100
AcDbEntity
  8
4
370
    15
390
0
  6
Continuous
 62
     1
100
AcDbLine
 10
24.816076
 20
21.425145
 30
0.0
 11
24.60843
 21
21.425145
 31
0.0
  0
LINE
  5
265
100
AcDbEntity
  8
3
370
    15
390
0
  6
Continuous
 62
     1
100
AcDbLine
 10
24.389515
 20
20.489108
 30
0.0
 11
23.716958
 21
20.489108
 31
0.0
  0
LINE
  5
266
100
AcDbEntity
  8
4
370
    15
390
0
  6
Continuous
 62
     1
100
AcDbLine
 10
24.374927
 20
22.194203
 30
0.0
 11
23.716958
 21
22.194203
 31
0.0
  0
TEXT
  5
267
100
AcDbEntity
  8
4
370
    15
390
0
  6
Continuous
 62
     7
100
AcDbText
 10
22.809587
 20
21.614126
 30
0.0
 40
0.142
  1
L.S.
  7
Vcadd_SIMP
100
AcDbText
  0
LINE
  5
268
100
AcDbEntity
  8
0
370
    15
390
0
  6
Continuous
 62
     1
100
AcDbLine
 10
25.262979
 20
19.845255
 30
0.0
 11
22.75009
 21
19.845255
 31
0.0
  0
LINE
  5
269
100
AcDbEntity
  8
4
370
    15
390
0
  6
Continuous
 62
     7
100
AcDbLine
 10
24.464465
 20
19.342446
 30
0.0
 11
24.544493
 21
19.510782
 31
0.0
  0
TEXT
  5
26A
100
AcDbEntity
  8
4
370
    15
390
0
  6
Continuous
 62
     7
100
AcDbText
 10
24.436784
 20
19.357611
 30
0.0
 40
0.16275
  1
O
  7
Vcadd_SIMP
100
AcDbText
  0
LINE
  5
26B
100
AcDbEntity
  8
3
370
    15
390
0
  6
Continuous
 62
     1
100
AcDbLine
 10
24.389515
 20
19.422801
 30
0.0
 11
23.716958
 21
19.422801
 31
0.0
  0
LINE
  5
26C
100
AcDbEntity
  8
0
370
    15
390
0
  6
Continuous
 62
     1
100
AcDbLine
 10
25.291631
 20
18.704256
 30
0.0
 11
22.75009
 21
18.704256
 31
0.0
  0
LINE
  5
26D
100
AcDbEntity
  8
3
370
    15
390
0
  6
Continuous
 62
     1
100
AcDbLine
 10
25.349729
 20
18.662685
 30
0.0
 11
25.137468
 21
18.525312
 31
0.0
  0
ARC
  5
26E
100
AcDbEntity
  8
3
370
    15
390
0
  6
Continuous
 62
     1
100
AcDbCircle
 10
25.350224
 20
17.531378
 30
0.0
 40
0.581717
100
AcDbArc
 50
60.092953
 51
89.999729
  0
ARC
  5
26F
100
AcDbEntity
  8
3
370
    15
390
0
  6
Continuous
 62
     1
100
AcDbCircle
 10
25.350219
 20
17.531394
 30
0.0
 40
0.581698
100
AcDbArc
 50
120.000305
 51
146.52141
  0
LINE
  5
270
100
AcDbEntity
  8
0
370
    15
390
0
  6
Continuous
 62
     1
100
AcDbLine
 10
25.029558
 20
18.086785
 30
0.0
 11
25.309863
 21
17.601298
 31
0.0
  0
LINE
  5
271
100
AcDbEntity
  8
3
370
    15
390
0
  6
Continuous
 62
     1
100
AcDbLine
 10
25.349729
 20
18.253444
 30
0.0
 11
24.60843
 21
18.253444
 31
0.0
  0
LINE
  5
272
100
AcDbEntity
  8
4
370
    15
390
0
  6
Continuous
 62
     1
100
AcDbLine
 10
24.784997
 20
18.334513
 30
0.0
 11
24.821231
 21
18.263221
 31
0.0
  0
LINE
  5
273
100
AcDbEntity
  8
4
370
    15
390
0
  6
Continuous
 62
     1
100
AcDbLine
 10
24.821231
 20
18.263221
 30
0.0
 11
24.985424
 21
18.46865
 31
0.0
  0
LINE
  5
274
100
AcDbEntity
  8
4
370
    15
390
0
  6
Continuous
 62
     1
100
AcDbLine
 10
24.990395
 20
18.474869
 30
0.0
 11
24.902057
 21
18.474869
 31
0.0
  0
LINE
  5
275
100
AcDbEntity
  8
4
370
    15
390
0
  6
Continuous
 62
     7
100
AcDbLine
 10
24.46385
 20
18.17309
 30
0.0
 11
24.543879
 21
18.341425
 31
0.0
  0
TEXT
  5
276
100
AcDbEntity
  8
4
370
    15
390
0
  6
Continuous
 62
     7
100
AcDbText
 10
24.43854
 20
18.188254
 30
0.0
 40
0.16275
  1
O
  7
Vcadd_SIMP
100
AcDbText
  0
LINE
  5
277
100
AcDbEntity
  8
3
370
    15
390
0
  6
Continuous
 62
     1
100
AcDbLine
 10
24.389515
 20
18.253444
 30
0.0
 11
23.716958
 21
18.253444
 31
0.0
  0
TEXT
  5
278
100
AcDbEntity
  8
4
370
    15
390
0
  6
Continuous
 62
     7
100
AcDbText
 10
24.504338
 20
19.103304
 30
0.0
 40
0.142
  1
30^  
  7
Vcadd_SIMP
100
AcDbText
  0
TEXT
  5
279
100
AcDbEntity
  8
4
370
    15
390
0
  6
Continuous
 62
     7
100
AcDbText
 10
24.504338
 20
18.890304
 30
0.0
 40
0.142
  1
**
  7
Vcadd_SIMP
100
AcDbText
  0
TEXT
  5
27A
100
AcDbEntity
  8
4
370
    15
390
0
  6
Continuous
 62
     7
100
AcDbText
 10
24.528336
 20
17.931303
 30
0.0
 40
0.142
  1
30^  
  7
Vcadd_SIMP
100
AcDbText
  0
TEXT
  5
27B
100
AcDbEntity
  8
4
370
    15
390
0
  6
Continuous
 62
     7
100
AcDbText
 10
24.528336
 20
17.718303
 30
0.0
 40
0.142
  1
**
  7
Vcadd_SIMP
100
AcDbText
  0
LINE
  5
27C
100
AcDbEntity
  8
3
370
    15
390
0
  6
Continuous
 62
     1
100
AcDbLine
 10
24.572086
 20
18.831381
 30
0.0
 11
24.370167
 21
18.831381
 31
0.0
  0
LINE
  5
27D
100
AcDbEntity
  8
4
370
    15
390
0
  6
Continuous
 62
     1
100
AcDbLine
 10
24.572086
 20
18.831381
 30
0.0
 11
25.137468
 21
18.525312
 31
0.0
  0
LINE
  5
27E
100
AcDbEntity
  8
3
370
    15
390
0
  6
Continuous
 62
     1
100
AcDbLine
 10
25.372731
 20
17.492418
 30
0.0
 11
25.160471
 21
17.355045
 31
0.0
  0
LINE
  5
27F
100
AcDbEntity
  8
3
370
    15
390
0
  6
Continuous
 62
     1
100
AcDbLine
 10
24.999736
 20
17.661114
 30
0.0
 11
24.39317
 21
17.661114
 31
0.0
  0
LINE
  5
280
100
AcDbEntity
  8
4
370
    15
390
0
  6
Continuous
 62
     1
100
AcDbLine
 10
25.160471
 20
17.355045
 30
0.0
 11
24.999736
 21
17.661114
 31
0.0
  0
TEXT
  5
281
100
AcDbEntity
  8
4
370
    15
390
0
  6
Continuous
 62
     7
100
AcDbText
 10
23.353659
 20
17.746842
 30
0.0
 40
0.142
  1
**
  7
Vcadd_SIMP
100
AcDbText
  0
TEXT
  5
282
100
AcDbEntity
  8
4
370
    15
390
0
  6
Continuous
 62
     7
100
AcDbText
 10
23.330657
 20
18.917109
 30
0.0
 40
0.142
  1
**
  7
Vcadd_SIMP
100
AcDbText
  0
ARC
  5
283
100
AcDbEntity
  8
3
370
    15
390
0
  6
Continuous
 62
     1
100
AcDbCircle
 10
25.302723
 20
19.844378
 30
0.0
 40
0.581717
100
AcDbArc
 50
60.092953
 51
89.999729
  0
ARC
  5
284
100
AcDbEntity
  8
3
370
    15
390
0
  6
Continuous
 62
     1
100
AcDbCircle
 10
25.302718
 20
19.844394
 30
0.0
 40
0.581698
100
AcDbArc
 50
120.000305
 51
146.52141
  0
LINE
  5
285
100
AcDbEntity
  8
0
370
    15
390
0
  6
Continuous
 62
     1
100
AcDbLine
 10
24.982058
 20
20.399785
 30
0.0
 11
25.262362
 21
19.914298
 31
0.0
  0
LINE
  5
286
100
AcDbEntity
  8
3
370
    15
390
0
  6
Continuous
 62
     1
100
AcDbLine
 10
25.326226
 20
19.803684
 30
0.0
 11
25.113966
 21
19.666311
 31
0.0
  0
LINE
  5
287
100
AcDbEntity
  8
3
370
    15
390
0
  6
Continuous
 62
     1
100
AcDbLine
 10
24.548583
 20
19.97238
 30
0.0
 11
24.346665
 21
19.97238
 31
0.0
  0
LINE
  5
288
100
AcDbEntity
  8
4
370
    15
390
0
  6
Continuous
 62
     1
100
AcDbLine
 10
24.548583
 20
19.97238
 30
0.0
 11
25.113966
 21
19.666311
 31
0.0
  0
TEXT
  5
289
100
AcDbEntity
  8
4
370
    15
390
0
  6
Continuous
 62
     7
100
AcDbText
 10
23.307155
 20
20.058108
 30
0.0
 40
0.142
  1
**
  7
Vcadd_SIMP
100
AcDbText
  0
LINE
  5
28A
100
AcDbEntity
  8
3
370
    15
390
0
  6
Continuous
 62
     1
100
AcDbLine
 10
25.372731
 20
17.262854
 30
0.0
 11
24.60843
 21
17.262854
 31
0.0
  0
LINE
  5
28B
100
AcDbEntity
  8
4
370
    15
390
0
  6
Continuous
 62
     1
100
AcDbLine
 10
24.784997
 20
17.334146
 30
0.0
 11
24.821231
 21
17.262854
 31
0.0
  0
LINE
  5
28C
100
AcDbEntity
  8
4
370
    15
390
0
  6
Continuous
 62
     1
100
AcDbLine
 10
24.821231
 20
17.262854
 30
0.0
 11
24.985424
 21
17.468283
 31
0.0
  0
LINE
  5
28D
100
AcDbEntity
  8
4
370
    15
390
0
  6
Continuous
 62
     1
100
AcDbLine
 10
24.990395
 20
17.474502
 30
0.0
 11
24.902057
 21
17.474502
 31
0.0
  0
LINE
  5
28E
100
AcDbEntity
  8
4
370
    15
390
0
  6
Continuous
 62
     7
100
AcDbLine
 10
24.46385
 20
17.1825
 30
0.0
 11
24.543879
 21
17.350835
 31
0.0
  0
TEXT
  5
28F
100
AcDbEntity
  8
4
370
    15
390
0
  6
Continuous
 62
     7
100
AcDbText
 10
24.43854
 20
17.197664
 30
0.0
 40
0.16275
  1
O
  7
Vcadd_SIMP
100
AcDbText
  0
LINE
  5
290
100
AcDbEntity
  8
3
370
    15
390
0
  6
Continuous
 62
     1
100
AcDbLine
 10
24.389515
 20
17.262854
 30
0.0
 11
23.716958
 21
17.262854
 31
0.0
  0
ARC
  5
291
100
AcDbEntity
  8
4
370
    15
390
0
  6
Continuous
 62
     1
100
AcDbCircle
 10
25.320054
 20
21.326431
 30
0.0
 40
0.731923
100
AcDbArc
 50
315.0
 51
334.186528
  0
ARC
  5
292
100
AcDbEntity
  8
4
370
    15
390
0
  6
Continuous
 62
     1
100
AcDbCircle
 10
25.320054
 20
21.326431
 30
0.0
 40
0.731923
100
AcDbArc
 50
248.456372
 51
270.0
  0
TEXT
  5
293
100
AcDbEntity
  8
4
370
    15
390
0
  6
Continuous
 62
     7
100
AcDbText
 10
25.412704
 20
20.609856
 30
0.0
 40
0.142
  1
45^  
  7
Vcadd_SIMP
100
AcDbText
  0
LINE
  5
294
100
AcDbEntity
  8
4
370
    15
390
0
  6
Continuous
 62
     1
100
AcDbLine
 10
25.376124
 20
21.270361
 30
0.0
 11
25.91308
 21
20.733405
 31
0.0
  0
LINE
  5
295
100
AcDbEntity
  8
3
370
    15
390
0
  6
Continuous
 62
     1
100
AcDbLine
 10
24.525641
 20
21.175675
 30
0.0
 11
24.817936
 21
21.391254
 31
0.0
  0
LINE
  5
296
100
AcDbEntity
  8
3
370
    15
390
0
  6
Continuous
 62
     1
100
AcDbLine
 10
24.525641
 20
21.175675
 30
0.0
 11
22.75009
 21
21.175675
 31
0.0
  0
LINE
  5
297
100
AcDbEntity
  8
3
370
    15
390
0
  6
Continuous
 62
     1
100
AcDbLine
 10
24.60843
 20
20.489108
 30
0.0
 11
24.765618
 21
20.489108
 31
0.0
  0
LINE
  5
298
100
AcDbEntity
  8
3
370
    15
390
0
  6
Continuous
 62
     1
100
AcDbLine
 10
24.881342
 20
20.763741
 30
0.0
 11
25.302228
 21
20.763741
 31
0.0
  0
LINE
  5
299
100
AcDbEntity
  8
4
370
    15
390
0
  6
Continuous
 62
     1
100
AcDbLine
 10
24.765618
 20
20.489108
 30
0.0
 11
24.881342
 21
20.763741
 31
0.0
  0
LINE
  5
29A
100
AcDbEntity
  8
4
370
    15
390
0
  6
TYPE___8
 62
     1
100
AcDbLine
 10
22.611347
 20
22.734793
 30
0.0
 11
22.488696
 21
22.78636
 31
0.0
  0
LINE
  5
29B
100
AcDbEntity
  8
4
370
    15
390
0
  6
TYPE___8
 62
     1
100
AcDbLine
 10
25.261103
 20
21.620738
 30
0.0
 11
24.372278
 21
21.994433
 31
0.0
  0
LINE
  5
29C
100
AcDbEntity
  8
4
370
    15
390
0
  6
TYPE___8
 62
     1
100
AcDbLine
 10
23.662208
 20
22.292972
 30
0.0
 11
23.17945
 21
22.495941
 31
0.0
  0
LINE
  5
29D
100
AcDbEntity
  8
4
370
    15
390
0
  6
TYPE___8
 62
     1
100
AcDbLine
 10
25.225473
 20
21.513851
 30
0.0
 11
25.066742
 21
21.55508
 31
0.0
  0
LINE
  5
29E
100
AcDbEntity
  8
4
370
    15
390
0
  6
TYPE___8
 62
     1
100
AcDbLine
 10
24.685964
 20
21.653984
 30
0.0
 11
22.289115
 21
22.276545
 31
0.0
  0
LINE
  5
29F
100
AcDbEntity
  8
3
370
    15
390
0
  6
Continuous
 62
     1
100
AcDbLine
 10
27.6309
 20
18.527683
 30
0.0
 11
27.839034
 21
18.527683
 31
0.0
  0
LINE
  5
2A0
100
AcDbEntity
  8
3
370
    15
390
0
  6
Continuous
 62
     1
100
AcDbLine
 10
27.6309
 20
17.355684
 30
0.0
 11
27.839034
 21
17.355684
 31
0.0
  0
LINE
  5
2A1
100
AcDbEntity
  8
4
370
    15
390
0
  6
Continuous
 62
     1
100
AcDbLine
 10
27.6309
 20
18.720255
 30
0.0
 11
27.6309
 21
18.527683
 31
0.0
  0
LINE
  5
2A2
100
AcDbEntity
  8
4
370
    15
390
0
  6
Continuous
 62
     1
100
AcDbLine
 10
27.6309
 20
17.548254
 30
0.0
 11
27.6309
 21
17.355684
 31
0.0
  0
LINE
  5
2A3
100
AcDbEntity
  8
3
370
    15
390
0
  6
Continuous
 62
     1
100
AcDbLine
 10
28.170764
 20
21.610255
 30
0.0
 11
28.170764
 21
21.847336
 31
0.0
  0
LINE
  5
2A4
100
AcDbEntity
  8
3
370
    15
390
0
  6
Continuous
 62
     1
100
AcDbLine
 10
28.170764
 20
21.579255
 30
0.0
 11
28.170764
 21
21.156202
 31
0.0
  0
LINE
  5
2A5
100
AcDbEntity
  8
0
370
    15
390
0
  6
Continuous
 62
     1
100
AcDbLine
 10
26.993528
 20
21.610255
 30
0.0
 11
28.297527
 21
21.610255
 31
0.0
  0
LINE
  5
2A6
100
AcDbEntity
  8
0
370
    15
390
0
  6
Continuous
 62
     1
100
AcDbLine
 10
26.682344
 20
22.549254
 30
0.0
 11
27.441197
 21
22.549254
 31
0.0
  0
LINE
  5
2A7
100
AcDbEntity
  8
4
370
    15
390
0
  6
Continuous
 62
     1
100
AcDbLine
 10
28.487758
 20
22.179931
 30
0.0
 11
28.720064
 21
22.179931
 31
0.0
  0
LINE
  5
2A8
100
AcDbEntity
  8
4
370
    15
390
0
  6
Continuous
 62
     1
100
AcDbLine
 10
28.294038
 20
23.009657
 30
0.0
 11
28.109767
 21
23.009657
 31
0.0
  0
LINE
  5
2A9
100
AcDbEntity
  8
4
370
    15
390
0
  6
Continuous
 62
     1
100
AcDbLine
 10
28.720064
 20
22.379672
 30
0.0
 11
28.109767
 21
22.379672
 31
0.0
  0
LINE
  5
2AA
100
AcDbEntity
  8
4
370
    15
390
0
  6
Continuous
 62
     1
100
AcDbLine
 10
28.109767
 20
22.379672
 30
0.0
 11
28.109767
 21
23.009657
 31
0.0
  0
LINE
  5
2AB
100
AcDbEntity
  8
4
370
    15
390
0
  6
Continuous
 62
     1
100
AcDbLine
 10
28.720064
 20
22.179931
 30
0.0
 11
28.720064
 21
22.379672
 31
0.0
  0
LINE
  5
2AC
100
AcDbEntity
  8
4
370
    15
390
0
  6
Continuous
 62
     1
100
AcDbLine
 10
27.983771
 20
23.513644
 30
0.0
 11
27.441197
 21
22.549254
 31
0.0
  0
LINE
  5
2AD
100
AcDbEntity
  8
0
370
    15
390
0
  6
CL____X1
 62
     1
100
AcDbLine
 10
25.221231
 20
22.525106
 30
0.0
 11
25.221231
 21
21.626254
 31
0.0
  0
LINE
  5
2AE
100
AcDbEntity
  8
4
370
    15
390
0
  6
CL____X1
 62
     1
100
AcDbLine
 10
25.099729
 20
22.595255
 30
0.0
 11
25.221231
 21
22.525106
 31
0.0
  0
LINE
  5
2AF
100
AcDbEntity
  8
4
370
    15
390
0
  6
CL____X1
 62
     1
100
AcDbLine
 10
25.099729
 20
22.595255
 30
0.0
 11
25.099729
 21
22.816724
 31
0.0
  0
LINE
  5
2B0
100
AcDbEntity
  8
1
370
    15
390
0
  6
Continuous
 62
     7
100
AcDbLine
 10
25.193231
 20
22.690727
 30
0.0
 11
25.193231
 21
21.579255
 31
0.0
  0
LINE
  5
2B1
100
AcDbEntity
  8
4
370
    15
390
0
  6
Continuous
 62
     1
100
AcDbLine
 10
24.369212
 20
21.408713
 30
0.0
 11
23.669762
 21
21.408713
 31
0.0
  0
LINE
  5
2B2
100
AcDbEntity
  8
4
370
    15
390
0
  6
Continuous
 62
     1
100
AcDbLine
 10
23.653313
 20
21.512477
 30
0.0
 11
23.452523
 21
21.512477
 31
0.0
  0
LINE
  5
2B3
100
AcDbEntity
  8
4
370
    15
390
0
  6
Continuous
 62
     1
100
AcDbLine
 10
23.653313
 20
21.512477
 30
0.0
 11
23.452523
 21
21.512477
 31
0.0
  0
LINE
  5
2B4
100
AcDbEntity
  8
4
370
    15
390
0
  6
Continuous
 62
     1
100
AcDbLine
 10
23.653313
 20
21.30495
 30
0.0
 11
23.452523
 21
21.30495
 31
0.0
  0
LINE
  5
2B5
100
AcDbEntity
  8
4
370
    15
390
0
  6
Continuous
 62
     1
100
AcDbLine
 10
23.452523
 20
21.30495
 30
0.0
 11
23.429352
 21
21.30495
 31
0.0
  0
LINE
  5
2B6
100
AcDbEntity
  8
4
370
    15
390
0
  6
Continuous
 62
     1
100
AcDbLine
 10
23.429352
 20
21.30495
 30
0.0
 11
23.429352
 21
21.512477
 31
0.0
  0
LINE
  5
2B7
100
AcDbEntity
  8
4
370
    15
390
0
  6
Continuous
 62
     1
100
AcDbLine
 10
23.429352
 20
21.512477
 30
0.0
 11
23.487412
 21
21.512477
 31
0.0
  0
LINE
  5
2B8
100
AcDbEntity
  8
4
370
    15
390
0
  6
Continuous
 62
     1
100
AcDbLine
 10
23.653313
 20
21.30495
 30
0.0
 11
23.669762
 21
21.30495
 31
0.0
  0
LINE
  5
2B9
100
AcDbEntity
  8
4
370
    15
390
0
  6
Continuous
 62
     1
100
AcDbLine
 10
23.669762
 20
21.30495
 30
0.0
 11
23.669762
 21
21.512477
 31
0.0
  0
LINE
  5
2BA
100
AcDbEntity
  8
4
370
    15
390
0
  6
Continuous
 62
     1
100
AcDbLine
 10
23.669762
 20
21.512477
 30
0.0
 11
23.596444
 21
21.512477
 31
0.0
  0
TEXT
  5
2BB
100
AcDbEntity
  8
4
370
    15
390
0
  6
Continuous
 62
     7
100
AcDbText
 10
23.482537
 20
21.342402
 30
0.0
 40
0.142
  1
A
  7
Vcadd_SIMP
100
AcDbText
  0
LINE
  5
2BC
100
AcDbEntity
  8
0
370
    15
390
0
  6
Continuous
 62
     1
100
AcDbLine
 10
26.26375
 20
16.079255
 30
0.0
 11
28.352708
 21
16.079245
 31
0.0
  0
TEXT
  5
2BD
100
AcDbEntity
  8
4
370
    15
390
0
  6
Continuous
 62
     7
100
AcDbText
 10
27.526092
 20
22.125665
 30
0.0
 40
0.142
  1
44,45
  7
Vcadd_SIMP
100
AcDbText
  0
TEXT
  5
2BE
100
AcDbEntity
  8
4
370
    15
390
0
  6
Continuous
 62
     7
100
AcDbText
 10
29.621394
 20
21.954433
 30
0.0
 40
0.142
  1
11,13*
  7
Vcadd_SIMP
100
AcDbText
  0
LINE
  5
2BF
100
AcDbEntity
  8
4
370
    15
390
0
  6
Continuous
 62
     1
100
AcDbLine
 10
26.898623
 20
22.017255
 30
0.0
 11
29.593123
 21
22.017255
 31
0.0
  0
TEXT
  5
2C0
100
AcDbEntity
  8
4
370
    15
390
0
  6
Continuous
 62
     7
100
AcDbText
 10
29.734096
 20
20.001027
 30
0.0
 40
0.142
  1
30,18
  7
Vcadd_SIMP
100
AcDbText
  0
TEXT
  5
2C1
100
AcDbEntity
  8
4
370
    15
390
0
  6
Continuous
 62
     7
100
AcDbText
 10
29.861855
 20
21.520799
 30
0.0
 40
0.142
  1
0,00
  7
Vcadd_SIMP
100
AcDbText
  0
LINE
  5
2C2
100
AcDbEntity
  8
0
370
    15
390
0
  6
Continuous
 62
     1
100
AcDbLine
 10
26.783186
 20
21.579255
 30
0.0
 11
29.837775
 21
21.579255
 31
0.0
  0
LINE
  5
2C3
100
AcDbEntity
  8
3
370
    15
390
0
  6
Continuous
 62
     1
100
AcDbLine
 10
27.467983
 20
22.179931
 30
0.0
 11
26.84732
 21
22.179931
 31
0.0
  0
TEXT
  5
2C4
100
AcDbEntity
  8
4
370
    15
390
0
  6
Continuous
 62
     7
100
AcDbText
 10
27.888995
 20
18.473473
 30
0.0
 40
0.142
  1
18,26
  7
Vcadd_SIMP
100
AcDbText
  0
TEXT
  5
2C5
100
AcDbEntity
  8
4
370
    15
390
0
  6
Continuous
 62
     7
100
AcDbText
 10
27.888995
 20
17.287383
 30
0.0
 40
0.142
  1
18,26
  7
Vcadd_SIMP
100
AcDbText
  0
TEXT
  5
2C6
100
AcDbEntity
  8
4
370
    15
390
0
  6
Continuous
 62
     7
100
AcDbText
 10
29.730815
 20
19.023607
 30
0.0
 40
0.142
  1
63,50
  7
Vcadd_SIMP
100
AcDbText
  0
TEXT
  5
2C7
100
AcDbEntity
  8
4
370
    15
390
0
  6
Continuous
 62
     7
100
AcDbText
 10
29.731558
 20
17.839166
 30
0.0
 40
0.142
  1
93,27
  7
Vcadd_SIMP
100
AcDbText
  0
TEXT
  5
2C8
100
AcDbEntity
  8
4
370
    15
390
0
  6
Continuous
 62
     7
100
AcDbText
 10
22.020705
 20
17.096602
 30
0.0
 40
0.142
  1
114,50
  7
Vcadd_SIMP
100
AcDbText
  0
TEXT
  5
2C9
100
AcDbEntity
  8
4
370
    15
390
0
  6
Continuous
 62
     7
100
AcDbText
 10
22.020705
 20
16.919102
 30
0.0
 40
0.142
  1
114,60
  7
Vcadd_SIMP
100
AcDbText
  0
LINE
  5
2CA
100
AcDbEntity
  8
3
370
    15
390
0
  6
Continuous
 62
     1
100
AcDbLine
 10
25.322731
 20
17.069253
 30
0.0
 11
22.903021
 21
17.069253
 31
0.0
  0
LINE
  5
2CB
100
AcDbEntity
  8
4
370
    15
390
0
  6
Continuous
 62
     1
100
AcDbLine
 10
22.854356
 20
17.069253
 30
0.0
 11
22.030689
 21
17.069253
 31
0.0
  0
TEXT
  5
2CC
100
AcDbEntity
  8
4
370
    15
390
0
  6
Continuous
 62
     7
100
AcDbText
 10
24.594725
 20
17.389261
 30
0.0
 40
0.096
  1
1,6
  7
Vcadd_SIMP
100
AcDbText
  0
TEXT
  5
2CD
100
AcDbEntity
  8
4
370
    15
390
0
  6
Continuous
 62
     7
100
AcDbText
 10
24.594725
 20
18.389627
 30
0.0
 40
0.096
  1
1,6
  7
Vcadd_SIMP
100
AcDbText
  0
TEXT
  5
2CE
100
AcDbEntity
  8
4
370
    15
390
0
  6
Continuous
 62
     7
100
AcDbText
 10
24.594725
 20
19.552171
 30
0.0
 40
0.096
  1
1,6
  7
Vcadd_SIMP
100
AcDbText
  0
TEXT
  5
2CF
100
AcDbEntity
  8
4
370
    15
390
0
  6
Continuous
 62
     7
100
AcDbText
 10
23.712295
 20
19.444696
 30
0.0
 40
0.142
  1
32,92
  7
Vcadd_SIMP
100
AcDbText
  0
TEXT
  5
2D0
100
AcDbEntity
  8
4
370
    15
390
0
  6
Continuous
 62
     7
100
AcDbText
 10
23.712295
 20
19.267197
 30
0.0
 40
0.142
  1
32,97
  7
Vcadd_SIMP
100
AcDbText
  0
TEXT
  5
2D1
100
AcDbEntity
  8
4
370
    15
390
0
  6
Continuous
 62
     7
100
AcDbText
 10
23.708194
 20
18.282967
 30
0.0
 40
0.142
  1
31,75
  7
Vcadd_SIMP
100
AcDbText
  0
TEXT
  5
2D2
100
AcDbEntity
  8
4
370
    15
390
0
  6
Continuous
 62
     7
100
AcDbText
 10
23.708194
 20
18.105467
 30
0.0
 40
0.142
  1
31,80
  7
Vcadd_SIMP
100
AcDbText
  0
TEXT
  5
2D3
100
AcDbEntity
  8
4
370
    15
390
0
  6
Continuous
 62
     7
100
AcDbText
 10
23.708194
 20
17.292377
 30
0.0
 40
0.142
  1
30,56
  7
Vcadd_SIMP
100
AcDbText
  0
TEXT
  5
2D4
100
AcDbEntity
  8
4
370
    15
390
0
  6
Continuous
 62
     7
100
AcDbText
 10
23.708194
 20
17.114878
 30
0.0
 40
0.142
  1
30,61
  7
Vcadd_SIMP
100
AcDbText
  0
TEXT
  5
2D5
100
AcDbEntity
  8
4
370
    15
390
0
  6
Continuous
 62
     7
100
AcDbText
 10
22.024795
 20
18.644346
 30
0.0
 40
0.142
  1
73,03
  7
Vcadd_SIMP
100
AcDbText
  0
TEXT
  5
2D6
100
AcDbEntity
  8
4
370
    15
390
0
  6
Continuous
 62
     7
100
AcDbText
 10
22.023679
 20
17.461956
 30
0.0
 40
0.142
  1
102,79
  7
Vcadd_SIMP
100
AcDbText
  0
LINE
  5
2D7
100
AcDbEntity
  8
3
370
    15
390
0
  6
Continuous
 62
     1
100
AcDbLine
 10
25.299728
 20
17.532255
 30
0.0
 11
22.884496
 21
17.532255
 31
0.0
  0
TEXT
  5
2D8
100
AcDbEntity
  8
4
370
    15
390
0
  6
Continuous
 62
     7
100
AcDbText
 10
24.594725
 20
21.550984
 30
0.0
 40
0.096
  1
1,6
  7
Vcadd_SIMP
100
AcDbText
  0
LINE
  5
2D9
100
AcDbEntity
  8
0
370
    15
390
0
  6
Continuous
 62
     1
100
AcDbLine
 10
24.57455
 20
21.579255
 30
0.0
 11
22.75009
 21
21.579255
 31
0.0
  0
TEXT
  5
2DA
100
AcDbEntity
  8
4
370
    15
390
0
  6
Continuous
 62
     7
100
AcDbText
 10
22.157694
 20
21.517859
 30
0.0
 40
0.142
  1
0,00
  7
Vcadd_SIMP
100
AcDbText
  0
TEXT
  5
2DB
100
AcDbEntity
  8
4
370
    15
390
0
  6
Continuous
 62
     7
100
AcDbText
 10
22.023751
 20
19.780514
 30
0.0
 40
0.142
  1
44,04
  7
Vcadd_SIMP
100
AcDbText
  0
TEXT
  5
2DC
100
AcDbEntity
  8
4
370
    15
390
0
  6
Continuous
 62
     7
100
AcDbText
 10
23.714919
 20
21.430814
 30
0.0
 40
0.142
  1
36,53
  7
Vcadd_SIMP
100
AcDbText
  0
TEXT
  5
2DD
100
AcDbEntity
  8
4
370
    15
390
0
  6
Continuous
 62
     7
100
AcDbText
 10
23.714919
 20
21.253314
 30
0.0
 40
0.142
  1
36,58
  7
Vcadd_SIMP
100
AcDbText
  0
TEXT
  5
2DE
100
AcDbEntity
  8
4
370
    15
390
0
  6
Continuous
 62
     7
100
AcDbText
 10
22.168229
 20
21.107532
 30
0.0
 40
0.142
  1
4,78
  7
Vcadd_SIMP
100
AcDbText
  0
TEXT
  5
2DF
100
AcDbEntity
  8
4
370
    15
390
0
  6
Continuous
 62
     7
100
AcDbText
 10
23.712295
 20
20.515115
 30
0.0
 40
0.142
  1
34,11
  7
Vcadd_SIMP
100
AcDbText
  0
TEXT
  5
2E0
100
AcDbEntity
  8
4
370
    15
390
0
  6
Continuous
 62
     7
100
AcDbText
 10
23.712295
 20
20.337615
 30
0.0
 40
0.142
  1
34,21
  7
Vcadd_SIMP
100
AcDbText
  0
TEXT
  5
2E1
100
AcDbEntity
  8
4
370
    15
390
0
  6
Continuous
 62
     7
100
AcDbText
 10
23.718701
 20
22.048186
 30
0.0
 40
0.142
  1
39,73
  7
Vcadd_SIMP
100
AcDbText
  0
TEXT
  5
2E2
100
AcDbEntity
  8
4
370
    15
390
0
  6
Continuous
 62
     7
100
AcDbText
 10
22.715974
 20
22.732372
 30
0.0
 40
0.142
  1
37,29
  7
Vcadd_SIMP
100
AcDbText
  0
TEXT
  5
2E3
100
AcDbEntity
  8
4
370
    15
390
0
  6
Continuous
 62
     7
100
AcDbText
 10
22.715974
 20
22.554872
 30
0.0
 40
0.142
  1
37,34
  7
Vcadd_SIMP
100
AcDbText
  0
LINE
  5
2E4
100
AcDbEntity
  8
4
370
    15
390
0
  6
Continuous
 62
     1
100
AcDbLine
 10
25.422461
 20
25.199603
 30
0.0
 11
25.923093
 21
25.199603
 31
0.0
  0
TEXT
  5
2E5
100
AcDbEntity
  8
4
370
    15
390
0
  6
Continuous
 62
     7
100
AcDbText
 10
24.480135
 20
20.218593
 30
0.0
 40
0.142
  1
30^  
  7
Vcadd_SIMP
100
AcDbText
  0
TEXT
  5
2E6
100
AcDbEntity
  8
4
370
    15
390
0
  6
Continuous
 62
     7
100
AcDbText
 10
24.480135
 20
20.005593
 30
0.0
 40
0.142
  1
**
  7
Vcadd_SIMP
100
AcDbText
  0
TEXT
  5
2E7
100
AcDbEntity
  8
4
370
    15
390
0
  6
Continuous
 62
     7
100
AcDbText
 10
23.48678
 20
17.594035
 30
0.0
 40
0.142
  1
0,50 R
  7
Vcadd_SIMP
100
AcDbText
  0
TEXT
  5
2E8
100
AcDbEntity
  8
4
370
    15
390
0
  6
Continuous
 62
     7
100
AcDbText
 10
23.463778
 20
18.764302
 30
0.0
 40
0.142
  1
0,50 R
  7
Vcadd_SIMP
100
AcDbText
  0
TEXT
  5
2E9
100
AcDbEntity
  8
4
370
    15
390
0
  6
Continuous
 62
     7
100
AcDbText
 10
23.440275
 20
19.905301
 30
0.0
 40
0.142
  1
0,50 R
  7
Vcadd_SIMP
100
AcDbText
  0
LINE
  5
2EA
100
AcDbEntity
  8
4
370
    15
390
0
  6
Continuous
 62
     1
100
AcDbLine
 10
22.186753
 20
22.593143
 30
0.0
 11
21.708001
 21
22.593143
 31
0.0
  0
TEXT
  5
2EB
100
AcDbEntity
  8
4
370
    15
390
0
  6
Continuous
 62
     7
100
AcDbText
 10
21.184525
 20
22.524927
 30
0.0
 40
0.142
  1
L.S.
  7
Vcadd_SIMP
100
AcDbText
  0
INSERT
  5
2F4
100
AcDbEntity
  8
3
370
    15
390
0
  6
Continuous
 62
     7
100
AcDbBlockReference
  2
ARROW
 10
25.372731
 20
17.069253
 30
0.0
 50
55.873642
  0
INSERT
  5
2F5
100
AcDbEntity
  8
3
370
    15
390
0
  6
Continuous
 62
     7
100
AcDbBlockReference
  2
ARROW
 10
25.035369
 20
19.207158
 30
0.0
 50
36.81237
  0
INSERT
  5
2F6
100
AcDbEntity
  8
3
370
    15
390
0
  6
Continuous
 62
     7
100
AcDbBlockReference
  2
ARROW
 10
25.326228
 20
19.285096
 30
0.0
 50
174.153183
  0
INSERT
  5
2F7
100
AcDbEntity
  8
3
370
    15
390
0
  6
Continuous
 62
     7
100
AcDbBlockReference
  2
ARROW
 10
25.349729
 20
18.662685
 30
0.0
 50
32.910698
  0
INSERT
  5
2F8
100
AcDbEntity
  8
3
370
    15
390
0
  6
Continuous
 62
     7
100
AcDbBlockReference
  2
ARROW
 10
25.422461
 20
21.626254
 30
0.0
 50
270.0
  0
INSERT
  5
2F9
100
AcDbEntity
  8
3
370
    15
390
0
  6
Continuous
 62
     7
100
AcDbBlockReference
  2
ARROW
 10
25.422461
 20
21.579255
 30
0.0
 41
-1.0
 50
270.0
  0
INSERT
  5
2FA
100
AcDbEntity
  8
3
370
    15
390
0
  6
Continuous
 62
     7
100
AcDbBlockReference
  2
ARROW
 10
26.84732
 20
22.179931
 30
0.0
 50
180.0
  0
INSERT
  5
2FB
100
AcDbEntity
  8
3
370
    15
390
0
  6
Continuous
 62
     7
100
AcDbBlockReference
  2
ARROW
 10
27.6309
 20
19.438253
 30
0.0
 50
90.0
  0
INSERT
  5
2FC
100
AcDbEntity
  8
3
370
    15
390
0
  6
Continuous
 62
     7
100
AcDbBlockReference
  2
ARROW
 10
27.6309
 20
18.720255
 30
0.0
 50
270.0
  0
INSERT
  5
2FD
100
AcDbEntity
  8
3
370
    15
390
0
  6
Continuous
 62
     7
100
AcDbBlockReference
  2
ARROW
 10
27.6309
 20
18.266254
 30
0.0
 50
90.0
  0
INSERT
  5
2FE
100
AcDbEntity
  8
3
370
    15
390
0
  6
Continuous
 62
     7
100
AcDbBlockReference
  2
ARROW
 10
27.6309
 20
17.548254
 30
0.0
 50
270.0
  0
INSERT
  5
2FF
100
AcDbEntity
  8
4
370
    15
390
0
  6
Continuous
 62
     7
100
AcDbBlockReference
  2
ARROW
 10
25.193231
 20
22.190434
 30
0.0
  0
INSERT
  5
300
100
AcDbEntity
  8
4
370
    15
390
0
  6
Continuous
 62
     7
100
AcDbBlockReference
  2
ARROW
 10
25.255227
 20
21.425145
 30
0.0
  0
INSERT
  5
301
100
AcDbEntity
  8
4
370
    15
390
0
  6
Continuous
 62
     7
100
AcDbBlockReference
  2
ARROW
 10
25.32573
 20
19.422801
 30
0.0
  0
INSERT
  5
302
100
AcDbEntity
  8
4
370
    15
390
0
  6
Continuous
 62
     7
100
AcDbBlockReference
  2
ARROW
 10
25.537229
 20
16.325719
 30
0.0
  0
INSERT
  5
303
100
AcDbEntity
  8
3
370
    15
390
0
  6
Continuous
 62
     7
100
AcDbBlockReference
  2
ARROW
 10
25.059367
 20
18.035157
 30
0.0
 50
36.81237
  0
INSERT
  5
304
100
AcDbEntity
  8
3
370
    15
390
0
  6
Continuous
 62
     7
100
AcDbBlockReference
  2
ARROW
 10
25.350226
 20
18.113095
 30
0.0
 50
174.153183
  0
INSERT
  5
305
100
AcDbEntity
  8
4
370
    15
390
0
  6
Continuous
 62
     7
100
AcDbBlockReference
  2
ARROW
 10
25.349729
 20
18.253444
 30
0.0
  0
INSERT
  5
306
100
AcDbEntity
  8
3
370
    15
390
0
  6
Continuous
 62
     7
100
AcDbBlockReference
  2
ARROW
 10
25.372731
 20
17.492418
 30
0.0
 50
32.910698
  0
INSERT
  5
307
100
AcDbEntity
  8
3
370
    15
390
0
  6
Continuous
 62
     7
100
AcDbBlockReference
  2
ARROW
 10
25.011867
 20
20.348157
 30
0.0
 50
36.81237
  0
INSERT
  5
308
100
AcDbEntity
  8
3
370
    15
390
0
  6
Continuous
 62
     7
100
AcDbBlockReference
  2
ARROW
 10
25.302726
 20
20.426095
 30
0.0
 50
174.153183
  0
INSERT
  5
309
100
AcDbEntity
  8
3
370
    15
390
0
  6
Continuous
 62
     7
100
AcDbBlockReference
  2
ARROW
 10
25.326226
 20
19.803684
 30
0.0
 50
32.910698
  0
INSERT
  5
30A
100
AcDbEntity
  8
3
370
    15
390
0
  6
Continuous
 62
     7
100
AcDbBlockReference
  2
ARROW
 10
25.372731
 20
17.262854
 30
0.0
  0
INSERT
  5
30B
100
AcDbEntity
  8
4
370
     0
390
0
  6
Continuous
 62
     1
100
AcDbBlockReference
  2
ARROW
 10
25.320054
 20
20.594508
 30
0.0
 41
1.0
 50
352.34741
  0
INSERT
  5
30C
100
AcDbEntity
  8
4
370
     0
390
0
  6
Continuous
 62
     1
100
AcDbBlockReference
  2
ARROW
 10
25.837602
 20
20.808883
 30
0.0
 41
1.0
 42
1.0
 50
231.917248
  0
INSERT
  5
30D
100
AcDbEntity
  8
4
370
    15
390
0
  6
Continuous
 62
     7
100
AcDbBlockReference
  2
ARROW
 10
25.302228
 20
20.763741
 30
0.0
  0
INSERT
  5
30E
100
AcDbEntity
  8
3
370
    15
390
0
  6
Continuous
 62
     7
100
AcDbBlockReference
  2
ARROW
 10
28.170764
 20
21.610255
 30
0.0
 50
270.0
  0
INSERT
  5
30F
100
AcDbEntity
  8
3
370
    15
390
0
  6
Continuous
 62
     7
100
AcDbBlockReference
  2
ARROW
 10
28.170764
 20
21.579255
 30
0.0
 50
90.0
  0
LINE
  5
310
100
AcDbEntity
  8
4
370
    15
390
0
  6
Continuous
 62
     1
100
AcDbLine
 10
26.401324
 20
23.560378
 30
0.0
 11
26.236811
 21
23.560378
 31
0.0
  0
LINE
  5
311
100
AcDbEntity
  8
4
370
    15
390
0
  6
Continuous
 62
     1
100
AcDbLine
 10
26.236811
 20
23.560378
 30
0.0
 11
26.45091
 21
22.549254
 31
0.0
  0
INSERT
  5
312
100
AcDbEntity
  8
4
370
     0
390
0
  6
Continuous
 62
     1
100
AcDbBlockReference
  2
ARROW
 10
26.45091
 20
22.549254
 30
0.0
 42
1.0
 50
281.955436
  0
TEXT
  5
313
100
AcDbEntity
  8
0
370
    15
390
0
  6
Continuous
 62
     7
100
AcDbText
 10
22.388352
 20
12.563185
 30
0.0
 40
0.09
  1
Wichtige Bemerkung:
  7
Vcadd_SIMP
100
AcDbText
  0
TEXT
  5
314
100
AcDbEntity
  8
0
370
    15
390
0
  6
Continuous
 62
     7
100
AcDbText
 10
22.388352
 20
12.428185
 30
0.0
 40
0.09
  1
Diese Zeichnung beschreibt ein
  7
Vcadd_SIMP
100
AcDbText
  0
TEXT
  5
315
100
AcDbEntity
  8
0
370
    15
390
0
  6
Continuous
 62
     7
100
AcDbText
 10
22.388352
 20
12.293185
 30
0.0
 40
0.09
  1
Produkt der Firma SUN Hydraulik
  7
Vcadd_SIMP
100
AcDbText
  0
TEXT
  5
316
100
AcDbEntity
  8
0
370
    15
390
0
  6
Continuous
 62
     7
100
AcDbText
 10
22.388352
 20
12.158185
 30
0.0
 40
0.09
  1
und darf nicht ohne Genehmigung
  7
Vcadd_SIMP
100
AcDbText
  0
TEXT
  5
317
100
AcDbEntity
  8
0
370
    15
390
0
  6
Continuous
 62
     7
100
AcDbText
 10
22.388352
 20
12.023185
 30
0.0
 40
0.09
  1
vervielfδltigt oder an Dritte wei-
  7
Vcadd_SIMP
100
AcDbText
  0
TEXT
  5
318
100
AcDbEntity
  8
0
370
    15
390
0
  6
Continuous
 62
     7
100
AcDbText
 10
22.388352
 20
11.888185
 30
0.0
 40
0.09
  1
tergegeben werden. 
  7
Vcadd_SIMP
100
AcDbText
  0
TEXT
  5
319
100
AcDbEntity
  8
0
370
    15
390
0
  6
Continuous
 62
     7
100
AcDbText
 10
22.496505
 20
11.593765
 30
0.0
 40
0.09
  1
SUN HYDRAULICS CORPORATION
  7
Vcadd_SIMP
100
AcDbText
  0
TEXT
  5
31A
100
AcDbEntity
  8
0
370
    15
390
0
  6
Continuous
 62
     7
100
AcDbText
 10
22.354659
 20
11.600639
 30
0.0
 40
0.085
  1
C
  7
Vcadd_SIMP
100
AcDbText
  0
CIRCLE
  5
31B
100
AcDbEntity
  8
4
370
    15
390
0
  6
Continuous
 62
     1
100
AcDbCircle
 10
22.384158
 20
11.633607
 30
0.0
 40
0.058579
  0
TEXT
  5
31C
100
AcDbEntity
  8
4
370
    15
390
0
  6
Continuous
 62
     7
100
AcDbText
 10
25.919467
 20
13.633969
 30
0.0
 40
0.133
  1
Freiraum fόr Sechskantnuss
  7
Vcadd_SIMP
100
AcDbText
  0
TEXT
  5
31D
100
AcDbEntity
  8
4
370
    15
390
0
  6
Continuous
 62
     7
100
AcDbText
 10
25.919467
 20
13.434469
 30
0.0
 40
0.133
  1
Max. empfohlene Tiefe bis zum LS-Anschlag
  7
Vcadd_SIMP
100
AcDbText
  0
TEXT
  5
31E
100
AcDbEntity
  8
4
370
    15
390
0
  6
Continuous
 62
     7
100
AcDbText
 10
25.919467
 20
13.234969
 30
0.0
 40
0.133
  1
ohne Freiraum fόr die Sechskantnuss
  7
Vcadd_SIMP
100
AcDbText
  0
TEXT
  5
31F
100
AcDbEntity
  8
4
370
    15
390
0
  6
Continuous
 62
     7
100
AcDbText
 10
25.919467
 20
13.035469
 30
0.0
 40
0.133
  1
Min. Abstand von der Mittellinie bis zur End-
  7
Vcadd_SIMP
100
AcDbText
  0
TEXT
  5
320
100
AcDbEntity
  8
4
370
    15
390
0
  6
Continuous
 62
     7
100
AcDbText
 10
25.919467
 20
12.835969
 30
0.0
 40
0.133
  1
kante des Ventilkφrpers
  7
Vcadd_SIMP
100
AcDbText
  0
TEXT
  5
321
100
AcDbEntity
  8
4
370
    15
390
0
  6
Continuous
 62
     7
100
AcDbText
 10
25.919467
 20
12.636469
 30
0.0
 40
0.133
  1
Min. Abstand von der Mittellinie bis zur Mittel-
  7
Vcadd_SIMP
100
AcDbText
  0
TEXT
  5
322
100
AcDbEntity
  8
4
370
    15
390
0
  6
Continuous
 62
     7
100
AcDbText
 10
25.919467
 20
12.436969
 30
0.0
 40
0.133
  1
linie bei gleicher Einschraubbohrung
  7
Vcadd_SIMP
100
AcDbText
  0
TEXT
  5
323
100
AcDbEntity
  8
4
370
    15
390
0
  6
Continuous
 62
     7
100
AcDbText
 10
25.355222
 20
13.632276
 30
0.0
 40
0.133
  1
44,45
  7
Vcadd_SIMP
100
AcDbText
  0
TEXT
  5
324
100
AcDbEntity
  8
4
370
    15
390
0
  6
Continuous
 62
     7
100
AcDbText
 10
25.355222
 20
13.432776
 30
0.0
 40
0.133
  1
11,13
  7
Vcadd_SIMP
100
AcDbText
  0
TEXT
  5
325
100
AcDbEntity
  8
4
370
    15
390
0
  6
Continuous
 62
     7
100
AcDbText
 10
25.355222
 20
13.233276
 30
0.0
 40
0.133
  1
26,19
  7
Vcadd_SIMP
100
AcDbText
  0
TEXT
  5
326
100
AcDbEntity
  8
4
370
    15
390
0
  6
Continuous
 62
     7
100
AcDbText
 10
25.355222
 20
13.033776
 30
0.0
 40
0.133
  1
45,24
  7
Vcadd_SIMP
100
AcDbText
  0
TEXT
  5
327
100
AcDbEntity
  8
4
370
    15
390
0
  6
Continuous
 62
     7
100
AcDbText
 10
25.390188
 20
12.127161
 30
0.0
 40
0.133
  1
Name in Bohrtabelle: SUN STD T-33A CAVITY
  7
Vcadd_SIMP
100
AcDbText
  0
TEXT
  5
328
100
AcDbEntity
  8
4
370
    15
390
0
  6
Continuous
 62
     7
100
AcDbText
 10
25.390188
 20
11.927661
 30
0.0
 40
0.133
  1
Code in Bohrtabelle: T33A
  7
Vcadd_SIMP
100
AcDbText
  0
TEXT
  5
329
100
AcDbEntity
  8
4
370
    15
390
0
  6
Continuous
 62
     7
100
AcDbText
 10
27.431746
 20
14.255048
 30
0.0
 40
0.15
  1
Gewinde und alle
  7
Vcadd_SIMP
100
AcDbText
  0
TEXT
  5
32A
100
AcDbEntity
  8
4
370
    15
390
0
  6
Continuous
 62
     7
100
AcDbText
 10
27.431746
 20
14.060048
 30
0.0
 40
0.15
  1
Durchmesser
  7
Vcadd_SIMP
100
AcDbText
  0
TEXT
  5
32B
100
AcDbEntity
  8
0
370
    15
390
0
  6
Continuous
 62
     7
100
AcDbText
 10
29.669582
 20
12.092155
 30
0.0
 40
0.13
  1
T-33A Metrisch
 50
270.0
  7
Vcadd_SIMP
 72
     1
 11
30.398314
 21
12.092155
 31
0.0
100
AcDbText
  0
TEXT
  5
32C
100
AcDbEntity
  8
0
370
    15
390
0
  6
Continuous
 62
     7
100
AcDbText
 10
29.583196
 20
12.092155
 30
0.0
 40
0.13
  1
Blatt 3 von 3
 50
270.0
  7
Vcadd_SIMP
 72
     1
 11
30.229314
 21
12.092155
 31
0.0
100
AcDbText
  0
TEXT
  5
32D
100
AcDbEntity
  8
4
370
    15
390
0
  6
Continuous
 62
     7
100
AcDbText
 10
25.444323
 20
15.495545
 30
0.0
 40
0.13
  1
Anschluss #1
  7
Vcadd_SIMP
100
AcDbText
  0
TEXT
  5
32E
100
AcDbEntity
  8
4
370
    15
390
0
  6
Continuous
 62
     7
100
AcDbText
 10
27.83022
 20
18.027878
 30
0.0
 40
0.13
  1
Anschluss #2
  7
Vcadd_SIMP
100
AcDbText
  0
TEXT
  5
32F
100
AcDbEntity
  8
4
370
    15
390
0
  6
Continuous
 62
     7
100
AcDbText
 10
27.809596
 20
19.224126
 30
0.0
 40
0.13
  1
Anschluss #3
  7
Vcadd_SIMP
100
AcDbText
  0
TEXT
  5
330
100
AcDbEntity
  8
4
370
    15
390
0
  6
Continuous
 62
     7
100
AcDbText
 10
28.372698
 20
16.025122
 30
0.0
 40
0.142
  1
139,7
  7
Vcadd_SIMP
100
AcDbText
  0
TEXT
  5
331
100
AcDbEntity
  8
4
370
    15
390
0
  6
Continuous
 62
     7
100
AcDbText
 10
28.689867
 20
17.08753
 30
0.0
 40
0.12
  1
Abstόtzung
  7
Vcadd_SIMP
100
AcDbText
  0
TEXT
  5
332
100
AcDbEntity
  8
4
370
    15
390
0
  6
Continuous
 62
     7
100
AcDbText
 10
28.689867
 20
16.90753
 30
0.0
 40
0.12
  1
(fόr Ventilbuchse)
  7
Vcadd_SIMP
100
AcDbText
  0
TEXT
  5
333
100
AcDbEntity
  8
4
370
    15
390
0
  6
Continuous
 62
     7
100
AcDbText
 10
28.418231
 20
21.119493
 30
0.0
 40
0.12
  1
0,80 Empf. min. Abstand
  7
Vcadd_SIMP
100
AcDbText
  0
TEXT
  5
334
100
AcDbEntity
  8
4
370
    15
390
0
  6
Continuous
 62
     7
100
AcDbText
 10
28.418231
 20
20.939493
 30
0.0
 40
0.12
  1
von Oberflδche (gefrδίt)
  7
Vcadd_SIMP
100
AcDbText
  0
TEXT
  5
335
100
AcDbEntity
  8
4
370
    15
390
0
  6
Continuous
 62
     7
100
AcDbText
 10
28.414316
 20
20.746812
 30
0.0
 40
0.12
  1
1,60 Empf. min. Abstand
  7
Vcadd_SIMP
100
AcDbText
  0
TEXT
  5
336
100
AcDbEntity
  8
4
370
    15
390
0
  6
Continuous
 62
     7
100
AcDbText
 10
28.414316
 20
20.566812
 30
0.0
 40
0.12
  1
von Oberflδche (ungefrδίt)
  7
Vcadd_SIMP
100
AcDbText
  0
LINE
  5
337
100
AcDbEntity
  8
4
370
    15
390
0
  6
Continuous
 62
     1
100
AcDbLine
 10
28.331169
 20
21.156202
 30
0.0
 11
28.170764
 21
21.156202
 31
0.0
  0
TEXT
  5
338
100
AcDbEntity
  8
4
370
    15
390
0
  6
Continuous
 62
     7
100
AcDbText
 10
28.649742
 20
21.61966
 30
0.0
 40
0.12
  1
LS-Anschlag
  7
Vcadd_SIMP
 72
     1
 11
29.175556
 21
21.61966
 31
0.0
100
AcDbText
  0
TEXT
  5
339
100
AcDbEntity
  8
4
370
    15
390
0
  6
Continuous
 62
     7
100
AcDbText
 10
28.458997
 20
21.43966
 30
0.0
 40
0.12
  1
(Maίbezugskante)
  7
Vcadd_SIMP
 72
     1
 11
29.175556
 21
21.43966
 31
0.0
100
AcDbText
  0
TEXT
  5
33A
100
AcDbEntity
  8
4
370
    15
390
0
  6
Continuous
 62
     7
100
AcDbText
 10
28.557963
 20
22.949145
 30
0.0
 40
0.12
  1
Freiraum fόr
  7
Vcadd_SIMP
100
AcDbText
  0
TEXT
  5
33B
100
AcDbEntity
  8
4
370
    15
390
0
  6
Continuous
 62
     7
100
AcDbText
 10
28.557963
 20
22.769145
 30
0.0
 40
0.12
  1
Sechskantnuss
  7
Vcadd_SIMP
100
AcDbText
  0
TEXT
  5
33C
100
AcDbEntity
  8
4
370
    15
390
0
  6
Continuous
 62
     7
100
AcDbText
 10
28.393693
 20
22.957998
 30
0.0
 40
0.12
  1
*
  7
Vcadd_SIMP
100
AcDbText
  0
TEXT
  5
33D
100
AcDbEntity
  8
4
370
    15
390
0
  6
Continuous
 62
     7
100
AcDbText
 10
28.098346
 20
23.553869
 30
0.0
 40
0.12
  1
Min. Abstand des
  7
Vcadd_SIMP
100
AcDbText
  0
TEXT
  5
33E
100
AcDbEntity
  8
4
370
    15
390
0
  6
Continuous
 62
     7
100
AcDbText
 10
28.098346
 20
23.373869
 30
0.0
 40
0.12
  1
Sechskant
  7
Vcadd_SIMP
100
AcDbText
  0
LINE
  5
33F
100
AcDbEntity
  8
4
370
    15
390
0
  6
Continuous
 62
     1
100
AcDbLine
 10
29.3936
 20
23.513644
 30
0.0
 11
27.983771
 21
23.513644
 31
0.0
  0
TEXT
  5
340
100
AcDbEntity
  8
4
370
    15
390
0
  6
Continuous
 62
     7
100
AcDbText
 10
29.504479
 20
23.452745
 30
0.0
 40
0.142
  1
17,48
  7
Vcadd_SIMP
100
AcDbText
  0
TEXT
  5
341
100
AcDbEntity
  8
4
370
    15
390
0
  6
Continuous
 62
     7
100
AcDbText
 10
26.537445
 20
23.497619
 30
0.0
 40
0.12
  1
SW 31,80
  7
Vcadd_SIMP
100
AcDbText
  0
TEXT
  5
342
100
AcDbEntity
  8
4
370
    15
390
0
  6
Continuous
 62
     7
100
AcDbText
 10
23.436411
 20
26.764719
 30
0.0
 40
0.14
  1
T-
  7
Vcadd_SIMP
100
AcDbText
  0
TEXT
  5
343
100
AcDbEntity
  8
4
370
    15
390
0
  6
Continuous
 62
     7
100
AcDbText
 10
24.208943
 20
26.764719
 30
0.0
 40
0.14
  1
Einschraubventilbohrung
  7
Vcadd_SIMP
100
AcDbText
  0
LINE
  5
344
100
AcDbEntity
  8
3
370
    15
390
0
  6
Continuous
 62
     1
100
AcDbLine
 10
23.478069
 20
26.736372
 30
0.0
 11
27.419981
 21
26.736372
 31
0.0
  0
TEXT
  5
345
100
AcDbEntity
  8
4
370
    15
390
0
  6
Continuous
 62
     7
100
AcDbText
 10
23.215179
 20
26.496255
 30
0.0
 40
0.14
  1
(alle Abmessungen in Millimeter)
  7
Vcadd_SIMP
100
AcDbText
  0
TEXT
  5
346
100
AcDbEntity
  8
4
370
    15
390
0
  6
Continuous
 62
     7
100
AcDbText
 10
23.687262
 20
26.762011
 30
0.0
 40
0.14
  1
33A
  7
Vcadd_SIMP
100
AcDbText
  0
TEXT
  5
347
100
AcDbEntity
  8
4
370
    15
390
0
  6
Continuous
 62
     7
100
AcDbText
 10
23.021519
 20
26.253324
 30
0.0
 40
0.14
  1
M36 x 2.0-6H  ISO  (Metrisch) Gewinde
  7
Vcadd_SIMP
100
AcDbText
  0
LINE
  5
348
100
AcDbEntity
  8
4
370
    15
390
0
  6
Continuous
 62
     7
100
AcDbLine
 10
22.74377
 20
26.250504
 30
0.0
 11
22.81634
 21
26.376198
 31
0.0
  0
LINE
  5
349
100
AcDbEntity
  8
4
370
    15
390
0
  6
Continuous
 62
     7
100
AcDbLine
 10
22.88891
 20
26.250504
 30
0.0
 11
22.81634
 21
26.376198
 31
0.0
  0
LINE
  5
34A
100
AcDbEntity
  8
4
370
    15
390
0
  6
Continuous
 62
     7
100
AcDbLine
 10
22.74377
 20
26.250504
 30
0.0
 11
22.88891
 21
26.250504
 31
0.0
  0
TEXT
  5
34B
100
AcDbEntity
  8
4
370
    15
390
0
  6
Continuous
 62
     7
100
AcDbText
 10
23.6522
 20
25.975914
 30
0.0
 40
0.14
  1
34,70/34,93 PITCH DIA.
  7
Vcadd_SIMP
 72
     1
 11
25.4232
 21
25.975914
 31
0.0
100
AcDbText
  0
TEXT
  5
34C
100
AcDbEntity
  8
4
370
    15
390
0
  6
Continuous
 62
     7
100
AcDbText
 10
21.950955
 20
20.829534
 30
0.0
 40
0.142
  1
17,48
  7
Vcadd_SIMP
100
AcDbText
  0
TEXT
  5
34D
100
AcDbEntity
  8
4
370
    15
390
0
  6
Continuous
 62
     7
100
AcDbText
 10
22.676455
 20
20.924186
 30
0.0
 40
0.12
  1
Min. Abstand fόr Bereich mit
  7
Vcadd_SIMP
100
AcDbText
  0
TEXT
  5
34E
100
AcDbEntity
  8
4
370
    15
390
0
  6
Continuous
 62
     7
100
AcDbText
 10
22.676455
 20
20.744186
 30
0.0
 40
0.12
  1
vollstδndigen Gewindegδngen
  7
Vcadd_SIMP
100
AcDbText
  0
LINE
  5
34F
100
AcDbEntity
  8
4
370
    15
390
0
  6
Continuous
 62
     1
100
AcDbLine
 10
25.216129
 20
20.891254
 30
0.0
 11
22.66759
 21
20.891254
 31
0.0
  0
LINE
  5
350
100
AcDbEntity
  8
4
370
    15
390
0
  6
Continuous
 62
     7
100
AcDbLine
 10
24.274163
 20
16.241764
 30
0.0
 11
24.354191
 21
16.410099
 31
0.0
  0
TEXT
  5
351
100
AcDbEntity
  8
4
370
    15
390
0
  6
Continuous
 62
     7
100
AcDbText
 10
24.235746
 20
16.253122
 30
0.0
 40
0.16275
  1
O
  7
Vcadd_SIMP
100
AcDbText
  0
TEXT
  5
352
100
AcDbEntity
  8
4
370
    15
390
0
  6
Continuous
 62
     7
100
AcDbText
 10
23.500142
 20
16.25995
 30
0.0
 40
0.142
  1
22,23
  7
Vcadd_SIMP
100
AcDbText
  0
LINE
  5
353
100
AcDbEntity
  8
3
370
    15
390
0
  6
Continuous
 62
     1
100
AcDbLine
 10
25.537229
 20
16.325719
 30
0.0
 11
24.513471
 21
16.325719
 31
0.0
  0
TEXT
  5
354
100
AcDbEntity
  8
4
370
    15
390
0
  6
Continuous
 62
     7
100
AcDbText
 10
24.540949
 20
16.383394
 30
0.0
 40
0.12
  1
Vorbohrer
  7
Vcadd_SIMP
100
AcDbText
  0
TEXT
  5
355
100
AcDbEntity
  8
4
370
    15
390
0
  6
Continuous
 62
     7
100
AcDbText
 10
21.549506
 20
16.894834
 30
0.0
 40
0.13
  1
Abmessungen,Werkzeuge,Anschlόsse
 50
270.0
  7
Vcadd_SIMP
100
AcDbText
  0
TEXT
  5
356
100
AcDbEntity
  8
4
370
    15
390
0
  6
Continuous
 62
     7
100
AcDbText
 10
21.742349
 20
16.28208
 30
0.0
 40
0.13
  1
T-33A Einschraubbohrung
 50
270.0
  7
Vcadd_SIMP
100
AcDbText
  0
TEXT
  5
357
100
AcDbEntity
  8
0
370
    15
390
0
  6
Continuous
 62
     7
100
AcDbText
 10
21.010399
 20
12.062455
 30
0.0
 40
0.13
  1
T-33A Metrisch
 50
270.0
  7
Vcadd_SIMP
 72
     1
 11
21.739132
 21
12.062455
 31
0.0
100
AcDbText
  0
TEXT
  5
358
100
AcDbEntity
  8
0
370
    15
390
0
  6
Continuous
 62
     7
100
AcDbText
 10
20.924014
 20
12.062455
 30
0.0
 40
0.13
  1
Blatt 3 von 3
 50
270.0
  7
Vcadd_SIMP
 72
     1
 11
21.570132
 21
12.062455
 31
0.0
100
AcDbText
  0
CIRCLE
  5
359
100
AcDbEntity
  8
0
370
    15
390
0
  6
Continuous
 62
     7
100
AcDbCircle
 10
21.27618
 20
11.527291
 30
0.0
 40
0.054385
  0
CIRCLE
  5
35A
100
AcDbEntity
  8
0
370
    15
390
0
  6
Continuous
 62
     2
100
AcDbCircle
 10
21.097939
 20
13.32301
 30
0.0
 40
0.312
  0
LINE
  5
35B
100
AcDbEntity
  8
0
370
    15
390
0
  6
Continuous
 62
     7
100
AcDbLine
 10
21.162945
 20
13.440796
 30
0.0
 11
21.217411
 21
13.440796
 31
0.0
  0
LINE
  5
35C
100
AcDbEntity
  8
0
370
    15
390
0
  6
Continuous
 62
     7
100
AcDbLine
 10
21.162945
 20
13.533947
 30
0.0
 11
21.162945
 21
13.440796
 31
0.0
  0
LINE
  5
35D
100
AcDbEntity
  8
0
370
    15
390
0
  6
Continuous
 62
     7
100
AcDbLine
 10
21.125439
 20
13.533947
 30
0.0
 11
21.162945
 21
13.533947
 31
0.0
  0
LINE
  5
35E
100
AcDbEntity
  8
0
370
    15
390
0
  6
Continuous
 62
     7
100
AcDbLine
 10
21.125439
 20
13.440796
 30
0.0
 11
21.125439
 21
13.533947
 31
0.0
  0
LINE
  5
35F
100
AcDbEntity
  8
0
370
    15
390
0
  6
Continuous
 62
     7
100
AcDbLine
 10
20.978462
 20
13.440796
 30
0.0
 11
21.125439
 21
13.440796
 31
0.0
  0
LINE
  5
360
100
AcDbEntity
  8
0
370
    15
390
0
  6
Continuous
 62
     7
100
AcDbLine
 10
20.978462
 20
13.588948
 30
0.0
 11
20.978462
 21
13.440796
 31
0.0
  0
LINE
  5
361
100
AcDbEntity
  8
0
370
    15
390
0
  6
Continuous
 62
     7
100
AcDbLine
 10
21.033504
 20
13.588948
 30
0.0
 11
20.978462
 21
13.588948
 31
0.0
  0
LINE
  5
362
100
AcDbEntity
  8
0
370
    15
390
0
  6
Continuous
 62
     7
100
AcDbLine
 10
21.033504
 20
13.495797
 30
0.0
 11
21.033504
 21
13.588948
 31
0.0
  0
LINE
  5
363
100
AcDbEntity
  8
0
370
    15
390
0
  6
Continuous
 62
     7
100
AcDbLine
 10
21.070055
 20
13.495797
 30
0.0
 11
21.033504
 21
13.495797
 31
0.0
  0
LINE
  5
364
100
AcDbEntity
  8
0
370
    15
390
0
  6
Continuous
 62
     7
100
AcDbLine
 10
21.070055
 20
13.588948
 30
0.0
 11
21.070055
 21
13.495797
 31
0.0
  0
LINE
  5
365
100
AcDbEntity
  8
0
370
    15
390
0
  6
Continuous
 62
     7
100
AcDbLine
 10
21.217411
 20
13.588948
 30
0.0
 11
21.070055
 21
13.588948
 31
0.0
  0
LINE
  5
366
100
AcDbEntity
  8
0
370
    15
390
0
  6
Continuous
 62
     7
100
AcDbLine
 10
21.217411
 20
13.588948
 30
0.0
 11
21.217411
 21
13.440796
 31
0.0
  0
LINE
  5
367
100
AcDbEntity
  8
0
370
    15
390
0
  6
Continuous
 62
     7
100
AcDbLine
 10
21.217411
 20
13.248936
 30
0.0
 11
21.217411
 21
13.304642
 31
0.0
  0
LINE
  5
368
100
AcDbEntity
  8
0
370
    15
390
0
  6
Continuous
 62
     7
100
AcDbLine
 10
20.978462
 20
13.248936
 30
0.0
 11
21.217411
 21
13.248936
 31
0.0
  0
LINE
  5
369
100
AcDbEntity
  8
0
370
    15
390
0
  6
Continuous
 62
     7
100
AcDbLine
 10
20.978462
 20
13.397088
 30
0.0
 11
20.978462
 21
13.248936
 31
0.0
  0
LINE
  5
36A
100
AcDbEntity
  8
0
370
    15
390
0
  6
Continuous
 62
     7
100
AcDbLine
 10
21.217411
 20
13.397088
 30
0.0
 11
20.978462
 21
13.397088
 31
0.0
  0
LINE
  5
36B
100
AcDbEntity
  8
0
370
    15
390
0
  6
Continuous
 62
     7
100
AcDbLine
 10
21.217411
 20
13.342167
 30
0.0
 11
21.217411
 21
13.397088
 31
0.0
  0
LINE
  5
36C
100
AcDbEntity
  8
0
370
    15
390
0
  6
Continuous
 62
     7
100
AcDbLine
 10
21.033463
 20
13.342167
 30
0.0
 11
21.217411
 21
13.342167
 31
0.0
  0
LINE
  5
36D
100
AcDbEntity
  8
0
370
    15
390
0
  6
Continuous
 62
     7
100
AcDbLine
 10
21.033463
 20
13.304642
 30
0.0
 11
21.033463
 21
13.342167
 31
0.0
  0
LINE
  5
36E
100
AcDbEntity
  8
0
370
    15
390
0
  6
Continuous
 62
     7
100
AcDbLine
 10
21.033463
 20
13.304642
 30
0.0
 11
21.217411
 21
13.304642
 31
0.0
  0
LINE
  5
36F
100
AcDbEntity
  8
0
370
    15
390
0
  6
Continuous
 62
     7
100
AcDbLine
 10
20.978462
 20
13.147358
 30
0.0
 11
20.978462
 21
13.203064
 31
0.0
  0
LINE
  5
370
100
AcDbEntity
  8
0
370
    15
390
0
  6
Continuous
 62
     7
100
AcDbLine
 10
21.162411
 20
13.147358
 30
0.0
 11
20.978462
 21
13.147358
 31
0.0
  0
LINE
  5
371
100
AcDbEntity
  8
0
370
    15
390
0
  6
Continuous
 62
     7
100
AcDbLine
 10
21.162411
 20
13.109833
 30
0.0
 11
21.162411
 21
13.147358
 31
0.0
  0
LINE
  5
372
100
AcDbEntity
  8
0
370
    15
390
0
  6
Continuous
 62
     7
100
AcDbLine
 10
20.978462
 20
13.109833
 30
0.0
 11
21.162411
 21
13.109833
 31
0.0
  0
LINE
  5
373
100
AcDbEntity
  8
0
370
    15
390
0
  6
Continuous
 62
     7
100
AcDbLine
 10
20.978462
 20
13.054913
 30
0.0
 11
20.978462
 21
13.109833
 31
0.0
  0
LINE
  5
374
100
AcDbEntity
  8
0
370
    15
390
0
  6
Continuous
 62
     7
100
AcDbLine
 10
21.217411
 20
13.054913
 30
0.0
 11
20.978462
 21
13.054913
 31
0.0
  0
LINE
  5
375
100
AcDbEntity
  8
0
370
    15
390
0
  6
Continuous
 62
     7
100
AcDbLine
 10
21.217411
 20
13.203064
 30
0.0
 11
21.217411
 21
13.054913
 31
0.0
  0
LINE
  5
376
100
AcDbEntity
  8
0
370
    15
390
0
  6
Continuous
 62
     7
100
AcDbLine
 10
21.217411
 20
13.203064
 30
0.0
 11
20.978462
 21
13.203064
 31
0.0
  0
LINE
  5
377
100
AcDbEntity
  8
0
370
    15
390
0
  6
Continuous
 62
     7
100
AcDbLine
 10
21.193937
 20
12.838753
 30
0.0
 11
21.26062
 21
12.838753
 31
0.0
  0
LINE
  5
378
100
AcDbEntity
  8
0
370
    15
390
0
  6
Continuous
 62
     7
100
AcDbLine
 10
21.193937
 20
12.758393
 30
0.0
 11
21.193937
 21
12.838753
 31
0.0
  0
LINE
  5
379
100
AcDbEntity
  8
0
370
    15
390
0
  6
Continuous
 62
     7
100
AcDbLine
 10
20.997936
 20
12.758393
 30
0.0
 11
21.193937
 21
12.758393
 31
0.0
  0
LINE
  5
37A
100
AcDbEntity
  8
0
370
    15
390
0
  6
Continuous
 62
     7
100
AcDbLine
 10
20.997936
 20
12.798573
 30
0.0
 11
20.997936
 21
12.758393
 31
0.0
  0
LINE
  5
37B
100
AcDbEntity
  8
0
370
    15
390
0
  6
Continuous
 62
     7
100
AcDbLine
 10
21.153757
 20
12.798573
 30
0.0
 11
20.997936
 21
12.798573
 31
0.0
  0
LINE
  5
37C
100
AcDbEntity
  8
0
370
    15
390
0
  6
Continuous
 62
     7
100
AcDbLine
 10
21.153757
 20
12.838753
 30
0.0
 11
21.153757
 21
12.798573
 31
0.0
  0
LINE
  5
37D
100
AcDbEntity
  8
0
370
    15
390
0
  6
Continuous
 62
     7
100
AcDbLine
 10
20.997936
 20
12.838753
 30
0.0
 11
21.153757
 21
12.838753
 31
0.0
  0
LINE
  5
37E
100
AcDbEntity
  8
0
370
    15
390
0
  6
Continuous
 62
     7
100
AcDbLine
 10
20.997936
 20
12.878933
 30
0.0
 11
20.997936
 21
12.838753
 31
0.0
  0
LINE
  5
37F
100
AcDbEntity
  8
0
370
    15
390
0
  6
Continuous
 62
     7
100
AcDbLine
 10
21.26062
 20
12.878933
 30
0.0
 11
20.997936
 21
12.878933
 31
0.0
  0
LINE
  5
380
100
AcDbEntity
  8
0
370
    15
390
0
  6
Continuous
 62
     7
100
AcDbLine
 10
21.26062
 20
12.878933
 30
0.0
 11
21.26062
 21
12.838753
 31
0.0
  0
LINE
  5
381
100
AcDbEntity
  8
0
370
    15
390
0
  6
Continuous
 62
     7
100
AcDbLine
 10
21.038116
 20
12.678032
 30
0.0
 11
21.193937
 21
12.678032
 31
0.0
  0
LINE
  5
382
100
AcDbEntity
  8
0
370
    15
390
0
  6
Continuous
 62
     7
100
AcDbLine
 10
21.038116
 20
12.637852
 30
0.0
 11
21.038116
 21
12.678032
 31
0.0
  0
LINE
  5
383
100
AcDbEntity
  8
0
370
    15
390
0
  6
Continuous
 62
     7
100
AcDbLine
 10
21.193937
 20
12.637852
 30
0.0
 11
21.038116
 21
12.637852
 31
0.0
  0
LINE
  5
384
100
AcDbEntity
  8
0
370
    15
390
0
  6
Continuous
 62
     7
100
AcDbLine
 10
21.193937
 20
12.597672
 30
0.0
 11
21.193937
 21
12.637852
 31
0.0
  0
LINE
  5
385
100
AcDbEntity
  8
0
370
    15
390
0
  6
Continuous
 62
     7
100
AcDbLine
 10
20.918278
 20
12.597672
 30
0.0
 11
21.193937
 21
12.597672
 31
0.0
  0
LINE
  5
386
100
AcDbEntity
  8
0
370
    15
390
0
  6
Continuous
 62
     7
100
AcDbLine
 10
20.917576
 20
12.675591
 30
0.0
 11
20.918278
 21
12.597672
 31
0.0
  0
LINE
  5
387
100
AcDbEntity
  8
0
370
    15
390
0
  6
Continuous
 62
     7
100
AcDbLine
 10
20.957756
 20
12.675591
 30
0.0
 11
20.917576
 21
12.675591
 31
0.0
  0
LINE
  5
388
100
AcDbEntity
  8
0
370
    15
390
0
  6
Continuous
 62
     7
100
AcDbLine
 10
20.957756
 20
12.637852
 30
0.0
 11
20.957756
 21
12.675591
 31
0.0
  0
LINE
  5
389
100
AcDbEntity
  8
0
370
    15
390
0
  6
Continuous
 62
     7
100
AcDbLine
 10
20.997936
 20
12.637852
 30
0.0
 11
20.957756
 21
12.637852
 31
0.0
  0
LINE
  5
38A
100
AcDbEntity
  8
0
370
    15
390
0
  6
Continuous
 62
     7
100
AcDbLine
 10
20.997936
 20
12.718213
 30
0.0
 11
20.997936
 21
12.637852
 31
0.0
  0
LINE
  5
38B
100
AcDbEntity
  8
0
370
    15
390
0
  6
Continuous
 62
     7
100
AcDbLine
 10
21.193937
 20
12.718213
 30
0.0
 11
20.997936
 21
12.718213
 31
0.0
  0
LINE
  5
38C
100
AcDbEntity
  8
0
370
    15
390
0
  6
Continuous
 62
     7
100
AcDbLine
 10
21.193937
 20
12.718213
 30
0.0
 11
21.193937
 21
12.678032
 31
0.0
  0
LINE
  5
38D
100
AcDbEntity
  8
0
370
    15
390
0
  6
Continuous
 62
     7
100
AcDbLine
 10
21.26062
 20
12.475617
 30
0.0
 11
21.193937
 21
12.475617
 31
0.0
  0
LINE
  5
38E
100
AcDbEntity
  8
0
370
    15
390
0
  6
Continuous
 62
     7
100
AcDbLine
 10
21.26062
 20
12.435433
 30
0.0
 11
21.26062
 21
12.475617
 31
0.0
  0
LINE
  5
38F
100
AcDbEntity
  8
0
370
    15
390
0
  6
Continuous
 62
     7
100
AcDbLine
 10
20.997936
 20
12.435433
 30
0.0
 11
21.26062
 21
12.435433
 31
0.0
  0
LINE
  5
390
100
AcDbEntity
  8
0
370
    15
390
0
  6
Continuous
 62
     7
100
AcDbLine
 10
20.997936
 20
12.555977
 30
0.0
 11
20.997936
 21
12.435433
 31
0.0
  0
LINE
  5
391
100
AcDbEntity
  8
0
370
    15
390
0
  6
Continuous
 62
     7
100
AcDbLine
 10
21.193937
 20
12.555977
 30
0.0
 11
20.997936
 21
12.555977
 31
0.0
  0
LINE
  5
392
100
AcDbEntity
  8
0
370
    15
390
0
  6
Continuous
 62
     7
100
AcDbLine
 10
21.193937
 20
12.555977
 30
0.0
 11
21.193937
 21
12.475617
 31
0.0
  0
LINE
  5
393
100
AcDbEntity
  8
0
370
    15
390
0
  6
Continuous
 62
     7
100
AcDbLine
 10
21.153757
 20
12.475617
 30
0.0
 11
21.038116
 21
12.475617
 31
0.0
  0
LINE
  5
394
100
AcDbEntity
  8
0
370
    15
390
0
  6
Continuous
 62
     7
100
AcDbLine
 10
21.038116
 20
12.515793
 30
0.0
 11
21.038116
 21
12.475617
 31
0.0
  0
LINE
  5
395
100
AcDbEntity
  8
0
370
    15
390
0
  6
Continuous
 62
     7
100
AcDbLine
 10
21.153757
 20
12.515793
 30
0.0
 11
21.038116
 21
12.515793
 31
0.0
  0
LINE
  5
396
100
AcDbEntity
  8
0
370
    15
390
0
  6
Continuous
 62
     7
100
AcDbLine
 10
21.153757
 20
12.515793
 30
0.0
 11
21.153757
 21
12.475617
 31
0.0
  0
LINE
  5
397
100
AcDbEntity
  8
0
370
    15
390
0
  6
Continuous
 62
     7
100
AcDbLine
 10
21.153757
 20
12.314896
 30
0.0
 11
21.193937
 21
12.314896
 31
0.0
  0
LINE
  5
398
100
AcDbEntity
  8
0
370
    15
390
0
  6
Continuous
 62
     7
100
AcDbLine
 10
21.153757
 20
12.355076
 30
0.0
 11
21.153757
 21
12.314896
 31
0.0
  0
LINE
  5
399
100
AcDbEntity
  8
0
370
    15
390
0
  6
Continuous
 62
     7
100
AcDbLine
 10
20.997936
 20
12.355076
 30
0.0
 11
21.153757
 21
12.355076
 31
0.0
  0
LINE
  5
39A
100
AcDbEntity
  8
0
370
    15
390
0
  6
Continuous
 62
     7
100
AcDbLine
 10
20.997936
 20
12.395257
 30
0.0
 11
20.997936
 21
12.355076
 31
0.0
  0
LINE
  5
39B
100
AcDbEntity
  8
0
370
    15
390
0
  6
Continuous
 62
     7
100
AcDbLine
 10
21.193937
 20
12.395257
 30
0.0
 11
20.997936
 21
12.395257
 31
0.0
  0
LINE
  5
39C
100
AcDbEntity
  8
0
370
    15
390
0
  6
Continuous
 62
     7
100
AcDbLine
 10
21.193937
 20
12.395257
 30
0.0
 11
21.193937
 21
12.314896
 31
0.0
  0
LINE
  5
39D
100
AcDbEntity
  8
0
370
    15
390
0
  6
Continuous
 62
     7
100
AcDbLine
 10
21.038116
 20
12.073815
 30
0.0
 11
21.193937
 21
12.073815
 31
0.0
  0
LINE
  5
39E
100
AcDbEntity
  8
0
370
    15
390
0
  6
Continuous
 62
     7
100
AcDbLine
 10
21.038116
 20
12.033635
 30
0.0
 11
21.038116
 21
12.073815
 31
0.0
  0
LINE
  5
39F
100
AcDbEntity
  8
0
370
    15
390
0
  6
Continuous
 62
     7
100
AcDbLine
 10
21.193937
 20
12.033635
 30
0.0
 11
21.038116
 21
12.033635
 31
0.0
  0
LINE
  5
3A0
100
AcDbEntity
  8
0
370
    15
390
0
  6
Continuous
 62
     7
100
AcDbLine
 10
21.193937
 20
11.993454
 30
0.0
 11
21.193937
 21
12.033635
 31
0.0
  0
LINE
  5
3A1
100
AcDbEntity
  8
0
370
    15
390
0
  6
Continuous
 62
     7
100
AcDbLine
 10
20.997936
 20
11.993454
 30
0.0
 11
21.193937
 21
11.993454
 31
0.0
  0
LINE
  5
3A2
100
AcDbEntity
  8
0
370
    15
390
0
  6
Continuous
 62
     7
100
AcDbLine
 10
20.997936
 20
12.113995
 30
0.0
 11
20.997936
 21
11.993454
 31
0.0
  0
LINE
  5
3A3
100
AcDbEntity
  8
0
370
    15
390
0
  6
Continuous
 62
     7
100
AcDbLine
 10
21.193937
 20
12.113995
 30
0.0
 11
20.997936
 21
12.113995
 31
0.0
  0
LINE
  5
3A4
100
AcDbEntity
  8
0
370
    15
390
0
  6
Continuous
 62
     7
100
AcDbLine
 10
21.193937
 20
12.113995
 30
0.0
 11
21.193937
 21
12.073815
 31
0.0
  0
LINE
  5
3A5
100
AcDbEntity
  8
0
370
    15
390
0
  6
Continuous
 62
     7
100
AcDbLine
 10
20.997936
 20
11.913094
 30
0.0
 11
21.26062
 21
11.913094
 31
0.0
  0
LINE
  5
3A6
100
AcDbEntity
  8
0
370
    15
390
0
  6
Continuous
 62
     7
100
AcDbLine
 10
20.997936
 20
11.953274
 30
0.0
 11
20.997936
 21
11.913094
 31
0.0
  0
LINE
  5
3A7
100
AcDbEntity
  8
0
370
    15
390
0
  6
Continuous
 62
     7
100
AcDbLine
 10
21.26062
 20
11.953274
 30
0.0
 11
20.997936
 21
11.953274
 31
0.0
  0
LINE
  5
3A8
100
AcDbEntity
  8
0
370
    15
390
0
  6
Continuous
 62
     7
100
AcDbLine
 10
21.26062
 20
11.953274
 30
0.0
 11
21.26062
 21
11.913094
 31
0.0
  0
LINE
  5
3A9
100
AcDbEntity
  8
0
370
    15
390
0
  6
Continuous
 62
     7
100
AcDbLine
 10
21.22044
 20
11.832734
 30
0.0
 11
21.26062
 21
11.832734
 31
0.0
  0
LINE
  5
3AA
100
AcDbEntity
  8
0
370
    15
390
0
  6
Continuous
 62
     7
100
AcDbLine
 10
21.22044
 20
11.872914
 30
0.0
 11
21.22044
 21
11.832734
 31
0.0
  0
LINE
  5
3AB
100
AcDbEntity
  8
0
370
    15
390
0
  6
Continuous
 62
     7
100
AcDbLine
 10
21.26062
 20
11.872914
 30
0.0
 11
21.22044
 21
11.872914
 31
0.0
  0
LINE
  5
3AC
100
AcDbEntity
  8
0
370
    15
390
0
  6
Continuous
 62
     7
100
AcDbLine
 10
21.26062
 20
11.872914
 30
0.0
 11
21.26062
 21
11.832734
 31
0.0
  0
LINE
  5
3AD
100
AcDbEntity
  8
0
370
    15
390
0
  6
Continuous
 62
     7
100
AcDbLine
 10
20.997936
 20
11.832734
 30
0.0
 11
21.193937
 21
11.832734
 31
0.0
  0
LINE
  5
3AE
100
AcDbEntity
  8
0
370
    15
390
0
  6
Continuous
 62
     7
100
AcDbLine
 10
20.997936
 20
11.872914
 30
0.0
 11
20.997936
 21
11.832734
 31
0.0
  0
LINE
  5
3AF
100
AcDbEntity
  8
0
370
    15
390
0
  6
Continuous
 62
     7
100
AcDbLine
 10
21.193937
 20
11.872914
 30
0.0
 11
20.997936
 21
11.872914
 31
0.0
  0
LINE
  5
3B0
100
AcDbEntity
  8
0
370
    15
390
0
  6
Continuous
 62
     7
100
AcDbLine
 10
21.193937
 20
11.872914
 30
0.0
 11
21.193937
 21
11.832734
 31
0.0
  0
LINE
  5
3B1
100
AcDbEntity
  8
0
370
    15
390
0
  6
Continuous
 62
     7
100
AcDbLine
 10
21.153757
 20
11.676812
 30
0.0
 11
21.193937
 21
11.676812
 31
0.0
  0
LINE
  5
3B2
100
AcDbEntity
  8
0
370
    15
390
0
  6
Continuous
 62
     7
100
AcDbLine
 10
21.153757
 20
11.752373
 30
0.0
 11
21.153757
 21
11.676812
 31
0.0
  0
LINE
  5
3B3
100
AcDbEntity
  8
0
370
    15
390
0
  6
Continuous
 62
     7
100
AcDbLine
 10
21.038116
 20
11.752373
 30
0.0
 11
21.153757
 21
11.752373
 31
0.0
  0
LINE
  5
3B4
100
AcDbEntity
  8
0
370
    15
390
0
  6
Continuous
 62
     7
100
AcDbLine
 10
21.038116
 20
11.676812
 30
0.0
 11
21.038116
 21
11.752373
 31
0.0
  0
LINE
  5
3B5
100
AcDbEntity
  8
0
370
    15
390
0
  6
Continuous
 62
     7
100
AcDbLine
 10
20.997936
 20
11.676812
 30
0.0
 11
21.038116
 21
11.676812
 31
0.0
  0
LINE
  5
3B6
100
AcDbEntity
  8
0
370
    15
390
0
  6
Continuous
 62
     7
100
AcDbLine
 10
20.997936
 20
11.792553
 30
0.0
 11
20.997936
 21
11.676812
 31
0.0
  0
LINE
  5
3B7
100
AcDbEntity
  8
0
370
    15
390
0
  6
Continuous
 62
     7
100
AcDbLine
 10
21.193937
 20
11.792553
 30
0.0
 11
20.997936
 21
11.792553
 31
0.0
  0
LINE
  5
3B8
100
AcDbEntity
  8
0
370
    15
390
0
  6
Continuous
 62
     7
100
AcDbLine
 10
21.193937
 20
11.792553
 30
0.0
 11
21.193937
 21
11.676812
 31
0.0
  0
LINE
  5
3B9
100
AcDbEntity
  8
0
370
    15
390
0
  6
Continuous
 62
     7
100
AcDbLine
 10
21.153757
 20
11.50935
 30
0.0
 11
21.193937
 21
11.50935
 31
0.0
  0
LINE
  5
3BA
100
AcDbEntity
  8
0
370
    15
390
0
  6
Continuous
 62
     7
100
AcDbLine
 10
21.153757
 20
11.596451
 30
0.0
 11
21.153757
 21
11.50935
 31
0.0
  0
LINE
  5
3BB
100
AcDbEntity
  8
0
370
    15
390
0
  6
Continuous
 62
     7
100
AcDbLine
 10
21.116028
 20
11.596451
 30
0.0
 11
21.153757
 21
11.596451
 31
0.0
  0
LINE
  5
3BC
100
AcDbEntity
  8
0
370
    15
390
0
  6
Continuous
 62
     7
100
AcDbLine
 10
21.116028
 20
11.50935
 30
0.0
 11
21.116028
 21
11.596451
 31
0.0
  0
LINE
  5
3BD
100
AcDbEntity
  8
0
370
    15
390
0
  6
Continuous
 62
     7
100
AcDbLine
 10
20.997936
 20
11.50935
 30
0.0
 11
21.116028
 21
11.50935
 31
0.0
  0
LINE
  5
3BE
100
AcDbEntity
  8
0
370
    15
390
0
  6
Continuous
 62
     7
100
AcDbLine
 10
20.997936
 20
11.636631
 30
0.0
 11
20.997936
 21
11.50935
 31
0.0
  0
LINE
  5
3BF
100
AcDbEntity
  8
0
370
    15
390
0
  6
Continuous
 62
     7
100
AcDbLine
 10
21.038116
 20
11.636631
 30
0.0
 11
20.997936
 21
11.636631
 31
0.0
  0
LINE
  5
3C0
100
AcDbEntity
  8
0
370
    15
390
0
  6
Continuous
 62
     7
100
AcDbLine
 10
21.038116
 20
11.549531
 30
0.0
 11
21.038116
 21
11.636631
 31
0.0
  0
LINE
  5
3C1
100
AcDbEntity
  8
0
370
    15
390
0
  6
Continuous
 62
     7
100
AcDbLine
 10
21.075848
 20
11.549531
 30
0.0
 11
21.038116
 21
11.549531
 31
0.0
  0
LINE
  5
3C2
100
AcDbEntity
  8
0
370
    15
390
0
  6
Continuous
 62
     7
100
AcDbLine
 10
21.075848
 20
11.636631
 30
0.0
 11
21.075848
 21
11.549531
 31
0.0
  0
LINE
  5
3C3
100
AcDbEntity
  8
0
370
    15
390
0
  6
Continuous
 62
     7
100
AcDbLine
 10
21.193937
 20
11.636631
 30
0.0
 11
21.075848
 21
11.636631
 31
0.0
  0
LINE
  5
3C4
100
AcDbEntity
  8
0
370
    15
390
0
  6
Continuous
 62
     7
100
AcDbLine
 10
21.193937
 20
11.636631
 30
0.0
 11
21.193937
 21
11.50935
 31
0.0
  0
LINE
  5
3C5
100
AcDbEntity
  8
0
370
    15
390
0
  6
Continuous
 62
     7
100
AcDbLine
 10
20.997936
 20
12.154175
 30
0.0
 11
21.193937
 21
12.154175
 31
0.0
  0
LINE
  5
3C6
100
AcDbEntity
  8
0
370
    15
390
0
  6
Continuous
 62
     7
100
AcDbLine
 10
20.997936
 20
12.274716
 30
0.0
 11
20.997936
 21
12.154175
 31
0.0
  0
LINE
  5
3C7
100
AcDbEntity
  8
0
370
    15
390
0
  6
Continuous
 62
     7
100
AcDbLine
 10
21.118477
 20
12.274716
 30
0.0
 11
20.997936
 21
12.274716
 31
0.0
  0
LINE
  5
3C8
100
AcDbEntity
  8
0
370
    15
390
0
  6
Continuous
 62
     7
100
AcDbLine
 10
21.118477
 20
12.194355
 30
0.0
 11
21.118477
 21
12.274716
 31
0.0
  0
LINE
  5
3C9
100
AcDbEntity
  8
0
370
    15
390
0
  6
Continuous
 62
     7
100
AcDbLine
 10
21.153757
 20
12.194355
 30
0.0
 11
21.118477
 21
12.194355
 31
0.0
  0
LINE
  5
3CA
100
AcDbEntity
  8
0
370
    15
390
0
  6
Continuous
 62
     7
100
AcDbLine
 10
21.153757
 20
12.256939
 30
0.0
 11
21.153757
 21
12.194355
 31
0.0
  0
LINE
  5
3CB
100
AcDbEntity
  8
0
370
    15
390
0
  6
Continuous
 62
     7
100
AcDbLine
 10
21.193937
 20
12.256939
 30
0.0
 11
21.153757
 21
12.256939
 31
0.0
  0
LINE
  5
3CC
100
AcDbEntity
  8
0
370
    15
390
0
  6
Continuous
 62
     7
100
AcDbLine
 10
21.193937
 20
12.256939
 30
0.0
 11
21.193937
 21
12.154175
 31
0.0
  0
LINE
  5
3CD
100
AcDbEntity
  8
0
370
    15
390
0
  6
Continuous
 62
     7
100
AcDbLine
 10
21.038116
 20
12.194355
 30
0.0
 11
21.078297
 21
12.194355
 31
0.0
  0
LINE
  5
3CE
100
AcDbEntity
  8
0
370
    15
390
0
  6
Continuous
 62
     7
100
AcDbLine
 10
21.038116
 20
12.234536
 30
0.0
 11
21.038116
 21
12.194355
 31
0.0
  0
LINE
  5
3CF
100
AcDbEntity
  8
0
370
    15
390
0
  6
Continuous
 62
     7
100
AcDbLine
 10
21.078297
 20
12.234536
 30
0.0
 11
21.038116
 21
12.234536
 31
0.0
  0
LINE
  5
3D0
100
AcDbEntity
  8
0
370
    15
390
0
  6
Continuous
 62
     7
100
AcDbLine
 10
21.078297
 20
12.234536
 30
0.0
 11
21.078297
 21
12.194355
 31
0.0
  0
HATCH
  5
3D1
100
AcDbEntity
  8
0
370
    15
390
0
  6
Continuous
 62
   174
100
AcDbHatch
 10
0.0
 20
0.0
 30
0.0
210
0.0
220
0.0
230
1.0
  2
SOLID
 70
     1
 71
     0
 91
        4
 92
        1
 93
        1
 72
     2
 10
21.097938548584455
 20
13.323009976686333
 40
0.3120002746582031
 50
0.0
 51
359.999994
 73
     1
 97
        0
 92
        1
 93
       12
 72
     1
 10
21.162944804687971
 20
13.440796384157036
 11
21.217411052246565
 21
13.440796384157036
 72
     1
 10
21.217411052246565
 20
13.440796384157036
 11
21.217411052246565
 21
13.588947781862114
 72
     1
 10
21.217411052246565
 20
13.588947781862114
 11
21.070055018921369
 21
13.588947781862114
 72
     1
 10
21.070055018921369
 20
13.588947781862114
 11
21.070055018921369
 21
13.495796689332817
 72
     1
 10
21.070055018921369
 20
13.495796689332817
 11
21.033504497070783
 21
13.495796689332817
 72
     1
 10
21.033504497070783
 20
13.495796689332817
 11
21.033504497070783
 21
13.588947781862114
 72
     1
 10
21.033504497070783
 20
13.588947781862114
 11
20.97846223022508
 21
13.588947781862114
 72
     1
 10
20.97846223022508
 20
13.588947781862114
 11
20.97846223022508
 21
13.440796384157036
 72
     1
 10
20.97846223022508
 20
13.440796384157036
 11
21.125438701172346
 21
13.440796384157036
 72
     1
 10
21.125438701172346
 20
13.440796384157036
 11
21.125438701172346
 21
13.533947476686333
 72
     1
 10
21.125438701172346
 20
13.533947476686333
 11
21.162944804687971
 21
13.533947476686333
 72
     1
 10
21.162944804687971
 20
13.533947476686333
 11
21.162944804687971
 21
13.440796384157036
 97
        0
 92
        1
 93
        8
 72
     1
 10
21.217411052246565
 20
13.248936185182426
 11
21.217411052246565
 21
13.304642209352348
 72
     1
 10
21.217411052246565
 20
13.304642209352348
 11
21.033462535400862
 21
13.304642209352348
 72
     1
 10
21.033462535400862
 20
13.304642209352348
 11
21.033462535400862
 21
13.342167386354301
 72
     1
 10
21.033462535400862
 20
13.342167386354301
 11
21.217411052246565
 21
13.342167386354301
 72
     1
 10
21.217411052246565
 20
13.342167386354301
 11
21.217411052246565
 21
13.397087582887504
 72
     1
 10
21.217411052246565
 20
13.397087582887504
 11
20.97846223022508
 21
13.397087582887504
 72
     1
 10
20.97846223022508
 20
13.397087582887504
 11
20.97846223022508
 21
13.248936185182426
 72
     1
 10
20.97846223022508
 20
13.248936185182426
 11
21.217411052246565
 21
13.248936185182426
 97
        0
 92
        1
 93
        8
 72
     1
 10
20.97846223022508
 20
13.147358426393364
 11
20.97846223022508
 21
13.203064450563286
 72
     1
 10
20.97846223022508
 20
13.203064450563286
 11
21.217411052246565
 21
13.203064450563286
 72
     1
 10
21.217411052246565
 20
13.203064450563286
 11
21.217411052246565
 21
13.054913052858208
 72
     1
 10
21.217411052246565
 20
13.054913052858208
 11
20.97846223022508
 21
13.054913052858208
 72
     1
 10
20.97846223022508
 20
13.054913052858208
 11
20.97846223022508
 21
13.109833249391411
 72
     1
 10
20.97846223022508
 20
13.109833249391411
 11
21.162410747070783
 21
13.109833249391411
 72
     1
 10
21.162410747070783
 20
13.109833249391411
 11
21.162410747070783
 21
13.147358426393364
 72
     1
 10
21.162410747070783
 20
13.147358426393364
 11
20.97846223022508
 21
13.147358426393364
 97
        0
 75
     0
 76
     1
 98
        1
 10
0.0
 20
0.0
  0
HATCH
  5
3D2
100
AcDbEntity
  8
0
370
    15
390
0
  6
Continuous
 62
   174
100
AcDbHatch
 10
0.0
 20
0.0
 30
0.0
210
0.0
220
0.0
230
1.0
  2
SOLID
 70
     1
 71
     0
 91
        4
 92
        1
 93
       10
 72
     1
 10
21.193937312622541
 20
12.838753232301567
 11
21.260620128174299
 21
12.838753232301567
 72
     1
 10
21.260620128174299
 20
12.838753232301567
 11
21.260620128174299
 21
12.878933438600395
 72
     1
 10
21.260620128174299
 20
12.878933438600395
 11
20.997936259766096
 21
12.878933438600395
 72
     1
 10
20.997936259766096
 20
12.878933438600395
 11
20.997936259766096
 21
12.838753232301567
 72
     1
 10
20.997936259766096
 20
12.838753232301567
 11
21.153757106323713
 21
12.838753232301567
 72
     1
 10
21.153757106323713
 20
12.838753232301567
 11
21.153757106323713
 21
12.798573026002739
 72
     1
 10
21.153757106323713
 20
12.798573026002739
 11
20.997936259766096
 21
12.798573026002739
 72
     1
 10
20.997936259766096
 20
12.798573026002739
 11
20.997936259766096
 21
12.758392819703911
 72
     1
 10
20.997936259766096
 20
12.758392819703911
 11
21.193937312622541
 21
12.758392819703911
 72
     1
 10
21.193937312622541
 20
12.758392819703911
 11
21.193937312622541
 21
12.838753232301567
 97
        0
 92
        1
 93
       12
 72
     1
 10
21.038116466064924
 20
12.678032407106254
 11
21.193937312622541
 21
12.678032407106254
 72
     1
 10
21.193937312622541
 20
12.678032407106254
 11
21.193937312622541
 21
12.718212613405083
 72
     1
 10
21.193937312622541
 20
12.718212613405083
 11
20.997936259766096
 21
12.718212613405083
 72
     1
 10
20.997936259766096
 20
12.718212613405083
 11
20.997936259766096
 21
12.637852200807426
 72
     1
 10
20.997936259766096
 20
12.637852200807426
 11
20.957756053467268
 21
12.637852200807426
 72
     1
 10
20.957756053467268
 20
12.637852200807426
 11
20.957756053467268
 21
12.675591000856254
 72
     1
 10
20.957756053467268
 20
12.675591000856254
 11
20.91757584716844
 21
12.675591000856254
 72
     1
 10
20.91757584716844
 20
12.675591000856254
 11
20.918277751465315
 21
12.597671994508598
 72
     1
 10
20.918277751465315
 20
12.597671994508598
 11
21.193937312622541
 21
12.597671994508598
 72
     1
 10
21.193937312622541
 20
12.597671994508598
 11
21.193937312622541
 21
12.637852200807426
 72
     1
 10
21.193937312622541
 20
12.637852200807426
 11
21.038116466064924
 21
12.637852200807426
 72
     1
 10
21.038116466064924
 20
12.637852200807426
 11
21.038116466064924
 21
12.678032407106254
 97
        0
 92
        1
 93
        6
 72
     1
 10
21.260620128174299
 20
12.475616940797661
 11
21.193937312622541
 21
12.475616940797661
 72
     1
 10
21.193937312622541
 20
12.475616940797661
 11
21.193937312622541
 21
12.555977353395317
 72
     1
 10
21.193937312622541
 20
12.555977353395317
 11
20.997936259766096
 21
12.555977353395317
 72
     1
 10
20.997936259766096
 20
12.555977353395317
 11
20.997936259766096
 21
12.435432919801567
 72
     1
 10
20.997936259766096
 20
12.435432919801567
 11
21.260620128174299
 21
12.435432919801567
 72
     1
 10
21.260620128174299
 20
12.435432919801567
 11
21.260620128174299
 21
12.475616940797661
 97
        0
 92
        1
 93
        4
 72
     1
 10
21.153757106323713
 20
12.475616940797661
 11
21.038116466064924
 21
12.475616940797661
 72
     1
 10
21.038116466064924
 20
12.475616940797661
 11
21.038116466064924
 21
12.515793332399223
 72
     1
 10
21.038116466064924
 20
12.515793332399223
 11
21.153757106323713
 21
12.515793332399223
 72
     1
 10
21.153757106323713
 20
12.515793332399223
 11
21.153757106323713
 21
12.475616940797661
 97
        0
 75
     0
 76
     1
 98
        1
 10
0.0
 20
0.0
  0
HATCH
  5
3D3
100
AcDbEntity
  8
0
370
    15
390
0
  6
Continuous
 62
   174
100
AcDbHatch
 10
0.0
 20
0.0
 30
0.0
210
0.0
220
0.0
230
1.0
  2
SOLID
 70
     1
 71
     0
 91
        8
 92
        1
 93
        6
 72
     1
 10
21.153757106323713
 20
12.314896115602348
 11
21.193937312622541
 21
12.314896115602348
 72
     1
 10
21.193937312622541
 20
12.314896115602348
 11
21.193937312622541
 21
12.395256528200004
 72
     1
 10
21.193937312622541
 20
12.395256528200004
 11
20.997936259766096
 21
12.395256528200004
 72
     1
 10
20.997936259766096
 20
12.395256528200004
 11
20.997936259766096
 21
12.355076321901176
 72
     1
 10
20.997936259766096
 20
12.355076321901176
 11
21.153757106323713
 21
12.355076321901176
 72
     1
 10
21.153757106323713
 20
12.355076321901176
 11
21.153757106323713
 21
12.314896115602348
 97
        0
 92
        1
 93
        8
 72
     1
 10
21.038116466064924
 20
12.073814877809379
 11
21.193937312622541
 21
12.073814877809379
 72
     1
 10
21.193937312622541
 20
12.073814877809379
 11
21.193937312622541
 21
12.113995084108208
 72
     1
 10
21.193937312622541
 20
12.113995084108208
 11
20.997936259766096
 21
12.113995084108208
 72
     1
 10
20.997936259766096
 20
12.113995084108208
 11
20.997936259766096
 21
11.993454465211723
 72
     1
 10
20.997936259766096
 20
11.993454465211723
 11
21.193937312622541
 21
11.993454465211723
 72
     1
 10
21.193937312622541
 20
11.993454465211723
 11
21.193937312622541
 21
12.033634671510551
 72
     1
 10
21.193937312622541
 20
12.033634671510551
 11
21.038116466064924
 21
12.033634671510551
 72
     1
 10
21.038116466064924
 20
12.033634671510551
 11
21.038116466064924
 21
12.073814877809379
 97
        0
 92
        1
 93
        4
 72
     1
 10
20.997936259766096
 20
11.913094052614067
 11
21.260620128174299
 21
11.913094052614067
 72
     1
 10
21.260620128174299
 20
11.913094052614067
 11
21.260620128174299
 21
11.953274258912895
 72
     1
 10
21.260620128174299
 20
11.953274258912895
 11
20.997936259766096
 21
11.953274258912895
 72
     1
 10
20.997936259766096
 20
11.953274258912895
 11
20.997936259766096
 21
11.913094052614067
 97
        0
 92
        1
 93
        4
 72
     1
 10
21.220439921875471
 20
11.832733640016411
 11
21.260620128174299
 21
11.832733640016411
 72
     1
 10
21.260620128174299
 20
11.832733640016411
 11
21.260620128174299
 21
11.872913846315239
 72
     1
 10
21.260620128174299
 20
11.872913846315239
 11
21.220439921875471
 21
11.872913846315239
 72
     1
 10
21.220439921875471
 20
11.872913846315239
 11
21.220439921875471
 21
11.832733640016411
 97
        0
 92
        1
 93
        4
 72
     1
 10
20.997936259766096
 20
11.832733640016411
 11
21.193937312622541
 21
11.832733640016411
 72
     1
 10
21.193937312622541
 20
11.832733640016411
 11
21.193937312622541
 21
11.872913846315239
 72
     1
 10
21.193937312622541
 20
11.872913846315239
 11
20.997936259766096
 21
11.872913846315239
 72
     1
 10
20.997936259766096
 20
11.872913846315239
 11
20.997936259766096
 21
11.832733640016411
 97
        0
 92
        1
 93
        8
 72
     1
 10
21.153757106323713
 20
11.676811703981254
 11
21.193937312622541
 21
11.676811703981254
 72
     1
 10
21.193937312622541
 20
11.676811703981254
 11
21.193937312622541
 21
11.792553433717583
 72
     1
 10
21.193937312622541
 20
11.792553433717583
 11
20.997936259766096
 21
11.792553433717583
 72
     1
 10
20.997936259766096
 20
11.792553433717583
 11
20.997936259766096
 21
11.676811703981254
 72
     1
 10
20.997936259766096
 20
11.676811703981254
 11
21.038116466064924
 21
11.676811703981254
 72
     1
 10
21.038116466064924
 20
11.676811703981254
 11
21.038116466064924
 21
11.752373227418754
 72
     1
 10
21.038116466064924
 20
11.752373227418754
 11
21.153757106323713
 21
11.752373227418754
 72
     1
 10
21.153757106323713
 20
11.752373227418754
 11
21.153757106323713
 21
11.676811703981254
 97
        0
 92
        1
 93
        8
 72
     1
 10
20.997936259766096
 20
12.154175290407036
 11
21.193937312622541
 21
12.154175290407036
 72
     1
 10
21.193937312622541
 20
12.154175290407036
 11
21.193937312622541
 21
12.256939420045708
 72
     1
 10
21.193937312622541
 20
12.256939420045708
 11
21.153757106323713
 21
12.256939420045708
 72
     1
 10
21.153757106323713
 20
12.256939420045708
 11
21.153757106323713
 21
12.194355496705864
 72
     1
 10
21.153757106323713
 20
12.194355496705864
 11
21.11847687866258
 21
12.194355496705864
 72
     1
 10
21.11847687866258
 20
12.194355496705864
 11
21.11847687866258
 21
12.27471590930352
 72
     1
 10
21.11847687866258
 20
12.27471590930352
 11
20.997936259766096
 21
12.27471590930352
 72
     1
 10
20.997936259766096
 20
12.27471590930352
 11
20.997936259766096
 21
12.154175290407036
 97
        0
 92
        1
 93
        4
 72
     1
 10
21.038116466064924
 20
12.194355496705864
 11
21.078296672363752
 21
12.194355496705864
 72
     1
 10
21.078296672363752
 20
12.194355496705864
 11
21.078296672363752
 21
12.234535703004692
 72
     1
 10
21.078296672363752
 20
12.234535703004692
 11
21.038116466064924
 21
12.234535703004692
 72
     1
 10
21.038116466064924
 20
12.234535703004692
 11
21.038116466064924
 21
12.194355496705864
 97
        0
 75
     0
 76
     1
 98
        1
 10
0.0
 20
0.0
  0
HATCH
  5
3D4
100
AcDbEntity
  8
0
370
    15
390
0
  6
Continuous
 62
   174
100
AcDbHatch
 10
0.0
 20
0.0
 30
0.0
210
0.0
220
0.0
230
1.0
  2
SOLID
 70
     1
 71
     0
 91
        1
 92
        1
 93
       12
 72
     1
 10
21.153757106323713
 20
11.509350308717583
 11
21.193937312622541
 21
11.509350308717583
 72
     1
 10
21.193937312622541
 20
11.509350308717583
 11
21.193937312622541
 21
11.636631497682426
 72
     1
 10
21.193937312622541
 20
11.636631497682426
 11
21.075847636719221
 21
11.636631497682426
 72
     1
 10
21.075847636719221
 20
11.636631497682426
 11
21.075847636719221
 21
11.549530515016411
 72
     1
 10
21.075847636719221
 20
11.549530515016411
 11
21.038116466064924
 21
11.549530515016411
 72
     1
 10
21.038116466064924
 20
11.549530515016411
 11
21.038116466064924
 21
11.636631497682426
 72
     1
 10
21.038116466064924
 20
11.636631497682426
 11
20.997936259766096
 21
11.636631497682426
 72
     1
 10
20.997936259766096
 20
11.636631497682426
 11
20.997936259766096
 21
11.509350308717583
 72
     1
 10
20.997936259766096
 20
11.509350308717583
 11
21.116027843018049
 21
11.509350308717583
 72
     1
 10
21.116027843018049
 20
11.509350308717583
 11
21.116027843018049
 21
11.596451291383598
 72
     1
 10
21.116027843018049
 20
11.596451291383598
 11
21.153757106323713
 21
11.596451291383598
 72
     1
 10
21.153757106323713
 20
11.596451291383598
 11
21.153757106323713
 21
11.509350308717583
 97
        0
 75
     0
 76
     1
 98
        1
 10
0.0
 20
0.0
  0
TEXT
  5
3D5
100
AcDbEntity
  8
0
370
    15
390
0
  6
Continuous
 62
     7
100
AcDbText
 10
21.25284
 20
11.545235
 30
0.0
 40
0.04606
  1
R
 50
270.0
 41
1.125
  7
Vcadd_SIMP
100
AcDbText
  0
TEXT
  5
3D6
100
AcDbEntity
  8
0
370
    15
390
0
  6
Continuous
 62
     7
100
AcDbText
 10
20.899522
 20
12.185982
 30
0.0
 40
0.062
  1
CORPORATION
 50
270.0
  7
Vcadd_SIMP
100
AcDbText
  0
TEXT
  5
3D7
100
AcDbEntity
  8
0
370
    15
390
0
  6
Continuous
 62
     7
100
AcDbText
 10
20.807874
 20
12.9543
 30
0.0
 40
0.062
  1
1500 WEST UNIVERSITY PKWY
 50
270.0
  7
Vcadd_SIMP
100
AcDbText
  0
TEXT
  5
3D8
100
AcDbEntity
  8
0
370
    15
390
0
  6
Continuous
 62
     7
100
AcDbText
 10
20.714874
 20
12.9543
 30
0.0
 40
0.062
  1
SARASOTA, FLORIDA 34243, USA
 50
270.0
  7
Vcadd_SIMP
100
AcDbText
  0
TEXT
  5
3D9
100
AcDbEntity
  8
0
370
    15
390
0
  6
Continuous
 62
     7
100
AcDbText
 10
20.621874
 20
12.9543
 30
0.0
 40
0.062
  1
TELEPHONE (941) 355-2983
 50
270.0
  7
Vcadd_SIMP
100
AcDbText
  0
LINE
  5
3DA
100
AcDbEntity
  8
4
370
    15
390
0
  6
Continuous
 62
     7
100
AcDbLine
 10
24.972571
 20
20.901888
 30
0.0
 11
25.045141
 21
21.027583
 31
0.0
  0
LINE
  5
3DB
100
AcDbEntity
  8
4
370
    15
390
0
  6
Continuous
 62
     7
100
AcDbLine
 10
25.11771
 20
20.901888
 30
0.0
 11
25.045141
 21
21.027583
 31
0.0
  0
LINE
  5
3DC
100
AcDbEntity
  8
4
370
    15
390
0
  6
Continuous
 62
     7
100
AcDbLine
 10
24.972571
 20
20.901888
 30
0.0
 11
25.11771
 21
20.901888
 31
0.0
  0
TEXT
  5
3DD
100
AcDbEntity
  8
4
370
    15
390
0
  6
Continuous
 62
     7
100
AcDbText
 10
25.369862
 20
11.598927
 30
0.0
 40
0.133
  1
Alle O-Ring-Einfόhrungsschrδgen mόssen
  7
Vcadd_SIMP
100
AcDbText
  0
TEXT
  5
3DE
100
AcDbEntity
  8
4
370
    15
390
0
  6
Continuous
 62
     7
100
AcDbText
 10
25.369862
 20
11.399427
 30
0.0
 40
0.133
  1
glatt und frei von Kerben und Kanten sein.
  7
Vcadd_SIMP
100
AcDbText
  0
TEXT
  5
3DF
100
AcDbEntity
  8
4
370
    15
390
0
  6
Continuous
 62
     7
100
AcDbText
 10
25.129926
 20
13.629882
 30
0.0
 40
0.133
  1
*
  7
Vcadd_SIMP
100
AcDbText
  0
TEXT
  5
3E0
100
AcDbEntity
  8
4
370
    15
390
0
  6
Continuous
 62
     7
100
AcDbText
 10
25.047364
 20
11.591877
 30
0.0
 40
0.133
  1
**
  7
Vcadd_SIMP
100
AcDbText
  0
TEXT
  5
3E1
100
AcDbEntity
  8
4
370
    15
390
0
  6
Continuous
 62
     7
100
AcDbText
 10
26.969447
 20
20.640509
 30
0.0
 40
0.13
  1
Anschluss #4
  7
Vcadd_SIMP
100
AcDbText
  0
LINE
  5
3E2
100
AcDbEntity
  8
3
370
    15
390
0
  6
Continuous
 62
     1
100
AcDbLine
 10
28.138436
 20
19.860254
 30
0.0
 11
28.138436
 21
20.922254
 31
0.0
  0
LINE
  5
3E3
100
AcDbEntity
  8
0
370
    15
390
0
  6
Continuous
 62
     1
100
AcDbLine
 10
26.911229
 20
19.860254
 30
0.0
 11
28.238965
 21
19.860254
 31
0.0
  0
LINE
  5
3E4
100
AcDbEntity
  8
0
370
    15
390
0
  6
Continuous
 62
     1
100
AcDbLine
 10
26.971663
 20
20.922254
 30
0.0
 11
28.238965
 21
20.922254
 31
0.0
  0
LINE
  5
3E5
100
AcDbEntity
  8
4
370
    15
390
0
  6
Continuous
 62
     1
100
AcDbLine
 10
28.138436
 20
19.860254
 30
0.0
 11
28.138436
 21
19.667682
 31
0.0
  0
LINE
  5
3E6
100
AcDbEntity
  8
3
370
    15
390
0
  6
Continuous
 62
     1
100
AcDbLine
 10
28.138436
 20
19.667682
 30
0.0
 11
28.34657
 21
19.667682
 31
0.0
  0
LINE
  5
3E7
100
AcDbEntity
  8
0
370
    15
390
0
  6
Continuous
 62
     1
100
AcDbLine
 10
28.424839
 20
20.062087
 30
0.0
 11
29.687207
 21
20.062087
 31
0.0
  0
LINE
  5
3E8
100
AcDbEntity
  8
0
370
    15
390
0
  6
Continuous
 62
     1
100
AcDbLine
 10
26.798803
 20
20.391253
 30
0.0
 11
28.566223
 21
20.391253
 31
0.0
  0
LINE
  5
3E9
100
AcDbEntity
  8
4
370
    15
390
0
  6
Continuous
 62
     1
100
AcDbLine
 10
28.566223
 20
20.391253
 30
0.0
 11
28.424839
 21
20.062087
 31
0.0
  0
TEXT
  5
3EA
100
AcDbEntity
  8
4
370
    15
390
0
  6
Continuous
 62
     7
100
AcDbText
 10
28.396531
 20
19.604671
 30
0.0
 40
0.142
  1
26,97
  7
Vcadd_SIMP
100
AcDbText
  0
INSERT
  5
3EB
100
AcDbEntity
  8
3
370
    15
390
0
  6
Continuous
 62
     7
100
AcDbBlockReference
  2
ARROW
 10
28.138436
 20
20.922254
 30
0.0
 50
90.0
  0
INSERT
  5
3EC
100
AcDbEntity
  8
3
370
    15
390
0
  6
Continuous
 62
     7
100
AcDbBlockReference
  2
ARROW
 10
28.138436
 20
19.860254
 30
0.0
 50
270.0
  0
TEXT
  5
3ED
100
AcDbEntity
  8
4
370
    15
390
0
  6
Continuous
 62
     7
100
AcDbText
 10
29.178266
 20
16.043232
 30
0.0
 40
0.12
  1
Min. Tiefe von
  7
Vcadd_SIMP
100
AcDbText
  0
TEXT
  5
3EE
100
AcDbEntity
  8
4
370
    15
390
0
  6
Continuous
 62
     7
100
AcDbText
 10
29.178266
 20
15.863232
 30
0.0
 40
0.12
  1
22,23 %%c (Ventil-
  7
Vcadd_SIMP
100
AcDbText
  0
TEXT
  5
3EF
100
AcDbEntity
  8
4
370
    15
390
0
  6
Continuous
 62
     7
100
AcDbText
 10
29.178266
 20
15.683232
 30
0.0
 40
0.12
  1
arbeitsbereich)
  7
Vcadd_SIMP
100
AcDbText
  0
TEXT
  5
3F0
100
AcDbEntity
  8
0
370
    15
390
0
  6
Continuous
 62
     7
100
AcDbText
 10
21.598505
 20
13.715537
 30
0.0
 40
0.125
  1
J
 50
270.0
  7
Vcadd_SIMP
100
AcDbText
  0
TEXT
  5
3F1
100
AcDbEntity
  8
0
370
    15
390
0
  6
Continuous
 62
     7
100
AcDbText
 10
30.274131
 20
13.752132
 30
0.0
 40
0.125
  1
J
 50
270.0
  7
Vcadd_SIMP
100
AcDbText
  0
TEXT
  5
3F2
100
AcDbEntity
  8
4
370
    15
390
0
  6
Continuous
 62
     7
100
AcDbText
 10
22.889671
 20
16.700812
 30
0.0
 40
0.142
  1
0,38 x 45^  MAX
  7
Vcadd_SIMP
100
AcDbText
  0
TEXT
  5
3F3
100
AcDbEntity
  8
4
370
    15
390
0
  6
Continuous
 62
     7
100
AcDbText
 10
26.051914
 20
24.681773
 30
0.0
 40
0.12
  1
Formbohrer 994-033-***
  7
Vcadd_SIMP
100
AcDbText
  0
TEXT
  5
3F4
100
AcDbEntity
  8
4
370
    15
390
0
  6
Continuous
 62
     7
100
AcDbText
 10
26.051857
 20
24.21578
 30
0.0
 40
0.12
  1
Formreibahle 995-033-***
  7
Vcadd_SIMP
100
AcDbText
  0
LINE
  5
3F5
100
AcDbEntity
  8
0
370
     0
390
0
  6
Continuous
 62
     7
100
AcDbLine
 10
21.08735
 20
17.165308
 30
0.0
 11
21.08735
 21
17.112446
 31
0.0
  0
LINE
  5
3F6
100
AcDbEntity
  8
0
370
     0
390
0
  6
Continuous
 62
     7
100
AcDbLine
 10
21.122718
 20
17.165308
 30
0.0
 11
21.122718
 21
17.112446
 31
0.0
  0
LINE
  5
3F7
100
AcDbEntity
  8
0
370
     0
390
0
  6
Continuous
 62
     7
100
AcDbLine
 10
21.138438
 20
17.138877
 30
0.0
 11
21.107
 21
17.138877
 31
0.0
  0
LINE
  5
3F8
100
AcDbEntity
  8
0
370
     0
390
0
  6
Continuous
 62
     7
100
AcDbLine
 10
21.154156
 20
17.018049
 30
0.0
 11
21.08735
 21
17.06336
 31
0.0
  0
LINE
  5
3F9
100
AcDbEntity
  8
0
370
    15
390
0
  6
Continuous
 62
     7
100
AcDbLine
 10
21.019179
 20
17.138088
 30
0.0
 11
21.025036
 21
17.127457
 31
0.0
  0
LINE
  5
3FA
100
AcDbEntity
  8
0
370
    15
390
0
  6
Continuous
 62
     7
100
AcDbLine
 10
21.025036
 20
17.127457
 30
0.0
 11
20.983384
 21
17.094315
 31
0.0
  0
LINE
  5
3FB
100
AcDbEntity
  8
0
370
    15
390
0
  6
Continuous
 62
     7
100
AcDbLine
 10
20.983384
 20
17.094315
 30
0.0
 11
21.044561
 21
17.02803
 31
0.0
  0
TEXT
  5
3FC
100
AcDbEntity
  8
0
370
     0
390
0
  6
Continuous
 62
     7
100
AcDbText
 10
20.691331
 20
17.810973
 30
0.0
 40
0.062339
  1
REMOVE ALL
 50
270.0
 41
1.25
  7
Vcadd_SIMP
100
AcDbText
  0
TEXT
  5
3FD
100
AcDbEntity
  8
0
370
     0
390
0
  6
Continuous
 62
     7
100
AcDbText
 10
20.586312
 20
17.646169
 30
0.0
 40
0.062339
  1
BURRS
 50
270.0
 41
1.25
  7
Vcadd_SIMP
100
AcDbText
  0
TEXT
  5
3FE
100
AcDbEntity
  8
0
370
     0
390
0
  6
Continuous
 62
     7
100
AcDbText
 10
21.08688
 20
17.884221
 30
0.0
 40
0.062339
  1
ANGLE TOL
 50
270.0
 41
1.25
  7
Vcadd_SIMP
100
AcDbText
  0
TEXT
  5
3FF
100
AcDbEntity
  8
0
370
     0
390
0
  6
Continuous
 62
     7
100
AcDbText
 10
21.122718
 20
17.074687
 30
0.0
 40
0.032136
  1
1 
 50
270.0
 41
1.25
  7
Vcadd_SIMP
100
AcDbText
  0
TEXT
  5
400
100
AcDbEntity
  8
0
370
     0
390
0
  6
Continuous
 62
     7
100
AcDbText
 10
21.082548
 20
17.034517
 30
0.0
 40
0.032136
  1
2
 50
270.0
 41
1.25
  7
Vcadd_SIMP
100
AcDbText
  0
TEXT
  5
401
100
AcDbEntity
  8
0
370
     0
390
0
  6
Continuous
 62
     7
100
AcDbText
 10
20.982197
 20
17.85126
 30
0.0
 40
0.062339
  1
FINISH
 50
270.0
 41
1.25
  7
Vcadd_SIMP
100
AcDbText
  0
TEXT
  5
402
100
AcDbEntity
  8
0
370
     0
390
0
  6
Continuous
 62
     7
100
AcDbText
 10
20.625416
 20
17.445846
 30
0.0
 40
0.062339
  1
UNLESS
 50
270.0
 41
1.25
  7
Vcadd_SIMP
 72
     1
 11
20.894253
 21
17.445846
 31
0.0
100
AcDbText
  0
TEXT
  5
403
100
AcDbEntity
  8
0
370
     0
390
0
  6
Continuous
 62
     7
100
AcDbText
 10
20.409957
 20
17.445846
 30
0.0
 40
0.062339
  1
SPECIFIED
 50
270.0
 41
1.25
  7
Vcadd_SIMP
 72
     1
 11
20.813213
 21
17.445846
 31
0.0
100
AcDbText
  0
TEXT
  5
404
100
AcDbEntity
  8
0
370
     0
390
0
  6
Continuous
 62
     7
100
AcDbText
 10
20.982197
 20
17.320194
 30
0.0
 40
0.062339
  1
2,0
 50
270.0
 41
1.25
  7
Vcadd_SIMP
100
AcDbText
  0
TEXT
  5
405
100
AcDbEntity
  8
0
370
     0
390
0
  6
Continuous
 62
     7
100
AcDbText
 10
20.925811
 20
17.449275
 30
0.0
 40
0.055301
  1
DIM. TOLERANCE
 50
270.0
 41
1.1725
  7
Vcadd_SIMP
 72
     1
 11
21.447774
 21
17.449275
 31
0.0
100
AcDbText
  0
TEXT
  5
406
100
AcDbEntity
  8
0
370
     0
390
0
  6
Continuous
 62
     7
100
AcDbText
 10
20.965769
 20
17.449275
 30
0.0
 40
0.055301
  1
+\- 0,13 mm
 50
270.0
 41
1.1725
  7
Vcadd_SIMP
 72
     1
 11
21.375883
 21
17.449275
 31
0.0
100
AcDbText
  0
TEXT
  5
407
100
AcDbEntity
  8
0
370
     0
390
0
  6
Continuous
 62
     7
100
AcDbText
 10
21.080294
 20
17.449275
 30
0.0
 40
0.055301
  1
UNLESS
 50
270.0
 41
1.1725
  7
Vcadd_SIMP
 72
     1
 11
21.303992
 21
17.449275
 31
0.0
100
AcDbText
  0
TEXT
  5
408
100
AcDbEntity
  8
0
370
     0
390
0
  6
Continuous
 62
     7
100
AcDbText
 10
20.896553
 20
17.449275
 30
0.0
 40
0.055301
  1
SPECIFIED
 50
270.0
 41
1.1725
  7
Vcadd_SIMP
 72
     1
 11
21.232101
 21
17.449275
 31
0.0
100
AcDbText
  0
LINE
  5
409
100
AcDbEntity
  8
0
370
    15
390
0
  6
Continuous
 62
     7
100
AcDbLine
 10
20.863088
 20
21.563275
 30
0.0
 11
20.863088
 21
19.188275
 31
0.0
  0
LINE
  5
40A
100
AcDbEntity
  8
0
370
    15
390
0
  6
Continuous
 62
     7
100
AcDbLine
 10
21.487087
 20
21.563275
 30
0.0
 11
21.487087
 21
19.188275
 31
0.0
  0
TEXT
  5
40B
100
AcDbEntity
  8
0
370
     0
390
0
  6
Continuous
 62
     7
100
AcDbText
 10
21.065364
 20
21.499559
 30
0.0
 40
0.065844
  1
REVISED TOOLING P/N. REVISED DIMS FOR
 50
270.0
 41
0.9
  7
Vcadd_SIMP
100
AcDbText
  0
TEXT
  5
40C
100
AcDbEntity
  8
0
370
     0
390
0
  6
Continuous
 62
     7
100
AcDbText
 10
20.909365
 20
21.499559
 30
0.0
 40
0.065844
  1
CAVITY / TOOLING CONSISTENCY.
 50
270.0
 41
0.9
  7
Vcadd_SIMP
100
AcDbText
  0
TEXT
  5
40D
100
AcDbEntity
  8
0
370
     0
390
0
  6
Continuous
 62
     7
100
AcDbText
 10
20.753365
 20
21.499559
 30
0.0
 40
0.065844
  1
ADDED METRIC TOL. BLOCK TO SHEETS 2 & 3.
 50
270.0
 41
0.9
  7
Vcadd_SIMP
100
AcDbText
  0
TEXT
  5
40E
100
AcDbEntity
  8
0
370
     0
390
0
  6
Continuous
 62
     7
100
AcDbText
 10
21.027483
 20
21.688275
 30
0.0
 40
0.065844
  1
J
 50
270.0
  7
Vcadd_SIMP
 72
     1
 11
21.065343
 21
21.688275
 31
0.0
100
AcDbText
  0
TEXT
  5
40F
100
AcDbEntity
  8
0
370
     0
390
0
  6
Continuous
 62
     7
100
AcDbText
 10
20.800321
 20
18.938275
 30
0.0
 40
0.065844
  1
09MAY11
 50
270.0
  7
Vcadd_SIMP
 72
     1
 11
21.065343
 21
18.938275
 31
0.0
100
AcDbText
  0
TEXT
  5
410
100
AcDbEntity
  8
0
370
     0
390
0
  6
Continuous
 62
     7
100
AcDbText
 10
20.951762
 20
18.563275
 30
0.0
 40
0.065844
  1
JRS
 50
270.0
  7
Vcadd_SIMP
 72
     1
 11
21.065343
 21
18.563275
 31
0.0
100
AcDbText
  0
TEXT
  5
411
100
AcDbEntity
  8
0
370
     0
390
0
  6
Continuous
 62
     7
100
AcDbText
 10
20.932832
 20
18.063275
 30
0.0
 40
0.065844
  1
10164
 50
270.0
 41
0.7
  7
Vcadd_SIMP
 72
     1
 11
21.065343
 21
18.063275
 31
0.0
100
AcDbText
  0
LINE
  5
412
100
AcDbEntity
  8
0
370
    15
390
0
  6
Continuous
 62
     7
100
AcDbLine
 10
21.175087
 20
17.938275
 30
0.0
 11
21.175087
 21
21.813275
 31
0.0
  0
TEXT
  5
413
100
AcDbEntity
  8
0
370
     0
390
0
  6
Continuous
 62
     7
100
AcDbText
 10
20.951762
 20
18.313275
 30
0.0
 40
0.065844
  1
RCL
 50
270.0
  7
Vcadd_SIMP
 72
     1
 11
21.065343
 21
18.313275
 31
0.0
100
AcDbText
  0
TEXT
  5
414
100
AcDbEntity
  8
4
370
    15
390
0
  6
Continuous
 62
     7
100
AcDbText
 10
23.718701
 20
22.225686
 30
0.0
 40
0.142
  1
39,68
  7
Vcadd_SIMP
100
AcDbText
  0
TEXT
  5
415
100
AcDbEntity
  8
4
370
    15
390
0
  6
Continuous
 62
     7
100
AcDbText
 10
26.028424
 20
25.207937
 30
0.0
 40
0.12
  1
Formreibahle 1,19 mm tiefer
  7
Vcadd_SIMP
100
AcDbText
  0
TEXT
  5
416
100
AcDbEntity
  8
4
370
    15
390
0
  6
Continuous
 62
     7
100
AcDbText
 10
26.028424
 20
25.057937
 30
0.0
 40
0.12
  1
einfόhren als Formbohrer
  7
Vcadd_SIMP
100
AcDbText
  0
ENDSEC
  0
SECTION
  2
OBJECTS
  0
DICTIONARY
  5
19
100
AcDbDictionary
280
     0
281
     1
  3
ACAD_GROUP
350
1A
  3
ACAD_MLINESTYLE
350
1B
  3
ACAD_LAYOUT
350
1E
  3
ACAD_PLOTSETTINGS
350
22
  3
ACAD_PLOTSTYLENAME
350
1F
  3
ACAD_WIPEOUT_VARS
350
23
  0
DICTIONARY
  5
1A
102
{ACAD_REACTORS
330
19
102
}
100
AcDbDictionary
280
     0
281
     1
  0
DICTIONARY
  5
1B
102
{ACAD_REACTORS
330
19
102
}
100
AcDbDictionary
280
     0
281
     1
  3
Standard
350
1C
  0
MLINESTYLE
  5
1C
102
{ACAD_REACTORS
330
1B
102
}
100
AcDbMlineStyle
  2
Standard
 70
     0
  3

 62
     0
 51
90.0
 52
90.0
 71
     2
 49
0.5
 62
   256
  6
ByLayer
 49
-0.5
 62
   256
  6
ByLayer
  0
ACDBDICTIONARYWDFLT
  5
1F
102
{ACAD_REACTORS
330
19
102
}
100
AcDbDictionary
281
     1
  3
Normal
350
1D
100
AcDbDictionaryWithDefault
340
1D
  0
ACDBPLACEHOLDER
  5
1D
102
{ACAD_REACTORS
330
1F
102
}
  0
LAYOUT
  5
20
102
{ACAD_REACTORS
330
1E
102
}
100
AcDbPlotSettings
  1

  2

  4

  6

 40
0.0
 41
0.0
 42
0.0
 43
0.0
 44
0.0
 45
0.0
 46
0.0
 47
0.0
 48
0.0
 49
0.0
140
0.0
141
0.0
142
1.0
143
1.0
 70
  1024
 72
     0
 73
     0
 74
     0
  7

 75
     0
147
1.0
148
0.0
149
0.0
100
AcDbLayout
  1
Model
 70
     0
 71
     0
 10
0.0
 20
0.0
 11
0.0
 21
0.0
 12
0.0
 22
0.0
 32
0.0
 14
0.0
 24
0.0
 34
0.0
 15
0.0
 25
0.0
 35
0.0
146
0.0
 13
0.0
 23
0.0
 33
0.0
 16
0.0
 26
0.0
 36
0.0
 17
0.0
 27
0.0
 37
0.0
 76
     0
330
A
331
0
345
0
346
0
  0
LAYOUT
  5
21
102
{ACAD_REACTORS
330
1E
102
}
100
AcDbPlotSettings
  1

  2

  4

  6

 40
0.0
 41
0.0
 42
0.0
 43
0.0
 44
0.0
 45
0.0
 46
0.0
 47
0.0
 48
0.0
 49
0.0
140
0.0
141
0.0
142
1.0
143
1.0
 70
     0
 72
     0
 73
     0
 74
     0
  7

 75
     0
147
1.0
148
0.0
149
0.0
100
AcDbLayout
  1
Layout1
 70
     0
 71
     0
 10
0.0
 20
0.0
 11
0.0
 21
0.0
 12
0.0
 22
0.0
 32
0.0
 14
0.0
 24
0.0
 34
0.0
 15
0.0
 25
0.0
 35
0.0
146
0.0
 13
0.0
 23
0.0
 33
0.0
 16
0.0
 26
0.0
 36
0.0
 17
0.0
 27
0.0
 37
0.0
 76
     0
330
B
331
0
345
0
346
0
  0
DICTIONARY
  5
1E
102
{ACAD_REACTORS
330
19
102
}
100
AcDbDictionary
280
     0
281
     1
  3
Layout1
350
21
  3
Model
350
20
  0
DICTIONARY
  5
22
102
{ACAD_REACTORS
330
19
102
}
100
AcDbDictionary
280
     0
281
     1
  0
WIPEOUTVARIABLES
  5
23
100
AcDbWipeoutVariables
 70
     1
  0
ENDSEC
  0
EOF
