  0
SECTION
  2
HEADER
  9
$ACADVER
  1
AC1015
  9
$ACADMAINTVER
 70
     6
  9
$DWGCODEPAGE
  3
ANSI_1253
  9
$INSBASE
 10
0.0
 20
0.0
 30
0.0
  9
$EXTMIN
 10
20.396761
 20
12.138288
 30
0.0
  9
$EXTMAX
 10
30.401918
 20
28.141996
 30
0.0
  9
$LIMMIN
 10
0.0
 20
0.0
  9
$LIMMAX
 10
0.0
 20
0.0
  9
$ORTHOMODE
 70
     0
  9
$REGENMODE
 70
     1
  9
$FILLMODE
 70
     1
  9
$QTEXTMODE
 70
     0
  9
$MIRRTEXT
 70
     1
  9
$LTSCALE
 40
1.0
  9
$ATTMODE
 70
     1
  9
$TEXTSIZE
 40
0.2
  9
$TRACEWID
 40
0.05
  9
$TEXTSTYLE
  7
Standard
  9
$CLAYER
  8
0
  9
$CELTYPE
  6
Continuous
  9
$CECOLOR
 62
   256
  9
$CELTSCALE
 40
1.0
  9
$DISPSILH
 70
     0
  9
$DIMSCALE
 40
1.0
  9
$DIMASZ
 40
0.18
  9
$DIMEXO
 40
0.0625
  9
$DIMDLI
 40
0.38
  9
$DIMRND
 40
0.0
  9
$DIMDLE
 40
0.0
  9
$DIMEXE
 40
0.18
  9
$DIMTP
 40
0.0
  9
$DIMTM
 40
0.0
  9
$DIMTXT
 40
0.18
  9
$DIMCEN
 40
0.09
  9
$DIMTSZ
 40
0.0
  9
$DIMTOL
 70
     0
  9
$DIMLIM
 70
     0
  9
$DIMTIH
 70
     1
  9
$DIMTOH
 70
     1
  9
$DIMSE1
 70
     0
  9
$DIMSE2
 70
     0
  9
$DIMTAD
 70
     0
  9
$DIMZIN
 70
     0
  9
$DIMBLK
  1

  9
$DIMASO
 70
     1
  9
$DIMSHO
 70
     1
  9
$DIMPOST
  1

  9
$DIMAPOST
  1

  9
$DIMALT
 70
     0
  9
$DIMALTD
 70
     2
  9
$DIMALTF
 40
25.4
  9
$DIMLFAC
 40
1.0
  9
$DIMTOFL
 70
     0
  9
$DIMTVP
 40
0.0
  9
$DIMTIX
 70
     0
  9
$DIMSOXD
 70
     0
  9
$DIMSAH
 70
     0
  9
$DIMBLK1
  1

  9
$DIMBLK2
  1

  9
$DIMSTYLE
  2
Standard
  9
$DIMCLRD
 70
     0
  9
$DIMCLRE
 70
     0
  9
$DIMCLRT
 70
     0
  9
$DIMTFAC
 40
1.0
  9
$DIMGAP
 40
0.09
  9
$DIMJUST
 70
     0
  9
$DIMSD1
 70
     0
  9
$DIMSD2
 70
     0
  9
$DIMTOLJ
 70
     1
  9
$DIMTZIN
 70
     0
  9
$DIMALTZ
 70
     0
  9
$DIMALTTZ
 70
     0
  9
$DIMUPT
 70
     0
  9
$DIMDEC
 70
     4
  9
$DIMTDEC
 70
     4
  9
$DIMALTU
 70
     2
  9
$DIMALTTD
 70
     2
  9
$DIMTXSTY
  7
Standard
  9
$DIMAUNIT
 70
     0
  9
$DIMADEC
 70
     0
  9
$DIMALTRND
 40
0.0
  9
$DIMAZIN
 70
     0
  9
$DIMDSEP
 70
     0
  9
$DIMATFIT
 70
     3
  9
$DIMFRAC
 70
     0
  9
$DIMLDRBLK
  1

  9
$DIMLUNIT
 70
     2
  9
$DIMLWD
 70
     0
  9
$DIMLWE
 70
     0
  9
$DIMTMOVE
 70
     0
  9
$LUNITS
 70
     2
  9
$LUPREC
 70
     4
  9
$SKETCHINC
 40
0.1
  9
$FILLETRAD
 40
0.0
  9
$AUNITS
 70
     0
  9
$AUPREC
 70
     0
  9
$MENU
  1
acad
  9
$ELEVATION
 40
0.0
  9
$PELEVATION
 40
0.0
  9
$THICKNESS
 40
0.0
  9
$LIMCHECK
 70
     0
  9
$CHAMFERA
 40
0.0
  9
$CHAMFERB
 40
0.0
  9
$CHAMFERC
 40
0.0
  9
$CHAMFERD
 40
0.0
  9
$SKPOLY
 70
     0
  9
$TDCREATE
 40
0.000000000
  9
$TDUCREATE
 40
0.000000000
  9
$TDUPDATE
 40
0.000000000
  9
$TDUUPDATE
 40
0.000000000
  9
$TDINDWG
 40
0.0000000000
  9
$TDUSRTIMER
 40
0.0000000000
  9
$USRTIMER
 70
     1
  9
$ANGBASE
 50
0.0
  9
$ANGDIR
 70
     0
  9
$PDMODE
 70
     2
  9
$PDSIZE
 40
-1.0
  9
$PLINEWID
 40
0.0
  9
$SPLFRAME
 70
     0
  9
$SPLINETYPE
 70
     6
  9
$SPLINESEGS
 70
     8
  9
$HANDSEED
  5
383
  9
$SURFTAB1
 70
     6
  9
$SURFTAB2
 70
     6
  9
$SURFTYPE
 70
     6
  9
$SURFU
 70
     6
  9
$SURFV
 70
     6
  9
$UCSBASE
  2

  9
$UCSNAME
  2

  9
$UCSORG
 10
0.0
 20
0.0
 30
0.0
  9
$UCSXDIR
 10
1.0
 20
0.0
 30
0.0
  9
$UCSYDIR
 10
0.0
 20
1.0
 30
0.0
  9
$UCSORTHOREF
  2

  9
$UCSORTHOVIEW
 70
     0
  9
$UCSORGTOP
 10
0.0
 20
0.0
 30
0.0
  9
$UCSORGBOTTOM
 10
0.0
 20
0.0
 30
0.0
  9
$UCSORGLEFT
 10
0.0
 20
0.0
 30
0.0
  9
$UCSORGRIGHT
 10
0.0
 20
0.0
 30
0.0
  9
$UCSORGFRONT
 10
0.0
 20
0.0
 30
0.0
  9
$UCSORGBACK
 10
0.0
 20
0.0
 30
0.0
  9
$PUCSBASE
  2

  9
$PUCSNAME
  2

  9
$PUCSORG
 10
0.0
 20
0.0
 30
0.0
  9
$PUCSXDIR
 10
1.0
 20
0.0
 30
0.0
  9
$PUCSYDIR
 10
0.0
 20
1.0
 30
0.0
  9
$PUCSORTHOREF
  2

  9
$PUCSORTHOVIEW
 70
     0
  9
$PUCSORGTOP
 10
0.0
 20
0.0
 30
0.0
  9
$PUCSORGBOTTOM
 10
0.0
 20
0.0
 30
0.0
  9
$PUCSORGLEFT
 10
0.0
 20
0.0
 30
0.0
  9
$PUCSORGRIGHT
 10
0.0
 20
0.0
 30
0.0
  9
$PUCSORGFRONT
 10
0.0
 20
0.0
 30
0.0
  9
$PUCSORGBACK
 10
0.0
 20
0.0
 30
0.0
  9
$USERI1
 70
     0
  9
$USERI2
 70
     0
  9
$USERI3
 70
     0
  9
$USERI4
 70
     0
  9
$USERI5
 70
     0
  9
$USERR1
 40
0.0
  9
$USERR2
 40
0.0
  9
$USERR3
 40
0.0
  9
$USERR4
 40
0.0
  9
$USERR5
 40
0.0
  9
$WORLDVIEW
 70
     1
  9
$SHADEDGE
 70
     3
  9
$SHADEDIF
 70
    70
  9
$TILEMODE
 70
     1
  9
$MAXACTVP
 70
    16
  9
$PINSBASE
 10
0.0
 20
0.0
 30
0.0
  9
$PLIMCHECK
 70
     0
  9
$PEXTMIN
 10
1.000000E+20
 20
1.000000E+20
 30
1.000000E+20
  9
$PEXTMAX
 10
-1.000000E+20
 20
-1.000000E+20
 30
-1.000000E+20
  9
$PLIMMIN
 10
0.0
 20
0.0
  9
$PLIMMAX
 10
12.0
 20
9.0
  9
$UNITMODE
 70
     0
  9
$VISRETAIN
 70
     0
  9
$PLINEGEN
 70
     1
  9
$PSLTSCALE
 70
     0
  9
$TREEDEPTH
 70
  3020
  9
$CMLSTYLE
  2
Standard
  9
$CMLJUST
 70
     0
  9
$CMLSCALE
 40
1.0
  9
$PROXYGRAPHICS
 70
     0
  9
$MEASUREMENT
 70
     0
  9
$CELWEIGHT
370
     0
  9
$ENDCAPS
280
     0
  9
$JOINSTYLE
280
     0
  9
$LWDISPLAY
290
     1
  9
$INSUNITS
 70
     0
  9
$HYPERLINKBASE
  1

  9
$STYLESHEET
  1

  9
$XEDIT
290
     1
  9
$CEPSNTYPE
380
     0
  9
$PSTYLEMODE
290
     1
  9
$FINGERPRINTGUID
  2

  9
$VERSIONGUID
  2

  9
$EXTNAMES
290
     1
  9
$PSVPSCALE
 40
0.0
  0
ENDSEC
  0
SECTION
  2
CLASSES
  0
CLASS
  1
LWPOLYLINE
  2
AcDbPolyline
  3
AutoCAD 2000
 90
        0
280
     0
281
     1
  0
CLASS
  1
IMAGE
  2
AcDbRasterImage
  3
ISM
 90
      127
280
     0
281
     1
  0
CLASS
  1
OLE2FRAME
  2
AcDbOle2Frame
  3
AutoCAD 2000
 90
        0
280
     0
281
     1
  0
CLASS
  1
HATCH
  2
AcDbHatch
  3
AutoCAD 2000
 90
        0
280
     0
281
     1
  0
CLASS
  1
DICTIONARYVAR
  2
AcDbDictionaryVar
  3
AutoCAD 2000
 90
        0
280
     0
281
     0
  0
CLASS
  1
RASTERVARIABLES
  2
AcDbRasterVariables
  3
ISM
 90
        0
280
     0
281
     0
  0
CLASS
  1
IMAGEDEF
  2
AcDbRasterImageDef
  3
ISM
 90
        0
280
     0
281
     0
  0
CLASS
  1
IMAGEDEF_REACTOR
  2
AcDbRasterImageDefReactor
  3
ISM
 90
        1
280
     0
281
     0
  0
CLASS
  1
IDBUFFER
  2
AcDbIdBuffer
  3
AutoCAD 2000
 90
        0
280
     0
281
     0
  0
CLASS
  1
SPATIAL_FILTER
  2
AcDbSpatialFilter
  3
AutoCAD 2000
 90
        0
280
     0
281
     0
  0
CLASS
  1
XRECORD
  2
AcDbXrecord
  3
AutoCAD 2000
 90
        0
280
     0
281
     0
  0
CLASS
  1
SORTENTSTABLE
  2
AcDbSortentsTable
  3
AutoCAD 2000
 90
        0
280
     0
281
     0
  0
CLASS
  1
LAYER_INDEX
  2
AcDbLayerIndex
  3
AutoCAD 2000
 90
        0
280
     0
281
     0
  0
CLASS
  1
SPATIAL_INDEX
  2
AcDbSpatialIndex
  3
AutoCAD 2000
 90
        0
280
     0
281
     0
  0
CLASS
  1
OBJECT_PTR
  2
CAseDLPNTableRecord
  3
"ASE-LPNTableRecord"
 90
        1
280
     0
281
     0
  0
CLASS
  1
LAYOUT
  2
AcDbLayout
  3
AutoCAD 2000
 90
        0
280
     0
281
     0
  0
CLASS
  1
PLOTSETTINGS
  2
AcDbPlotSettings
  3
AutoCAD 2000
 90
        0
280
     0
281
     0
  0
CLASS
  1
ACDBDICTIONARYWDFLT
  2
AcDbDictionaryWithDefault
  3
AutoCAD 2000
 90
        0
280
     0
281
     0
  0
CLASS
  1
ACDBPLACEHOLDER
  2
AcDbPlaceHolder
  3
AutoCAD 2000
 90
        0
280
     0
281
     0
  0
CLASS
  1
VBA_PROJECT
  2
AcDbVbaProject
  3
acadvba
 90
        0
280
     0
281
     0
  0
CLASS
  1
WIPEOUT
  2
AcDbWipeout
  3
WipeOut|AutoCAD Express Tool|expresstools@autodesk.com
 90
      127
280
     0
281
     1
  0
CLASS
  1
WIPEOUTVARIABLES
  2
AcDbWipeoutVariables
  3
WipeOut|AutoCAD Express Tool|expresstools@autodesk.com
 90
        0
280
     0
281
     0
  0
CLASS
  1
RTEXT
  2
RText
  3
RText|AutoCAD Express Tool|expresstools@autodesk.com
 90
        0
280
     0
281
     1
  0
CLASS
  1
ARCALIGNEDTEXT
  2
AcDbArcAlignedText
  3
ATEXT|AutoCAD Express Tool|expresstools@autodesk.com
 90
        0
280
     0
281
     1
  0
ENDSEC
  0
SECTION
  2
TABLES
  0
TABLE
  2
VPORT
  5
7
100
AcDbSymbolTable
 70
     2
  0
VPORT
  5
15
100
AcDbSymbolTableRecord
100
AcDbViewportTableRecord
  2
*ACTIVE
 70
     0
 10
0.0
 20
0.0
 11
1.0
 21
1.0
 12
6.591288
 22
4.579184
 13
0.0
 23
0.0
 14
1.0
 24
1.0
 15
0.0
 25
0.0
 16
0.0
 26
0.0
 36
1.0
 17
0.0
 27
0.0
 37
0.0
 40
9.158369
 41
0.688564
 42
50.0
 43
0.0
 44
0.0
 50
0.0
 51
0.0
 71
     0
 72
   100
 73
     1
 74
     1
 75
     0
 76
     0
 77
     0
 78
     0
281
     0
 65
     0
110
0.0
120
0.0
130
0.0
111
1.0
121
0.0
131
0.0
112
0.0
122
1.0
132
0.0
345
0
346
0
 79
     0
146
0.0
  0
VPORT
  5
382
100
AcDbSymbolTableRecord
100
AcDbViewportTableRecord
  2
MYVPORT
 70
     0
 10
0.0
 20
0.0
 11
1.0
 21
1.0
 12
6.21
 22
9.02
 13
0.0
 23
0.0
 14
1.0
 24
1.0
 15
0.0
 25
0.0
 16
0.0
 26
0.0
 36
1.0
 17
0.0
 27
0.0
 37
0.0
 40
18.04
 41
0.688564
 42
50.0
 43
0.0
 44
0.0
 50
0.0
 51
0.0
 71
     0
 72
   100
 73
     1
 74
     1
 75
     0
 76
     0
 77
     0
 78
     0
281
     0
 65
     0
110
0.0
120
0.0
130
0.0
111
1.0
121
0.0
131
0.0
112
0.0
122
1.0
132
0.0
345
0
346
0
 79
     0
146
0.0
  0
ENDTAB
  0
TABLE
  2
LTYPE
  5
4
100
AcDbSymbolTable
 70
     7
  0
LTYPE
  5
11
100
AcDbSymbolTableRecord
100
AcDbLinetypeTableRecord
  2
ByBlock
 70
    64
  3

 72
    65
 73
     0
 40
0.0
  0
LTYPE
  5
12
100
AcDbSymbolTableRecord
100
AcDbLinetypeTableRecord
  2
ByLayer
 70
    64
  3

 72
    65
 73
     0
 40
0.0
  0
LTYPE
  5
13
100
AcDbSymbolTableRecord
100
AcDbLinetypeTableRecord
  2
Continuous
 70
    64
  3
Solid line
 72
    65
 73
     0
 40
0.0
  0
LTYPE
  5
58
100
AcDbSymbolTableRecord
100
AcDbLinetypeTableRecord
  2
CL____X1
 70
    64
  3
Visual CADD Translation
 72
    65
 73
     4
 40
1.33
 49
0.05
 74
     0
 49
-0.05
 74
     0
 49
1.18
 74
     0
 49
-0.05
 74
     0
  0
LTYPE
  5
15B
100
AcDbSymbolTableRecord
100
AcDbLinetypeTableRecord
  2
DIVIDE
 70
    64
  3
Visual CADD Translation
 72
    65
 73
     6
 40
1.0
 49
0.6
 74
     0
 49
-0.133
 74
     0
 49
0.0
 74
     0
 49
-0.134
 74
     0
 49
0.0
 74
     0
 49
-0.133
 74
     0
  0
LTYPE
  5
1E4
100
AcDbSymbolTableRecord
100
AcDbLinetypeTableRecord
  2
TYPE___8
 70
    64
  3
Visual CADD Translation
 72
    65
 73
     6
 40
1.0
 49
0.6
 74
     0
 49
-0.08
 74
     0
 49
0.08
 74
     0
 49
-0.08
 74
     0
 49
0.08
 74
     0
 49
-0.08
 74
     0
  0
LTYPE
  5
1F3
100
AcDbSymbolTableRecord
100
AcDbLinetypeTableRecord
  2
PHANTOM
 70
    64
  3
Visual CADD Translation
 72
    65
 73
     6
 40
1.37
 49
0.99
 74
     0
 49
-0.05
 74
     0
 49
0.115
 74
     0
 49
-0.05
 74
     0
 49
0.115
 74
     0
 49
-0.05
 74
     0
  0
ENDTAB
  0
TABLE
  2
LAYER
  5
2
100
AcDbSymbolTable
 70
     6
  0
LAYER
  5
14
100
AcDbSymbolTableRecord
100
AcDbLayerTableRecord
  2
0
 70
     0
 62
     7
  6
Continuous
290
     1
370
    -3
390
1D
  0
LAYER
  5
24
100
AcDbSymbolTableRecord
100
AcDbLayerTableRecord
  2
1
 70
     0
 62
     7
  6
Continuous
290
     1
370
    -3
390
1D
  0
LAYER
  5
25
100
AcDbSymbolTableRecord
100
AcDbLayerTableRecord
  2
2
 70
     0
 62
     7
  6
Continuous
290
     1
370
    -3
390
1D
  0
LAYER
  5
26
100
AcDbSymbolTableRecord
100
AcDbLayerTableRecord
  2
3
 70
     0
 62
     7
  6
Continuous
290
     1
370
    -3
390
1D
  0
LAYER
  5
27
100
AcDbSymbolTableRecord
100
AcDbLayerTableRecord
  2
4
 70
     0
 62
     7
  6
Continuous
290
     1
370
    -3
390
1D
  0
LAYER
  5
257
100
AcDbSymbolTableRecord
100
AcDbLayerTableRecord
  2
9
 70
     0
 62
     7
  6
Continuous
290
     1
370
    -3
390
1D
  0
ENDTAB
  0
TABLE
  2
STYLE
  5
3
100
AcDbSymbolTable
 70
     3
  0
STYLE
  5
17
100
AcDbSymbolTableRecord
100
AcDbTextStyleTableRecord
  2
Standard
 70
     0
 40
0.0
 41
1.0
 50
0.0
 71
     0
 42
0.0
  3
txt
  4

  0
STYLE
  5
2F
100
AcDbSymbolTableRecord
100
AcDbTextStyleTableRecord
  2
Vcadd_Main
 70
     0
 40
0.0
 41
1.0
 50
0.0
 71
     0
 42
0.0
  3
Main
  4

  0
STYLE
  5
17C
100
AcDbSymbolTableRecord
100
AcDbTextStyleTableRecord
  2
Vcadd_SIMP
 70
     0
 40
0.0
 41
1.0
 50
0.0
 71
     0
 42
0.0
  3
SIMP
  4

  0
ENDTAB
  0
TABLE
  2
VIEW
  5
5
100
AcDbSymbolTable
 70
     0
  0
ENDTAB
  0
TABLE
  2
UCS
  5
6
100
AcDbSymbolTable
 70
     1
  0
UCS
  5
381
100
AcDbSymbolTableRecord
100
AcDbUCSTableRecord
  2
MYUCS
 70
     0
 10
0.0
 20
0.0
 30
0.0
 11
0.0
 21
1.0
 31
0.0
 12
0.0
 22
0.0
 32
1.0
 79
     0
146
0.0
  0
ENDTAB
  0
TABLE
  2
APPID
  5
8
100
AcDbSymbolTable
 70
     1
  0
APPID
  5
16
100
AcDbSymbolTableRecord
100
AcDbRegAppTableRecord
  2
ACAD
 70
     0
  0
ENDTAB
  0
TABLE
  2
DIMSTYLE
  5
9
100
AcDbSymbolTable
 70
     2
100
AcDbDimStyleTable
 71
     0
  0
DIMSTYLE
105
18
100
AcDbSymbolTableRecord
100
AcDbDimStyleTableRecord
  2
Standard
 70
     0
  3

  4

 40
1.0
 41
0.18
 42
0.0625
 43
0.38
 44
0.18
 45
0.0
 46
0.0
 47
0.0
 48
0.0
 71
     0
 72
     0
 73
     1
 74
     1
 75
     0
 76
     0
 77
     0
 78
     0
 79
     0
140
0.18
141
0.09
142
0.0
143
25.4
144
1.0
145
0.0
146
1.0
147
0.09
148
0.0
170
     0
171
     2
172
     0
173
     0
174
     0
175
     0
176
     0
177
     0
178
     0
179
     0
271
     4
272
     4
273
     2
274
     2
275
     0
276
     0
277
     2
278
    46
279
     0
280
     0
281
     0
282
     0
283
     1
284
     0
285
     0
286
     0
288
     0
289
     3
340
17
341
0
342
0
343
0
344
0
371
    -2
372
    -2
  0
DIMSTYLE
105
30
100
AcDbSymbolTableRecord
100
AcDbDimStyleTableRecord
  2
VCADD_DIMSTYLE
 70
     0
  3

  4

 40
1.0
 41
2.5
 42
0.1
 43
0.0
 44
0.1
 45
0.0
 46
0.0
 47
0.003
 48
0.002
 71
     0
 72
     0
 73
     1
 74
     1
 75
     0
 76
     0
 77
     0
 78
     3
 79
     1
140
0.1
141
0.0
142
0.0
143
1.0
144
1.0
145
0.0
146
1.0
147
0.2
148
0.0
170
     0
171
     3
172
     0
173
     0
174
     1
175
     0
176
     0
177
     0
178
     0
179
     3
271
     3
272
     4
273
     2
274
     2
275
     0
276
     0
277
     2
278
    46
279
     0
280
     0
281
     0
282
     0
283
     1
284
     0
285
     0
286
     0
288
     0
289
     3
340
2F
341
0
342
0
343
0
344
0
371
    -2
372
    -2
  0
ENDTAB
  0
TABLE
  2
BLOCK_RECORD
  5
1
100
AcDbSymbolTable
 70
     5
  0
BLOCK_RECORD
  5
A
100
AcDbSymbolTableRecord
100
AcDbBlockTableRecord
  2
*MODEL_SPACE
340
20
  0
BLOCK_RECORD
  5
B
100
AcDbSymbolTableRecord
100
AcDbBlockTableRecord
  2
*PAPER_SPACE
340
21
  0
BLOCK_RECORD
  5
28
100
AcDbSymbolTableRecord
100
AcDbBlockTableRecord
  2
_CLOSED
340
0
  0
BLOCK_RECORD
  5
1BC
100
AcDbSymbolTableRecord
100
AcDbBlockTableRecord
  2
MAU
340
0
102
{BLKREFS
331
1C9
331
1DA
102
}
  0
BLOCK_RECORD
  5
1CB
100
AcDbSymbolTableRecord
100
AcDbBlockTableRecord
  2
MAL
340
0
102
{BLKREFS
331
1D8
102
}
  0
BLOCK_RECORD
  5
255
100
AcDbSymbolTableRecord
100
AcDbBlockTableRecord
  2
ARROW
340
0
102
{BLKREFS
331
25D
331
25E
331
25F
331
260
331
261
331
262
331
263
331
264
331
265
331
266
331
267
331
268
331
269
331
26A
331
26B
331
26C
331
26D
331
270
331
349
331
34A
102
}
  0
BLOCK_RECORD
  5
36C
100
AcDbSymbolTableRecord
100
AcDbBlockTableRecord
  2
REV
340
0
102
{BLKREFS
331
373
102
}
  0
ENDTAB
  0
ENDSEC
  0
SECTION
  2
BLOCKS
  0
BLOCK
  5
D
100
AcDbEntity
  8
0
390
0
100
AcDbBlockBegin
  2
*MODEL_SPACE
 70
     0
 10
0.0
 20
0.0
 30
0.0
  3
*MODEL_SPACE
  1

  0
ENDBLK
  5
E
100
AcDbEntity
  8
0
390
0
100
AcDbBlockEnd
  0
BLOCK
  5
F
100
AcDbEntity
 67
     1
  8
0
390
0
100
AcDbBlockBegin
  2
*PAPER_SPACE
 70
     0
 10
0.0
 20
0.0
 30
0.0
  3
*PAPER_SPACE
  1

  0
ENDBLK
  5
10
100
AcDbEntity
 67
     1
  8
0
390
0
100
AcDbBlockEnd
  0
BLOCK
  5
29
100
AcDbEntity
  8
0
390
0
100
AcDbBlockBegin
  2
_CLOSED
 70
     0
 10
0.0
 20
0.0
 30
0.0
  3
_CLOSED
  1

  0
LINE
  5
2A
100
AcDbEntity
  8
0
370
    -2
390
0
  6
ByBlock
 62
     0
100
AcDbLine
 10
-1.0
 20
0.166667
 30
0.0
 11
0.0
 21
0.0
 31
0.0
  0
LINE
  5
2B
100
AcDbEntity
  8
0
370
    -2
390
0
  6
ByBlock
 62
     0
100
AcDbLine
 10
0.0
 20
0.0
 30
0.0
 11
-1.0
 21
-0.166667
 31
0.0
  0
LINE
  5
2C
100
AcDbEntity
  8
0
370
    -2
390
0
  6
ByBlock
 62
     0
100
AcDbLine
 10
-1.0
 20
0.166667
 30
0.0
 11
-1.0
 21
-0.166667
 31
0.0
  0
LINE
  5
2D
100
AcDbEntity
  8
0
370
    -2
390
0
  6
ByBlock
 62
     0
100
AcDbLine
 10
0.0
 20
0.0
 30
0.0
 11
-1.0
 21
0.0
 31
0.0
  0
ENDBLK
  5
2E
100
AcDbEntity
  8
0
390
0
100
AcDbBlockEnd
  0
BLOCK
  5
1BD
100
AcDbEntity
  8
0
390
0
100
AcDbBlockBegin
  2
MAU
 70
     0
 10
0.0
 20
0.0
 30
0.0
  3
MAU
  1

  0
LINE
  5
1BE
100
AcDbEntity
  8
0
370
     0
390
0
  6
Continuous
 62
     2
100
AcDbLine
 10
0.0
 20
0.0
 30
0.0
 11
-0.024965
 21
-0.169856
 31
0.0
  0
LINE
  5
1BF
100
AcDbEntity
  8
0
370
     0
390
0
  6
Continuous
 62
     2
100
AcDbLine
 10
0.0
 20
0.0
 30
0.0
 11
0.022192
 21
-0.169856
 31
0.0
  0
LINE
  5
1C0
100
AcDbEntity
  8
0
370
     0
390
0
  6
Continuous
 62
     2
100
AcDbLine
 10
0.022192
 20
-0.169856
 30
0.0
 11
-0.024965
 21
-0.169856
 31
0.0
  0
LINE
  5
1C1
100
AcDbEntity
  8
0
370
     0
390
0
  6
Continuous
 62
     7
100
AcDbLine
 10
-0.015773
 20
-0.160825
 30
0.0
 11
0.013481
 21
-0.160825
 31
0.0
  0
LINE
  5
1C2
100
AcDbEntity
  8
0
370
     0
390
0
  6
Continuous
 62
     7
100
AcDbLine
 10
0.013481
 20
-0.160825
 30
0.0
 11
-0.000196
 21
-0.036413
 31
0.0
  0
LINE
  5
1C3
100
AcDbEntity
  8
0
370
     0
390
0
  6
Continuous
 62
     7
100
AcDbLine
 10
-0.015773
 20
-0.160825
 30
0.0
 11
-0.000196
 21
-0.036413
 31
0.0
  0
LINE
  5
1C4
100
AcDbEntity
  8
0
370
     0
390
0
  6
Continuous
 62
     7
100
AcDbLine
 10
-0.006656
 20
-0.149436
 30
0.0
 11
-0.000576
 21
-0.078031
 31
0.0
  0
LINE
  5
1C5
100
AcDbEntity
  8
0
370
     0
390
0
  6
Continuous
 62
     7
100
AcDbLine
 10
-0.006656
 20
-0.149436
 30
0.0
 11
0.005122
 21
-0.149436
 31
0.0
  0
LINE
  5
1C6
100
AcDbEntity
  8
0
370
     0
390
0
  6
Continuous
 62
     7
100
AcDbLine
 10
0.005122
 20
-0.149436
 30
0.0
 11
-0.000576
 21
-0.078031
 31
0.0
  0
LINE
  5
1C7
100
AcDbEntity
  8
0
370
     0
390
0
  6
Continuous
 62
     7
100
AcDbLine
 10
-0.000957
 20
-0.142427
 30
0.0
 11
-0.000957
 21
-0.119647
 31
0.0
  0
ENDBLK
  5
1C8
100
AcDbEntity
  8
0
390
0
100
AcDbBlockEnd
  0
BLOCK
  5
1CC
100
AcDbEntity
  8
0
390
0
100
AcDbBlockBegin
  2
MAL
 70
     0
 10
0.0
 20
0.0
 30
0.0
  3
MAL
  1

  0
LINE
  5
1CD
100
AcDbEntity
  8
0
370
     0
390
0
  6
Continuous
 62
     2
100
AcDbLine
 10
0.0
 20
0.0
 30
0.0
 11
0.169856
 21
0.024965
 31
0.0
  0
LINE
  5
1CE
100
AcDbEntity
  8
0
370
     0
390
0
  6
Continuous
 62
     2
100
AcDbLine
 10
0.0
 20
0.0
 30
0.0
 11
0.169856
 21
-0.022192
 31
0.0
  0
LINE
  5
1CF
100
AcDbEntity
  8
0
370
     0
390
0
  6
Continuous
 62
     2
100
AcDbLine
 10
0.169856
 20
-0.022192
 30
0.0
 11
0.169856
 21
0.024965
 31
0.0
  0
LINE
  5
1D0
100
AcDbEntity
  8
0
370
     0
390
0
  6
Continuous
 62
     7
100
AcDbLine
 10
0.160825
 20
0.015773
 30
0.0
 11
0.160825
 21
-0.013481
 31
0.0
  0
LINE
  5
1D1
100
AcDbEntity
  8
0
370
     0
390
0
  6
Continuous
 62
     7
100
AcDbLine
 10
0.160825
 20
-0.013481
 30
0.0
 11
0.036413
 21
0.000196
 31
0.0
  0
LINE
  5
1D2
100
AcDbEntity
  8
0
370
     0
390
0
  6
Continuous
 62
     7
100
AcDbLine
 10
0.160825
 20
0.015773
 30
0.0
 11
0.036413
 21
0.000196
 31
0.0
  0
LINE
  5
1D3
100
AcDbEntity
  8
0
370
     0
390
0
  6
Continuous
 62
     7
100
AcDbLine
 10
0.149436
 20
0.006656
 30
0.0
 11
0.078031
 21
0.000576
 31
0.0
  0
LINE
  5
1D4
100
AcDbEntity
  8
0
370
     0
390
0
  6
Continuous
 62
     7
100
AcDbLine
 10
0.149436
 20
0.006656
 30
0.0
 11
0.149436
 21
-0.005122
 31
0.0
  0
LINE
  5
1D5
100
AcDbEntity
  8
0
370
     0
390
0
  6
Continuous
 62
     7
100
AcDbLine
 10
0.149436
 20
-0.005122
 30
0.0
 11
0.078031
 21
0.000576
 31
0.0
  0
LINE
  5
1D6
100
AcDbEntity
  8
0
370
     0
390
0
  6
Continuous
 62
     7
100
AcDbLine
 10
0.142427
 20
0.000957
 30
0.0
 11
0.119647
 21
0.000957
 31
0.0
  0
ENDBLK
  5
1D7
100
AcDbEntity
  8
0
390
0
100
AcDbBlockEnd
  0
BLOCK
  5
256
100
AcDbEntity
  8
0
390
0
100
AcDbBlockBegin
  2
ARROW
 70
     0
 10
0.0
 20
0.0
 30
0.0
  3
ARROW
  1

  0
LINE
  5
258
100
AcDbEntity
  8
9
370
     0
390
0
  6
Continuous
 62
     5
100
AcDbLine
 10
0.0
 20
0.0
 30
0.0
 11
-0.160849
 21
0.031523
 31
0.0
  0
LINE
  5
259
100
AcDbEntity
  8
9
370
     0
390
0
  6
Continuous
 62
     5
100
AcDbLine
 10
-0.160849
 20
0.031523
 30
0.0
 11
-0.160849
 21
-0.035463
 31
0.0
  0
LINE
  5
25A
100
AcDbEntity
  8
9
370
     0
390
0
  6
Continuous
 62
     5
100
AcDbLine
 10
0.0
 20
0.0
 30
0.0
 11
-0.160849
 21
-0.035463
 31
0.0
  0
HATCH
  5
25B
100
AcDbEntity
  8
9
370
     0
390
0
  6
Continuous
 62
     5
100
AcDbHatch
 10
0.0
 20
0.0
 30
0.0
210
0.0
220
0.0
230
1.0
  2
SOLID
 70
     1
 71
     0
 91
        1
 92
        1
 93
        3
 72
     1
 10
0.0
 20
0.0
 11
-0.1608486175537109
 21
0.0315227508544922
 72
     1
 10
-0.1608486175537109
 20
0.0315227508544922
 11
-0.1608486175537109
 21
-0.0354633331298828
 72
     1
 10
-0.1608486175537109
 20
-0.0354633331298828
 11
0.0
 21
0.0
 97
        0
 75
     0
 76
     1
 98
        1
 10
0.0
 20
0.0
  0
ENDBLK
  5
25C
100
AcDbEntity
  8
0
390
0
100
AcDbBlockEnd
  0
BLOCK
  5
36D
100
AcDbEntity
  8
0
390
0
100
AcDbBlockBegin
  2
REV
 70
     0
 10
0.0
 20
0.0
 30
0.0
  3
REV
  1

  0
TEXT
  5
36E
100
AcDbEntity
  8
4
370
     0
390
0
  6
Continuous
 62
     7
100
AcDbText
 10
0.024755
 20
0.020219
 30
0.0
 40
0.035
  1
---
  7
Vcadd_SIMP
100
AcDbText
  0
TEXT
  5
36F
100
AcDbEntity
  8
4
370
     0
390
0
  6
Continuous
 62
     7
100
AcDbText
 10
0.143589
 20
0.026049
 30
0.0
 40
0.035
  1
ADDED PAGE 3 OF 3
 41
0.9
  7
Vcadd_SIMP
100
AcDbText
  0
TEXT
  5
370
100
AcDbEntity
  8
4
370
     0
390
0
  6
Continuous
 62
     7
100
AcDbText
 10
1.578146
 20
0.020219
 30
0.0
 40
0.035
  1
RJB
  7
Vcadd_SIMP
100
AcDbText
  0
TEXT
  5
371
100
AcDbEntity
  8
4
370
     0
390
0
  6
Continuous
 62
     7
100
AcDbText
 10
1.31724
 20
0.020219
 30
0.0
 40
0.035
  1
30DEC02
  7
Vcadd_SIMP
100
AcDbText
  0
ENDBLK
  5
372
100
AcDbEntity
  8
0
390
0
100
AcDbBlockEnd
  0
ENDSEC
  0
SECTION
  2
ENTITIES
  0
VIEWPORT
  5
31
100
AcDbEntity
 67
     1
  8
0
390
0
  6
Continuous
 62
     0
100
AcDbViewport
 10
4.5
 20
3.259162
 30
0.0
 40
12.857143
 41
9.311892
 68
     1
 69
     1
 12
762.9316
 22
546.5183
 13
1169.457242
 23
377.488
 14
0.5
 24
0.5
 15
12.0
 25
12.0
 16
0.0
 26
0.0
 36
1.0
 17
0.0
 27
0.0
 37
0.0
 42
50.0
 43
-55.0
 44
-55.0
 45
1084.5
 50
0.0
 51
0.0
 72
   500
 90
        0
340
0
  1

281
     0
 71
     1
 74
     0
110
0.0
120
0.0
130
0.0
111
1.0
121
0.0
131
0.0
112
0.0
122
1.0
132
0.0
345
0
346
0
 79
     0
146
0.0
  0
LINE
  5
32
100
AcDbEntity
  8
0
370
    15
390
0
  6
Continuous
 62
     2
100
AcDbLine
 10
21.771761
 20
12.138289
 30
0.0
 11
21.771761
 21
22.763289
 31
0.0
  0
LINE
  5
33
100
AcDbEntity
  8
0
370
    15
390
0
  6
Continuous
 62
     7
100
AcDbLine
 10
21.771761
 20
12.138289
 30
0.0
 11
21.771761
 21
12.138289
 31
0.0
  0
LINE
  5
34
100
AcDbEntity
  8
0
370
    15
390
0
  6
Continuous
 62
     7
100
AcDbLine
 10
21.771761
 20
14.888289
 30
0.0
 11
20.396761
 21
14.888289
 31
0.0
  0
LINE
  5
35
100
AcDbEntity
  8
0
370
    15
390
0
  6
Continuous
 62
     7
100
AcDbLine
 10
21.771761
 20
17.888293
 30
0.0
 11
20.396761
 21
17.888293
 31
0.0
  0
LINE
  5
36
100
AcDbEntity
  8
0
370
    15
390
0
  6
Continuous
 62
     7
100
AcDbLine
 10
20.552767
 20
22.763289
 30
0.0
 11
20.552767
 21
18.888293
 31
0.0
  0
LINE
  5
37
100
AcDbEntity
  8
0
370
    15
390
0
  6
Continuous
 62
     7
100
AcDbLine
 10
21.396761
 20
17.888293
 30
0.0
 11
21.396761
 21
18.888293
 31
0.0
  0
LINE
  5
38
100
AcDbEntity
  8
0
370
    15
390
0
  6
Continuous
 62
     7
100
AcDbLine
 10
20.677767
 20
17.888293
 30
0.0
 11
20.677767
 21
16.263289
 31
0.0
  0
LINE
  5
39
100
AcDbEntity
  8
0
370
    15
390
0
  6
Continuous
 62
     7
100
AcDbLine
 10
20.958758
 20
17.888293
 30
0.0
 11
20.958758
 21
16.263289
 31
0.0
  0
LINE
  5
3A
100
AcDbEntity
  8
0
370
    15
390
0
  6
Continuous
 62
     7
100
AcDbLine
 10
20.958758
 20
16.263289
 30
0.0
 11
20.958758
 21
14.888289
 31
0.0
  0
LINE
  5
3B
100
AcDbEntity
  8
0
370
    15
390
0
  6
Continuous
 62
     7
100
AcDbLine
 10
21.333758
 20
17.888293
 30
0.0
 11
21.333758
 21
14.888289
 31
0.0
  0
LINE
  5
3C
100
AcDbEntity
  8
0
370
    15
390
0
  6
Continuous
 62
     7
100
AcDbLine
 10
20.958758
 20
16.263289
 30
0.0
 11
20.396761
 21
16.263289
 31
0.0
  0
LINE
  5
3D
100
AcDbEntity
  8
0
370
    15
390
0
  6
Continuous
 62
     7
100
AcDbLine
 10
20.958758
 20
16.263289
 30
0.0
 11
21.333758
 21
16.263289
 31
0.0
  0
LINE
  5
3E
100
AcDbEntity
  8
0
370
    15
390
0
  6
Continuous
 62
     7
100
AcDbLine
 10
21.333758
 20
17.513293
 30
0.0
 11
20.958758
 21
17.513293
 31
0.0
  0
LINE
  5
3F
100
AcDbEntity
  8
0
370
    15
390
0
  6
Continuous
 62
     7
100
AcDbLine
 10
20.396761
 20
17.346285
 30
0.0
 11
20.677767
 21
17.346285
 31
0.0
  0
LINE
  5
40
100
AcDbEntity
  8
0
370
    15
390
0
  6
Continuous
 62
     7
100
AcDbLine
 10
20.396761
 20
16.804289
 30
0.0
 11
20.677767
 21
16.804289
 31
0.0
  0
LINE
  5
41
100
AcDbEntity
  8
0
370
    15
390
0
  6
Continuous
 62
     7
100
AcDbLine
 10
20.677767
 20
16.804289
 30
0.0
 11
20.958758
 21
16.804289
 31
0.0
  0
LINE
  5
42
100
AcDbEntity
  8
0
370
    15
390
0
  6
Continuous
 62
     7
100
AcDbLine
 10
20.677767
 20
17.346285
 30
0.0
 11
20.958758
 21
17.346285
 31
0.0
  0
LINE
  5
43
100
AcDbEntity
  8
0
370
    15
390
0
  6
Continuous
 62
     7
100
AcDbLine
 10
21.333758
 20
14.888289
 30
0.0
 11
21.333758
 21
12.138289
 31
0.0
  0
LINE
  5
44
100
AcDbEntity
  8
0
370
    15
390
0
  6
Continuous
 62
     7
100
AcDbLine
 10
21.771761
 20
14.326292
 30
0.0
 11
21.333758
 21
14.326292
 31
0.0
  0
LINE
  5
45
100
AcDbEntity
  8
0
370
    15
390
0
  6
Continuous
 62
     7
100
AcDbLine
 10
30.026919
 20
14.888289
 30
0.0
 11
30.026919
 21
12.138289
 31
0.0
  0
LINE
  5
46
100
AcDbEntity
  8
0
370
    15
390
0
  6
Continuous
 62
     7
100
AcDbLine
 10
30.026919
 20
14.326292
 30
0.0
 11
30.399111
 21
14.326292
 31
0.0
  0
LINE
  5
47
100
AcDbEntity
  8
0
370
    15
390
0
  6
Continuous
 62
     7
100
AcDbLine
 10
30.026919
 20
14.888289
 30
0.0
 11
30.401919
 21
14.888289
 31
0.0
  0
LINE
  5
48
100
AcDbEntity
  8
0
370
    15
390
0
  6
Continuous
 62
     7
100
AcDbLine
 10
20.69443
 20
15.754485
 30
0.0
 11
20.570696
 21
15.466978
 31
0.0
  0
ARC
  5
49
100
AcDbEntity
  8
0
370
    15
390
0
  6
Continuous
 62
     7
100
AcDbCircle
 10
20.870882
 20
15.337771
 30
0.0
 40
0.32681
100
AcDbArc
 50
156.685422
 51
236.837242
  0
ARC
  5
4A
100
AcDbEntity
  8
0
370
    15
390
0
  6
Continuous
 62
     7
100
AcDbCircle
 10
20.385547
 20
15.85708
 30
0.0
 40
0.325486
100
AcDbArc
 50
341.621018
 51
418.318565
  0
LINE
  5
4B
100
AcDbEntity
  8
0
370
    15
390
0
  6
Continuous
 62
     7
100
AcDbLine
 10
20.691683
 20
15.626982
 30
0.0
 11
20.596987
 21
15.67636
 31
0.0
  0
LINE
  5
4C
100
AcDbEntity
  8
0
370
    15
390
0
  6
Continuous
 62
     7
100
AcDbLine
 10
20.664278
 20
15.568114
 30
0.0
 11
20.573168
 21
15.619475
 31
0.0
  0
LINE
  5
4D
100
AcDbEntity
  8
0
370
    15
390
0
  6
Continuous
 62
     6
100
AcDbLine
 10
20.396761
 20
28.141997
 30
0.0
 11
20.396761
 21
12.138289
 31
0.0
  0
LINE
  5
4E
100
AcDbEntity
  8
0
370
    15
390
0
  6
Continuous
 62
     6
100
AcDbLine
 10
20.396761
 20
12.138289
 30
0.0
 11
30.401919
 21
12.138289
 31
0.0
  0
LINE
  5
4F
100
AcDbEntity
  8
0
370
    15
390
0
  6
Continuous
 62
     6
100
AcDbLine
 10
30.401919
 20
12.138289
 30
0.0
 11
30.401919
 21
28.141997
 31
0.0
  0
LINE
  5
50
100
AcDbEntity
  8
0
370
    15
390
0
  6
Continuous
 62
     6
100
AcDbLine
 10
30.401919
 20
28.141997
 30
0.0
 11
20.396761
 21
28.141997
 31
0.0
  0
LINE
  5
51
100
AcDbEntity
  8
1
370
    15
390
0
  6
Continuous
 62
     1
100
AcDbLine
 10
26.626276
 20
21.78673
 30
0.0
 11
26.604281
 21
21.78673
 31
0.0
  0
ARC
  5
52
100
AcDbEntity
  8
1
370
    15
390
0
  6
Continuous
 62
     1
100
AcDbCircle
 10
26.60429
 20
21.74672
 30
0.0
 40
0.04001
100
AcDbArc
 50
90.013464
 51
179.986536
  0
LINE
  5
53
100
AcDbEntity
  8
1
370
    15
390
0
  6
Continuous
 62
     1
100
AcDbLine
 10
26.56428
 20
21.598734
 30
0.0
 11
26.56428
 21
21.746729
 31
0.0
  0
LINE
  5
54
100
AcDbEntity
  8
1
370
    15
390
0
  6
Continuous
 62
     1
100
AcDbLine
 10
26.517283
 20
21.55173
 30
0.0
 11
26.517283
 21
19.718731
 31
0.0
  0
LINE
  5
55
100
AcDbEntity
  8
1
370
    15
390
0
  6
Continuous
 62
     1
100
AcDbLine
 10
26.517283
 20
21.55173
 30
0.0
 11
26.56428
 21
21.598734
 31
0.0
  0
LINE
  5
56
100
AcDbEntity
  8
1
370
    15
390
0
  6
Continuous
 62
     1
100
AcDbLine
 10
26.517283
 20
19.718731
 30
0.0
 11
26.479365
 21
19.680813
 31
0.0
  0
ARC
  5
57
100
AcDbEntity
  8
1
370
    15
390
0
  6
Continuous
 62
     1
100
AcDbCircle
 10
26.501171
 20
19.658941
 30
0.0
 40
0.030886
100
AcDbArc
 50
134.913942
 51
180.087269
  0
LINE
  5
59
100
AcDbEntity
  8
1
370
    15
390
0
  6
CL____X1
 62
     1
100
AcDbLine
 10
26.553385
 20
21.587832
 30
0.0
 11
26.553385
 21
21.098734
 31
0.0
  0
LINE
  5
5A
100
AcDbEntity
  8
1
370
    15
390
0
  6
Continuous
 62
     1
100
AcDbLine
 10
26.470286
 20
19.334736
 30
0.0
 11
26.470286
 21
19.658894
 31
0.0
  0
LINE
  5
5B
100
AcDbEntity
  8
1
370
    15
390
0
  6
Continuous
 62
     7
100
AcDbLine
 10
25.844782
 20
22.346529
 30
0.0
 11
25.844782
 21
22.150874
 31
0.0
  0
LINE
  5
5C
100
AcDbEntity
  8
1
370
    15
390
0
  6
Continuous
 62
     7
100
AcDbLine
 10
25.844782
 20
20.928019
 30
0.0
 11
25.844782
 21
20.764971
 31
0.0
  0
LINE
  5
5D
100
AcDbEntity
  8
1
370
    15
390
0
  6
Continuous
 62
     7
100
AcDbLine
 10
25.844782
 20
22.052782
 30
0.0
 11
25.844782
 21
21.009539
 31
0.0
  0
LINE
  5
5E
100
AcDbEntity
  8
1
370
    15
390
0
  6
Continuous
 62
     7
100
AcDbLine
 10
25.844782
 20
22.794405
 30
0.0
 11
25.844782
 21
22.444361
 31
0.0
  0
LINE
  5
5F
100
AcDbEntity
  8
1
370
    15
390
0
  6
Continuous
 62
     1
100
AcDbLine
 10
26.344782
 20
19.334736
 30
0.0
 11
26.470286
 21
19.334736
 31
0.0
  0
LINE
  5
60
100
AcDbEntity
  8
1
370
    15
390
0
  6
CL____X1
 62
     1
100
AcDbLine
 10
26.626276
 20
21.817736
 30
0.0
 11
26.626276
 21
21.967249
 31
0.0
  0
LINE
  5
61
100
AcDbEntity
  8
2
370
    15
390
0
  6
Continuous
 62
     7
100
AcDbLine
 10
26.564494
 20
22.702204
 30
0.0
 11
26.471781
 21
22.755732
 31
0.0
  0
LINE
  5
62
100
AcDbEntity
  8
2
370
    15
390
0
  6
Continuous
 62
     7
100
AcDbLine
 10
26.564494
 20
22.005732
 30
0.0
 11
26.564494
 21
22.702204
 31
0.0
  0
ARC
  5
63
100
AcDbEntity
  8
2
370
    15
390
0
  6
Continuous
 62
     7
100
AcDbCircle
 10
26.388037
 20
22.438154
 30
0.0
 40
0.317579
100
AcDbArc
 50
63.748617
 51
123.752454
  0
LINE
  5
64
100
AcDbEntity
  8
2
370
    15
390
0
  6
Continuous
 62
     7
100
AcDbLine
 10
26.56428
 20
21.78673
 30
0.0
 11
26.56428
 21
21.739733
 31
0.0
  0
LINE
  5
65
100
AcDbEntity
  8
2
370
    15
390
0
  6
Continuous
 62
     7
100
AcDbLine
 10
26.552279
 20
21.538142
 30
0.0
 11
26.476778
 21
21.581728
 31
0.0
  0
LINE
  5
66
100
AcDbEntity
  8
2
370
    15
390
0
  6
Continuous
 62
     7
100
AcDbLine
 10
26.487284
 20
21.192736
 30
0.0
 11
26.487284
 21
21.079729
 31
0.0
  0
LINE
  5
67
100
AcDbEntity
  8
2
370
    15
390
0
  6
Continuous
 62
     7
100
AcDbLine
 10
26.475275
 20
21.067736
 30
0.0
 11
26.487284
 21
21.079729
 31
0.0
  0
LINE
  5
68
100
AcDbEntity
  8
2
370
    15
390
0
  6
Continuous
 62
     7
100
AcDbLine
 10
26.552279
 20
21.257731
 30
0.0
 11
26.552279
 21
21.538142
 31
0.0
  0
LINE
  5
69
100
AcDbEntity
  8
2
370
    15
390
0
  6
Continuous
 62
     7
100
AcDbLine
 10
26.487284
 20
21.192736
 30
0.0
 11
26.552279
 21
21.257731
 31
0.0
  0
LINE
  5
6A
100
AcDbEntity
  8
2
370
    15
390
0
  6
CL____X1
 62
     7
100
AcDbLine
 10
26.495638
 20
21.570841
 30
0.0
 11
26.495638
 21
21.20109
 31
0.0
  0
LINE
  5
6B
100
AcDbEntity
  8
2
370
    15
390
0
  6
Continuous
 62
     7
100
AcDbLine
 10
26.470278
 20
19.733731
 30
0.0
 11
26.470278
 21
19.640736
 31
0.0
  0
LINE
  5
6C
100
AcDbEntity
  8
2
370
    15
390
0
  6
Continuous
 62
     7
100
AcDbLine
 10
26.470278
 20
19.416737
 30
0.0
 11
26.470278
 21
19.369732
 31
0.0
  0
LINE
  5
6D
100
AcDbEntity
  8
2
370
    15
390
0
  6
Continuous
 62
     7
100
AcDbLine
 10
26.43928
 20
19.338734
 30
0.0
 11
26.470278
 21
19.369732
 31
0.0
  0
ELLIPSE
  5
6E
100
AcDbEntity
  8
2
370
    15
390
0
  6
Continuous
 62
     7
100
AcDbEllipse
 10
26.221194
 20
19.854736
 30
0.0
 11
0.0
 21
0.1094999313354492
 31
0.0
210
0.0
220
0.0
230
1.0
 40
0.72657
 41
0.0
 42
6.2831853071795862
  0
LINE
  5
6F
100
AcDbEntity
  8
2
370
    15
390
0
  6
Continuous
 62
     7
100
AcDbLine
 10
26.242465
 20
19.854733
 30
0.0
 11
26.199915
 21
19.854733
 31
0.0
  0
LINE
  5
70
100
AcDbEntity
  8
2
370
    15
390
0
  6
Continuous
 62
     7
100
AcDbLine
 10
26.221194
 20
19.833462
 30
0.0
 11
26.221194
 21
19.876011
 31
0.0
  0
LINE
  5
71
100
AcDbEntity
  8
2
370
    15
390
0
  6
Continuous
 62
     7
100
AcDbLine
 10
26.264277
 20
19.854733
 30
0.0
 11
26.319834
 21
19.854733
 31
0.0
  0
LINE
  5
72
100
AcDbEntity
  8
2
370
    15
390
0
  6
Continuous
 62
     7
100
AcDbLine
 10
26.221194
 20
19.731045
 30
0.0
 11
26.221194
 21
19.81165
 31
0.0
  0
LINE
  5
73
100
AcDbEntity
  8
2
370
    15
390
0
  6
Continuous
 62
     7
100
AcDbLine
 10
26.221194
 20
19.977282
 30
0.0
 11
26.221194
 21
19.897816
 31
0.0
  0
LINE
  5
74
100
AcDbEntity
  8
2
370
    15
390
0
  6
Continuous
 62
     7
100
AcDbLine
 10
25.898966
 20
19.854733
 30
0.0
 11
26.178111
 21
19.854733
 31
0.0
  0
LINE
  5
75
100
AcDbEntity
  8
2
370
    15
390
0
  6
Continuous
 62
     7
100
AcDbLine
 10
26.382777
 20
19.416737
 30
0.0
 11
26.382777
 21
19.640736
 31
0.0
  0
LINE
  5
76
100
AcDbEntity
  8
2
370
    15
390
0
  6
Continuous
 62
     7
100
AcDbLine
 10
26.468775
 20
19.630925
 30
0.0
 11
26.382777
 21
19.630925
 31
0.0
  0
LINE
  5
77
100
AcDbEntity
  8
2
370
    15
390
0
  6
Continuous
 62
     7
100
AcDbLine
 10
26.468775
 20
19.630925
 30
0.0
 11
26.468775
 21
19.587925
 31
0.0
  0
ARC
  5
78
100
AcDbEntity
  8
2
370
    15
390
0
  6
Continuous
 62
     7
100
AcDbCircle
 10
26.458773
 20
19.587933
 30
0.0
 40
0.010003
100
AcDbArc
 50
270.046282
 51
359.953718
  0
ARC
  5
79
100
AcDbEntity
  8
2
370
    15
390
0
  6
Continuous
 62
     7
100
AcDbCircle
 10
26.392779
 20
19.587933
 30
0.0
 40
0.010003
100
AcDbArc
 50
180.046269
 51
270.0
  0
LINE
  5
7A
100
AcDbEntity
  8
2
370
    15
390
0
  6
Continuous
 62
     7
100
AcDbLine
 10
26.382777
 20
19.630925
 30
0.0
 11
26.382777
 21
19.587925
 31
0.0
  0
ARC
  5
7B
100
AcDbEntity
  8
2
370
    15
390
0
  6
Continuous
 62
     7
100
AcDbCircle
 10
26.42578
 20
19.45687
 30
0.0
 40
0.125478
100
AcDbArc
 50
74.751717
 51
105.248283
  0
LINE
  5
7C
100
AcDbEntity
  8
2
370
    15
390
0
  6
Continuous
 62
     7
100
AcDbLine
 10
26.382777
 20
19.428349
 30
0.0
 11
26.468775
 21
19.428349
 31
0.0
  0
LINE
  5
7D
100
AcDbEntity
  8
2
370
    15
390
0
  6
Continuous
 62
     7
100
AcDbLine
 10
26.382777
 20
19.428349
 30
0.0
 11
26.382777
 21
19.471348
 31
0.0
  0
ARC
  5
7E
100
AcDbEntity
  8
2
370
    15
390
0
  6
Continuous
 62
     7
100
AcDbCircle
 10
26.392779
 20
19.471348
 30
0.0
 40
0.010003
100
AcDbArc
 50
90.0
 51
179.997465
  0
ARC
  5
7F
100
AcDbEntity
  8
2
370
    15
390
0
  6
Continuous
 62
     7
100
AcDbCircle
 10
26.458773
 20
19.471348
 30
0.0
 40
0.010003
100
AcDbArc
 50
0.002548
 51
89.953731
  0
LINE
  5
80
100
AcDbEntity
  8
2
370
    15
390
0
  6
Continuous
 62
     7
100
AcDbLine
 10
26.468775
 20
19.428349
 30
0.0
 11
26.468775
 21
19.471348
 31
0.0
  0
ARC
  5
81
100
AcDbEntity
  8
2
370
    15
390
0
  6
Continuous
 62
     7
100
AcDbCircle
 10
26.42578
 20
19.602194
 30
0.0
 40
0.125269
100
AcDbArc
 50
254.725692
 51
285.274308
  0
LINE
  5
82
100
AcDbEntity
  8
2
370
    15
390
0
  6
Continuous
 62
     7
100
AcDbLine
 10
26.476778
 20
21.581728
 30
0.0
 11
26.476778
 21
21.739733
 31
0.0
  0
LINE
  5
83
100
AcDbEntity
  8
2
370
    15
390
0
  6
Continuous
 62
     7
100
AcDbLine
 10
26.476778
 20
21.584048
 30
0.0
 11
26.562777
 21
21.584048
 31
0.0
  0
LINE
  5
84
100
AcDbEntity
  8
2
370
    15
390
0
  6
Continuous
 62
     7
100
AcDbLine
 10
26.476778
 20
21.584048
 30
0.0
 11
26.476778
 21
21.627047
 31
0.0
  0
ARC
  5
85
100
AcDbEntity
  8
2
370
    15
390
0
  6
Continuous
 62
     7
100
AcDbCircle
 10
26.486781
 20
21.627046
 30
0.0
 40
0.010003
100
AcDbArc
 50
90.0
 51
179.997465
  0
ARC
  5
86
100
AcDbEntity
  8
2
370
    15
390
0
  6
Continuous
 62
     7
100
AcDbCircle
 10
26.552787
 20
21.627059
 30
0.0
 40
0.00999
100
AcDbArc
 50
359.927927
 51
450.072073
  0
LINE
  5
87
100
AcDbEntity
  8
2
370
    15
390
0
  6
Continuous
 62
     7
100
AcDbLine
 10
26.562777
 20
21.584048
 30
0.0
 11
26.562777
 21
21.627047
 31
0.0
  0
ARC
  5
88
100
AcDbEntity
  8
2
370
    15
390
0
  6
Continuous
 62
     7
100
AcDbCircle
 10
26.519778
 20
21.758081
 30
0.0
 40
0.125449
100
AcDbArc
 50
254.749975
 51
285.250025
  0
LINE
  5
89
100
AcDbEntity
  8
2
370
    15
390
0
  6
Continuous
 62
     7
100
AcDbLine
 10
25.846781
 20
22.755732
 30
0.0
 11
26.471781
 21
22.755732
 31
0.0
  0
LINE
  5
8A
100
AcDbEntity
  8
2
370
    15
390
0
  6
Continuous
 62
     7
100
AcDbLine
 10
25.846781
 20
21.78673
 30
0.0
 11
26.626276
 21
21.78673
 31
0.0
  0
LINE
  5
8B
100
AcDbEntity
  8
2
370
    15
390
0
  6
Continuous
 62
     7
100
AcDbLine
 10
25.846781
 20
21.739733
 30
0.0
 11
26.56428
 21
21.739733
 31
0.0
  0
LINE
  5
8C
100
AcDbEntity
  8
2
370
    15
390
0
  6
Continuous
 62
     7
100
AcDbLine
 10
25.846781
 20
21.581728
 30
0.0
 11
26.476778
 21
21.581728
 31
0.0
  0
LINE
  5
8D
100
AcDbEntity
  8
2
370
    15
390
0
  6
Continuous
 62
     7
100
AcDbLine
 10
25.846781
 20
21.538142
 30
0.0
 11
26.552279
 21
21.538142
 31
0.0
  0
LINE
  5
8E
100
AcDbEntity
  8
2
370
    15
390
0
  6
Continuous
 62
     7
100
AcDbLine
 10
25.846781
 20
21.257731
 30
0.0
 11
26.552279
 21
21.257731
 31
0.0
  0
LINE
  5
8F
100
AcDbEntity
  8
2
370
    15
390
0
  6
Continuous
 62
     7
100
AcDbLine
 10
25.846781
 20
21.192736
 30
0.0
 11
26.487284
 21
21.192736
 31
0.0
  0
LINE
  5
90
100
AcDbEntity
  8
2
370
    15
390
0
  6
Continuous
 62
     7
100
AcDbLine
 10
25.846781
 20
21.079729
 30
0.0
 11
26.487284
 21
21.079729
 31
0.0
  0
LINE
  5
91
100
AcDbEntity
  8
2
370
    15
390
0
  6
Continuous
 62
     7
100
AcDbLine
 10
25.846781
 20
21.067736
 30
0.0
 11
26.475275
 21
21.067736
 31
0.0
  0
LINE
  5
92
100
AcDbEntity
  8
2
370
    15
390
0
  6
Continuous
 62
     7
100
AcDbLine
 10
25.846781
 20
19.733731
 30
0.0
 11
26.470278
 21
19.733731
 31
0.0
  0
LINE
  5
93
100
AcDbEntity
  8
2
370
    15
390
0
  6
Continuous
 62
     7
100
AcDbLine
 10
25.846781
 20
19.640736
 30
0.0
 11
26.470278
 21
19.640736
 31
0.0
  0
LINE
  5
94
100
AcDbEntity
  8
2
370
    15
390
0
  6
Continuous
 62
     7
100
AcDbLine
 10
25.846781
 20
19.416737
 30
0.0
 11
26.470278
 21
19.416737
 31
0.0
  0
LINE
  5
95
100
AcDbEntity
  8
2
370
    15
390
0
  6
Continuous
 62
     7
100
AcDbLine
 10
25.846781
 20
19.369732
 30
0.0
 11
26.470278
 21
19.369732
 31
0.0
  0
LINE
  5
96
100
AcDbEntity
  8
2
370
    15
390
0
  6
Continuous
 62
     7
100
AcDbLine
 10
25.846781
 20
19.338734
 30
0.0
 11
26.43928
 21
19.338734
 31
0.0
  0
LINE
  5
97
100
AcDbEntity
  8
2
370
    15
390
0
  6
Continuous
 62
     7
100
AcDbLine
 10
26.376276
 20
19.733731
 30
0.0
 11
26.376276
 21
21.067736
 31
0.0
  0
LINE
  5
98
100
AcDbEntity
  8
2
370
    15
390
0
  6
Continuous
 62
     7
100
AcDbLine
 10
26.564494
 20
22.702204
 30
0.0
 11
26.471781
 21
22.755732
 31
0.0
  0
ARC
  5
99
100
AcDbEntity
  8
2
370
    15
390
0
  6
Continuous
 62
     7
100
AcDbCircle
 10
26.388037
 20
22.438154
 30
0.0
 40
0.317579
100
AcDbArc
 50
63.748617
 51
123.752454
  0
LINE
  5
9A
100
AcDbEntity
  8
2
370
    15
390
0
  6
Continuous
 62
     7
100
AcDbLine
 10
26.56428
 20
21.78673
 30
0.0
 11
26.56428
 21
21.739733
 31
0.0
  0
LINE
  5
9B
100
AcDbEntity
  8
2
370
    15
390
0
  6
Continuous
 62
     7
100
AcDbLine
 10
26.552279
 20
21.538142
 30
0.0
 11
26.476778
 21
21.581728
 31
0.0
  0
LINE
  5
9C
100
AcDbEntity
  8
2
370
    15
390
0
  6
Continuous
 62
     7
100
AcDbLine
 10
26.487284
 20
21.192736
 30
0.0
 11
26.487284
 21
21.079729
 31
0.0
  0
LINE
  5
9D
100
AcDbEntity
  8
2
370
    15
390
0
  6
Continuous
 62
     7
100
AcDbLine
 10
26.475275
 20
21.067736
 30
0.0
 11
26.487284
 21
21.079729
 31
0.0
  0
LINE
  5
9E
100
AcDbEntity
  8
2
370
    15
390
0
  6
Continuous
 62
     7
100
AcDbLine
 10
26.552279
 20
21.257731
 30
0.0
 11
26.552279
 21
21.538142
 31
0.0
  0
LINE
  5
9F
100
AcDbEntity
  8
2
370
    15
390
0
  6
Continuous
 62
     7
100
AcDbLine
 10
26.487284
 20
21.192736
 30
0.0
 11
26.552279
 21
21.257731
 31
0.0
  0
LINE
  5
A0
100
AcDbEntity
  8
2
370
    15
390
0
  6
CL____X1
 62
     7
100
AcDbLine
 10
26.495638
 20
21.570841
 30
0.0
 11
26.495638
 21
21.20109
 31
0.0
  0
LINE
  5
A1
100
AcDbEntity
  8
2
370
    15
390
0
  6
Continuous
 62
     7
100
AcDbLine
 10
26.470278
 20
19.733731
 30
0.0
 11
26.470278
 21
19.640736
 31
0.0
  0
LINE
  5
A2
100
AcDbEntity
  8
2
370
    15
390
0
  6
Continuous
 62
     7
100
AcDbLine
 10
26.470278
 20
19.416737
 30
0.0
 11
26.470278
 21
19.369732
 31
0.0
  0
LINE
  5
A3
100
AcDbEntity
  8
2
370
    15
390
0
  6
Continuous
 62
     7
100
AcDbLine
 10
26.43928
 20
19.338734
 30
0.0
 11
26.470278
 21
19.369732
 31
0.0
  0
ELLIPSE
  5
A4
100
AcDbEntity
  8
2
370
    15
390
0
  6
Continuous
 62
     7
100
AcDbEllipse
 10
26.221194
 20
19.854736
 30
0.0
 11
0.0
 21
0.1094999313354492
 31
0.0
210
0.0
220
0.0
230
1.0
 40
0.72657
 41
0.0
 42
6.2831853071795862
  0
LINE
  5
A5
100
AcDbEntity
  8
2
370
    15
390
0
  6
Continuous
 62
     7
100
AcDbLine
 10
26.242465
 20
19.854733
 30
0.0
 11
26.199915
 21
19.854733
 31
0.0
  0
LINE
  5
A6
100
AcDbEntity
  8
2
370
    15
390
0
  6
Continuous
 62
     7
100
AcDbLine
 10
26.221194
 20
19.833462
 30
0.0
 11
26.221194
 21
19.876011
 31
0.0
  0
LINE
  5
A7
100
AcDbEntity
  8
2
370
    15
390
0
  6
Continuous
 62
     7
100
AcDbLine
 10
26.264277
 20
19.854733
 30
0.0
 11
26.319834
 21
19.854733
 31
0.0
  0
LINE
  5
A8
100
AcDbEntity
  8
2
370
    15
390
0
  6
Continuous
 62
     7
100
AcDbLine
 10
26.221194
 20
19.731045
 30
0.0
 11
26.221194
 21
19.81165
 31
0.0
  0
LINE
  5
A9
100
AcDbEntity
  8
2
370
    15
390
0
  6
Continuous
 62
     7
100
AcDbLine
 10
26.221194
 20
19.977282
 30
0.0
 11
26.221194
 21
19.897816
 31
0.0
  0
LINE
  5
AA
100
AcDbEntity
  8
2
370
    15
390
0
  6
Continuous
 62
     7
100
AcDbLine
 10
25.898966
 20
19.854733
 30
0.0
 11
26.178111
 21
19.854733
 31
0.0
  0
LINE
  5
AB
100
AcDbEntity
  8
2
370
    15
390
0
  6
Continuous
 62
     7
100
AcDbLine
 10
26.382777
 20
19.416737
 30
0.0
 11
26.382777
 21
19.640736
 31
0.0
  0
LINE
  5
AC
100
AcDbEntity
  8
2
370
    15
390
0
  6
Continuous
 62
     7
100
AcDbLine
 10
26.468775
 20
19.630925
 30
0.0
 11
26.382777
 21
19.630925
 31
0.0
  0
LINE
  5
AD
100
AcDbEntity
  8
2
370
    15
390
0
  6
Continuous
 62
     7
100
AcDbLine
 10
26.468775
 20
19.630925
 30
0.0
 11
26.468775
 21
19.587925
 31
0.0
  0
ARC
  5
AE
100
AcDbEntity
  8
2
370
    15
390
0
  6
Continuous
 62
     7
100
AcDbCircle
 10
26.458773
 20
19.587933
 30
0.0
 40
0.010003
100
AcDbArc
 50
270.046282
 51
359.953718
  0
ARC
  5
AF
100
AcDbEntity
  8
2
370
    15
390
0
  6
Continuous
 62
     7
100
AcDbCircle
 10
26.392779
 20
19.587933
 30
0.0
 40
0.010003
100
AcDbArc
 50
180.046269
 51
270.0
  0
LINE
  5
B0
100
AcDbEntity
  8
2
370
    15
390
0
  6
Continuous
 62
     7
100
AcDbLine
 10
26.382777
 20
19.630925
 30
0.0
 11
26.382777
 21
19.587925
 31
0.0
  0
ARC
  5
B1
100
AcDbEntity
  8
2
370
    15
390
0
  6
Continuous
 62
     7
100
AcDbCircle
 10
26.42578
 20
19.45687
 30
0.0
 40
0.125478
100
AcDbArc
 50
74.751717
 51
105.248283
  0
LINE
  5
B2
100
AcDbEntity
  8
2
370
    15
390
0
  6
Continuous
 62
     7
100
AcDbLine
 10
26.382777
 20
19.428349
 30
0.0
 11
26.468775
 21
19.428349
 31
0.0
  0
LINE
  5
B3
100
AcDbEntity
  8
2
370
    15
390
0
  6
Continuous
 62
     7
100
AcDbLine
 10
26.382777
 20
19.428349
 30
0.0
 11
26.382777
 21
19.471348
 31
0.0
  0
ARC
  5
B4
100
AcDbEntity
  8
2
370
    15
390
0
  6
Continuous
 62
     7
100
AcDbCircle
 10
26.392779
 20
19.471348
 30
0.0
 40
0.010003
100
AcDbArc
 50
90.0
 51
179.997465
  0
ARC
  5
B5
100
AcDbEntity
  8
2
370
    15
390
0
  6
Continuous
 62
     7
100
AcDbCircle
 10
26.458773
 20
19.471348
 30
0.0
 40
0.010003
100
AcDbArc
 50
0.002548
 51
89.953731
  0
LINE
  5
B6
100
AcDbEntity
  8
2
370
    15
390
0
  6
Continuous
 62
     7
100
AcDbLine
 10
26.468775
 20
19.428349
 30
0.0
 11
26.468775
 21
19.471348
 31
0.0
  0
ARC
  5
B7
100
AcDbEntity
  8
2
370
    15
390
0
  6
Continuous
 62
     7
100
AcDbCircle
 10
26.42578
 20
19.602194
 30
0.0
 40
0.125269
100
AcDbArc
 50
254.725692
 51
285.274308
  0
LINE
  5
B8
100
AcDbEntity
  8
2
370
    15
390
0
  6
Continuous
 62
     7
100
AcDbLine
 10
26.476778
 20
21.581728
 30
0.0
 11
26.476778
 21
21.739733
 31
0.0
  0
LINE
  5
B9
100
AcDbEntity
  8
2
370
    15
390
0
  6
Continuous
 62
     7
100
AcDbLine
 10
26.476778
 20
21.584048
 30
0.0
 11
26.562777
 21
21.584048
 31
0.0
  0
LINE
  5
BA
100
AcDbEntity
  8
2
370
    15
390
0
  6
Continuous
 62
     7
100
AcDbLine
 10
26.476778
 20
21.584048
 30
0.0
 11
26.476778
 21
21.627047
 31
0.0
  0
ARC
  5
BB
100
AcDbEntity
  8
2
370
    15
390
0
  6
Continuous
 62
     7
100
AcDbCircle
 10
26.486781
 20
21.627046
 30
0.0
 40
0.010003
100
AcDbArc
 50
90.0
 51
179.997465
  0
ARC
  5
BC
100
AcDbEntity
  8
2
370
    15
390
0
  6
Continuous
 62
     7
100
AcDbCircle
 10
26.552787
 20
21.627059
 30
0.0
 40
0.00999
100
AcDbArc
 50
359.927927
 51
450.072073
  0
LINE
  5
BD
100
AcDbEntity
  8
2
370
    15
390
0
  6
Continuous
 62
     7
100
AcDbLine
 10
26.562777
 20
21.584048
 30
0.0
 11
26.562777
 21
21.627047
 31
0.0
  0
ARC
  5
BE
100
AcDbEntity
  8
2
370
    15
390
0
  6
Continuous
 62
     7
100
AcDbCircle
 10
26.519778
 20
21.758081
 30
0.0
 40
0.125449
100
AcDbArc
 50
254.749975
 51
285.250025
  0
LINE
  5
BF
100
AcDbEntity
  8
2
370
    15
390
0
  6
Continuous
 62
     7
100
AcDbLine
 10
25.846781
 20
21.78673
 30
0.0
 11
26.626276
 21
21.78673
 31
0.0
  0
LINE
  5
C0
100
AcDbEntity
  8
2
370
    15
390
0
  6
Continuous
 62
     7
100
AcDbLine
 10
25.846781
 20
21.739733
 30
0.0
 11
26.56428
 21
21.739733
 31
0.0
  0
LINE
  5
C1
100
AcDbEntity
  8
2
370
    15
390
0
  6
Continuous
 62
     7
100
AcDbLine
 10
25.846781
 20
21.581728
 30
0.0
 11
26.476778
 21
21.581728
 31
0.0
  0
LINE
  5
C2
100
AcDbEntity
  8
2
370
    15
390
0
  6
Continuous
 62
     7
100
AcDbLine
 10
25.846781
 20
21.538142
 30
0.0
 11
26.552279
 21
21.538142
 31
0.0
  0
LINE
  5
C3
100
AcDbEntity
  8
2
370
    15
390
0
  6
Continuous
 62
     7
100
AcDbLine
 10
25.846781
 20
21.257731
 30
0.0
 11
26.552279
 21
21.257731
 31
0.0
  0
LINE
  5
C4
100
AcDbEntity
  8
2
370
    15
390
0
  6
Continuous
 62
     7
100
AcDbLine
 10
25.846781
 20
21.192736
 30
0.0
 11
26.487284
 21
21.192736
 31
0.0
  0
LINE
  5
C5
100
AcDbEntity
  8
2
370
    15
390
0
  6
Continuous
 62
     7
100
AcDbLine
 10
25.846781
 20
21.079729
 30
0.0
 11
26.487284
 21
21.079729
 31
0.0
  0
LINE
  5
C6
100
AcDbEntity
  8
2
370
    15
390
0
  6
Continuous
 62
     7
100
AcDbLine
 10
25.846781
 20
21.067736
 30
0.0
 11
26.475275
 21
21.067736
 31
0.0
  0
LINE
  5
C7
100
AcDbEntity
  8
2
370
    15
390
0
  6
Continuous
 62
     7
100
AcDbLine
 10
25.846781
 20
19.733731
 30
0.0
 11
26.470278
 21
19.733731
 31
0.0
  0
LINE
  5
C8
100
AcDbEntity
  8
2
370
    15
390
0
  6
Continuous
 62
     7
100
AcDbLine
 10
25.846781
 20
19.640736
 30
0.0
 11
26.470278
 21
19.640736
 31
0.0
  0
LINE
  5
C9
100
AcDbEntity
  8
2
370
    15
390
0
  6
Continuous
 62
     7
100
AcDbLine
 10
25.846781
 20
19.416737
 30
0.0
 11
26.470278
 21
19.416737
 31
0.0
  0
LINE
  5
CA
100
AcDbEntity
  8
2
370
    15
390
0
  6
Continuous
 62
     7
100
AcDbLine
 10
25.846781
 20
19.369732
 30
0.0
 11
26.470278
 21
19.369732
 31
0.0
  0
LINE
  5
CB
100
AcDbEntity
  8
2
370
    15
390
0
  6
Continuous
 62
     7
100
AcDbLine
 10
25.846781
 20
19.338734
 30
0.0
 11
26.43928
 21
19.338734
 31
0.0
  0
LINE
  5
CC
100
AcDbEntity
  8
2
370
    15
390
0
  6
Continuous
 62
     7
100
AcDbLine
 10
26.376276
 20
19.733731
 30
0.0
 11
26.376276
 21
21.067736
 31
0.0
  0
LINE
  5
CD
100
AcDbEntity
  8
2
370
    15
390
0
  6
Continuous
 62
     7
100
AcDbLine
 10
26.564494
 20
21.896235
 30
0.0
 11
26.564494
 21
22.702204
 31
0.0
  0
ARC
  5
CE
100
AcDbEntity
  8
2
370
    15
390
0
  6
Continuous
 62
     7
100
AcDbCircle
 10
25.846798
 20
21.565827
 30
0.0
 40
1.189905
100
AcDbArc
 50
72.440787
 51
90.000832
  0
ARC
  5
CF
100
AcDbEntity
  8
2
370
    15
390
0
  6
Continuous
 62
     7
100
AcDbCircle
 10
25.846791
 20
21.565643
 30
0.0
 40
1.190087
100
AcDbArc
 50
72.750725
 51
90.096687
  0
LINE
  5
D0
100
AcDbEntity
  8
2
370
    15
390
0
  6
Continuous
 62
     7
100
AcDbLine
 10
26.471781
 20
22.755732
 30
0.0
 11
25.844782
 21
22.755732
 31
0.0
  0
ARC
  5
D1
100
AcDbEntity
  8
2
370
    15
390
0
  6
Continuous
 62
     7
100
AcDbCircle
 10
25.84678
 20
19.854736
 30
0.0
 40
0.1095
100
AcDbArc
 50
268.954898
 51
449.999116
  0
ARC
  5
D2
100
AcDbEntity
  8
2
370
    15
390
0
  6
Continuous
 62
     7
100
AcDbCircle
 10
25.846781
 20
19.854736
 30
0.0
 40
0.109499
100
AcDbArc
 50
268.954299
 51
449.552593
  0
LINE
  5
D3
100
AcDbEntity
  8
2
370
    15
390
0
  6
Continuous
 62
     1
100
AcDbLine
 10
25.858691
 20
19.854733
 30
0.0
 11
25.844782
 21
19.854733
 31
0.0
  0
LINE
  5
D4
100
AcDbEntity
  8
2
370
    15
390
0
  6
Continuous
 62
     1
100
AcDbLine
 10
26.626276
 20
21.817736
 30
0.0
 11
26.626276
 21
21.78673
 31
0.0
  0
LINE
  5
D5
100
AcDbEntity
  8
2
370
    15
390
0
  6
Continuous
 62
     7
100
AcDbLine
 10
26.626276
 20
21.86056
 30
0.0
 11
26.626276
 21
21.78673
 31
0.0
  0
LINE
  5
D6
100
AcDbEntity
  8
2
370
    15
390
0
  6
Continuous
 62
     7
100
AcDbLine
 10
26.626276
 20
21.86056
 30
0.0
 11
26.564494
 21
21.896235
 31
0.0
  0
LINE
  5
D7
100
AcDbEntity
  8
2
370
    15
390
0
  6
Continuous
 62
     7
100
AcDbLine
 10
26.626276
 20
21.86056
 30
0.0
 11
25.844782
 21
21.86056
 31
0.0
  0
LINE
  5
D8
100
AcDbEntity
  8
2
370
    15
390
0
  6
Continuous
 62
     7
100
AcDbLine
 10
26.564494
 20
21.896235
 30
0.0
 11
25.844782
 21
21.896235
 31
0.0
  0
LINE
  5
D9
100
AcDbEntity
  8
2
370
    15
390
0
  6
Continuous
 62
     7
100
AcDbLine
 10
26.211588
 20
22.702204
 30
0.0
 11
26.204737
 21
22.699946
 31
0.0
  0
LINE
  5
DA
100
AcDbEntity
  8
2
370
    15
390
0
  6
Continuous
 62
     7
100
AcDbLine
 10
26.205782
 20
22.700289
 30
0.0
 11
26.205782
 21
21.896235
 31
0.0
  0
LINE
  5
DB
100
AcDbEntity
  8
1
370
    15
390
0
  6
Continuous
 62
     1
100
AcDbLine
 10
26.820322
 20
21.78673
 30
0.0
 11
26.820322
 21
21.756373
 31
0.0
  0
LINE
  5
DC
100
AcDbEntity
  8
1
370
    15
390
0
  6
Continuous
 62
     1
100
AcDbLine
 10
26.820322
 20
21.756373
 30
0.0
 11
26.805453
 21
21.724169
 31
0.0
  0
LINE
  5
DD
100
AcDbEntity
  8
1
370
    15
390
0
  6
Continuous
 62
     1
100
AcDbLine
 10
26.805453
 20
21.724169
 30
0.0
 11
26.795542
 21
21.664721
 31
0.0
  0
LINE
  5
DE
100
AcDbEntity
  8
1
370
    15
390
0
  6
Continuous
 62
     1
100
AcDbLine
 10
26.795542
 20
21.664721
 30
0.0
 11
26.800501
 21
21.622607
 31
0.0
  0
LINE
  5
DF
100
AcDbEntity
  8
1
370
    15
390
0
  6
Continuous
 62
     1
100
AcDbLine
 10
26.800501
 20
21.622607
 30
0.0
 11
26.805453
 21
21.56811
 31
0.0
  0
LINE
  5
E0
100
AcDbEntity
  8
1
370
    15
390
0
  6
Continuous
 62
     1
100
AcDbLine
 10
26.805453
 20
21.56811
 30
0.0
 11
26.807932
 21
21.518565
 31
0.0
  0
LINE
  5
E1
100
AcDbEntity
  8
1
370
    15
390
0
  6
Continuous
 62
     1
100
AcDbLine
 10
26.807932
 20
21.518565
 30
0.0
 11
26.802973
 21
21.486361
 31
0.0
  0
LINE
  5
E2
100
AcDbEntity
  8
1
370
    15
390
0
  6
Continuous
 62
     1
100
AcDbLine
 10
26.802973
 20
21.486361
 30
0.0
 11
26.795542
 21
21.444254
 31
0.0
  0
LINE
  5
E3
100
AcDbEntity
  8
1
370
    15
390
0
  6
Continuous
 62
     1
100
AcDbLine
 10
26.795542
 20
21.444254
 30
0.0
 11
26.783152
 21
21.392229
 31
0.0
  0
LINE
  5
E4
100
AcDbEntity
  8
1
370
    15
390
0
  6
Continuous
 62
     1
100
AcDbLine
 10
26.783152
 20
21.392229
 30
0.0
 11
26.780673
 21
21.31544
 31
0.0
  0
LINE
  5
E5
100
AcDbEntity
  8
1
370
    15
390
0
  6
Continuous
 62
     1
100
AcDbLine
 10
26.780673
 20
21.31544
 30
0.0
 11
26.783152
 21
21.285715
 31
0.0
  0
LINE
  5
E6
100
AcDbEntity
  8
1
370
    15
390
0
  6
Continuous
 62
     1
100
AcDbLine
 10
26.783152
 20
21.285715
 30
0.0
 11
26.790583
 21
21.243609
 31
0.0
  0
LINE
  5
E7
100
AcDbEntity
  8
1
370
    15
390
0
  6
Continuous
 62
     1
100
AcDbLine
 10
26.790583
 20
21.243609
 30
0.0
 11
26.798022
 21
21.194064
 31
0.0
  0
LINE
  5
E8
100
AcDbEntity
  8
1
370
    15
390
0
  6
Continuous
 62
     1
100
AcDbLine
 10
26.798022
 20
21.194064
 30
0.0
 11
26.802973
 21
21.144518
 31
0.0
  0
LINE
  5
E9
100
AcDbEntity
  8
1
370
    15
390
0
  6
Continuous
 62
     1
100
AcDbLine
 10
26.802973
 20
21.144518
 30
0.0
 11
26.802973
 21
21.087542
 31
0.0
  0
LINE
  5
EA
100
AcDbEntity
  8
1
370
    15
390
0
  6
Continuous
 62
     1
100
AcDbLine
 10
26.802973
 20
21.087542
 30
0.0
 11
26.795542
 21
21.042956
 31
0.0
  0
LINE
  5
EB
100
AcDbEntity
  8
1
370
    15
390
0
  6
Continuous
 62
     1
100
AcDbLine
 10
26.795542
 20
21.042956
 30
0.0
 11
26.788111
 21
21.005801
 31
0.0
  0
LINE
  5
EC
100
AcDbEntity
  8
1
370
    15
390
0
  6
Continuous
 62
     1
100
AcDbLine
 10
26.788111
 20
21.005801
 30
0.0
 11
26.778193
 21
20.958735
 31
0.0
  0
LINE
  5
ED
100
AcDbEntity
  8
1
370
    15
390
0
  6
Continuous
 62
     1
100
AcDbLine
 10
26.778193
 20
20.958735
 30
0.0
 11
26.775721
 21
20.924059
 31
0.0
  0
LINE
  5
EE
100
AcDbEntity
  8
1
370
    15
390
0
  6
Continuous
 62
     1
100
AcDbLine
 10
26.775721
 20
20.924059
 30
0.0
 11
26.778193
 21
20.884425
 31
0.0
  0
LINE
  5
EF
100
AcDbEntity
  8
1
370
    15
390
0
  6
Continuous
 62
     1
100
AcDbLine
 10
26.778193
 20
20.884425
 30
0.0
 11
26.783152
 21
20.84479
 31
0.0
  0
LINE
  5
F0
100
AcDbEntity
  8
1
370
    15
390
0
  6
Continuous
 62
     1
100
AcDbLine
 10
26.783152
 20
20.84479
 30
0.0
 11
26.783152
 21
20.770472
 31
0.0
  0
LINE
  5
F1
100
AcDbEntity
  8
1
370
    15
390
0
  6
Continuous
 62
     1
100
AcDbLine
 10
26.783152
 20
20.770472
 30
0.0
 11
26.775721
 21
20.738268
 31
0.0
  0
LINE
  5
F2
100
AcDbEntity
  8
1
370
    15
390
0
  6
Continuous
 62
     1
100
AcDbLine
 10
26.745982
 20
19.801106
 30
0.0
 11
26.745982
 21
19.761479
 31
0.0
  0
LINE
  5
F3
100
AcDbEntity
  8
1
370
    15
390
0
  6
Continuous
 62
     1
100
AcDbLine
 10
26.745982
 20
19.761479
 30
0.0
 11
26.741023
 21
19.702023
 31
0.0
  0
LINE
  5
F4
100
AcDbEntity
  8
1
370
    15
390
0
  6
Continuous
 62
     1
100
AcDbLine
 10
26.741023
 20
19.702023
 30
0.0
 11
26.741023
 21
19.664868
 31
0.0
  0
LINE
  5
F5
100
AcDbEntity
  8
1
370
    15
390
0
  6
Continuous
 62
     1
100
AcDbLine
 10
26.741023
 20
19.664868
 30
0.0
 11
26.745982
 21
19.615322
 31
0.0
  0
LINE
  5
F6
100
AcDbEntity
  8
1
370
    15
390
0
  6
Continuous
 62
     1
100
AcDbLine
 10
26.745982
 20
19.615322
 30
0.0
 11
26.755892
 21
19.578167
 31
0.0
  0
LINE
  5
F7
100
AcDbEntity
  8
1
370
    15
390
0
  6
Continuous
 62
     1
100
AcDbLine
 10
26.755892
 20
19.578167
 30
0.0
 11
26.755892
 21
19.501377
 31
0.0
  0
LINE
  5
F8
100
AcDbEntity
  8
1
370
    15
390
0
  6
Continuous
 62
     1
100
AcDbLine
 10
26.755892
 20
19.501377
 30
0.0
 11
26.745982
 21
19.476605
 31
0.0
  0
LINE
  5
F9
100
AcDbEntity
  8
1
370
    15
390
0
  6
Continuous
 62
     1
100
AcDbLine
 10
26.745982
 20
19.476605
 30
0.0
 11
26.73112
 21
19.432019
 31
0.0
  0
LINE
  5
FA
100
AcDbEntity
  8
1
370
    15
390
0
  6
Continuous
 62
     1
100
AcDbLine
 10
26.73112
 20
19.432019
 30
0.0
 11
26.73112
 21
19.365132
 31
0.0
  0
LINE
  5
FB
100
AcDbEntity
  8
1
370
    15
390
0
  6
Continuous
 62
     1
100
AcDbLine
 10
26.73112
 20
19.365132
 30
0.0
 11
26.736071
 21
19.325506
 31
0.0
  0
LINE
  5
FC
100
AcDbEntity
  8
1
370
    15
390
0
  6
Continuous
 62
     1
100
AcDbLine
 10
26.736071
 20
19.325506
 30
0.0
 11
26.750941
 21
19.268529
 31
0.0
  0
LINE
  5
FD
100
AcDbEntity
  8
1
370
    15
390
0
  6
Continuous
 62
     1
100
AcDbLine
 10
26.750941
 20
19.268529
 30
0.0
 11
26.755892
 21
19.236326
 31
0.0
  0
LINE
  5
FE
100
AcDbEntity
  8
1
370
    15
390
0
  6
Continuous
 62
     1
100
AcDbLine
 10
26.755892
 20
19.236326
 30
0.0
 11
26.755892
 21
19.164487
 31
0.0
  0
LINE
  5
FF
100
AcDbEntity
  8
1
370
    15
390
0
  6
Continuous
 62
     1
100
AcDbLine
 10
26.755892
 20
19.164487
 30
0.0
 11
26.738551
 21
19.11247
 31
0.0
  0
LINE
  5
100
100
AcDbEntity
  8
1
370
    15
390
0
  6
Continuous
 62
     1
100
AcDbLine
 10
26.738551
 20
19.11247
 30
0.0
 11
26.733592
 21
19.077787
 31
0.0
  0
LINE
  5
101
100
AcDbEntity
  8
1
370
    15
390
0
  6
Continuous
 62
     1
100
AcDbLine
 10
26.742457
 20
19.719235
 30
0.0
 11
26.517283
 21
19.719235
 31
0.0
  0
LINE
  5
102
100
AcDbEntity
  8
1
370
    15
390
0
  6
Continuous
 62
     1
100
AcDbLine
 10
26.793498
 20
21.22423
 30
0.0
 11
26.517283
 21
21.22423
 31
0.0
  0
LINE
  5
103
100
AcDbEntity
  8
1
370
    15
390
0
  6
Continuous
 62
     1
100
AcDbLine
 10
26.811991
 20
21.738329
 30
0.0
 11
26.517283
 21
21.443621
 31
0.0
  0
LINE
  5
104
100
AcDbEntity
  8
1
370
    15
390
0
  6
Continuous
 62
     1
100
AcDbLine
 10
26.799174
 20
21.637125
 30
0.0
 11
26.517283
 21
21.355234
 31
0.0
  0
LINE
  5
105
100
AcDbEntity
  8
1
370
    15
390
0
  6
Continuous
 62
     1
100
AcDbLine
 10
26.806078
 20
21.555636
 30
0.0
 11
26.517283
 21
21.266848
 31
0.0
  0
LINE
  5
106
100
AcDbEntity
  8
1
370
    15
390
0
  6
Continuous
 62
     1
100
AcDbLine
 10
26.799433
 20
21.460612
 30
0.0
 11
26.563059
 21
21.22423
 31
0.0
  0
LINE
  5
107
100
AcDbEntity
  8
1
370
    15
390
0
  6
Continuous
 62
     1
100
AcDbLine
 10
26.781947
 20
21.354723
 30
0.0
 11
26.651446
 21
21.22423
 31
0.0
  0
LINE
  5
108
100
AcDbEntity
  8
1
370
    15
390
0
  6
Continuous
 62
     1
100
AcDbLine
 10
26.785876
 20
21.270274
 30
0.0
 11
26.739832
 21
21.22423
 31
0.0
  0
LINE
  5
109
100
AcDbEntity
  8
1
370
    15
390
0
  6
Continuous
 62
     1
100
AcDbLine
 10
26.344782
 20
19.334736
 30
0.0
 11
26.344782
 21
18.755763
 31
0.0
  0
LINE
  5
10A
100
AcDbEntity
  8
1
370
    15
390
0
  6
Continuous
 62
     1
100
AcDbLine
 10
26.733592
 20
19.077787
 30
0.0
 11
26.728632
 21
19.008428
 31
0.0
  0
LINE
  5
10B
100
AcDbEntity
  8
1
370
    15
390
0
  6
Continuous
 62
     1
100
AcDbLine
 10
26.728632
 20
19.008428
 30
0.0
 11
26.718729
 21
18.968791
 31
0.0
  0
LINE
  5
10C
100
AcDbEntity
  8
1
370
    15
390
0
  6
Continuous
 62
     1
100
AcDbLine
 10
26.718729
 20
18.968791
 30
0.0
 11
26.698901
 21
18.948978
 31
0.0
  0
LINE
  5
10D
100
AcDbEntity
  8
1
370
    15
390
0
  6
Continuous
 62
     1
100
AcDbLine
 10
26.698901
 20
18.948978
 30
0.0
 11
26.679079
 21
18.919254
 31
0.0
  0
LINE
  5
10E
100
AcDbEntity
  8
1
370
    15
390
0
  6
Continuous
 62
     1
100
AcDbLine
 10
26.679079
 20
18.919254
 30
0.0
 11
26.67412
 21
18.88953
 31
0.0
  0
LINE
  5
10F
100
AcDbEntity
  8
1
370
    15
390
0
  6
Continuous
 62
     1
100
AcDbLine
 10
26.67412
 20
18.88953
 30
0.0
 11
26.659251
 21
18.864757
 31
0.0
  0
LINE
  5
110
100
AcDbEntity
  8
1
370
    15
390
0
  6
Continuous
 62
     1
100
AcDbLine
 10
26.659251
 20
18.864757
 30
0.0
 11
26.634478
 21
18.839984
 31
0.0
  0
LINE
  5
111
100
AcDbEntity
  8
1
370
    15
390
0
  6
Continuous
 62
     1
100
AcDbLine
 10
26.634478
 20
18.839984
 30
0.0
 11
26.589869
 21
18.830074
 31
0.0
  0
LINE
  5
112
100
AcDbEntity
  8
1
370
    15
390
0
  6
Continuous
 62
     1
100
AcDbLine
 10
26.589869
 20
18.830074
 30
0.0
 11
26.550227
 21
18.825122
 31
0.0
  0
LINE
  5
113
100
AcDbEntity
  8
1
370
    15
390
0
  6
Continuous
 62
     1
100
AcDbLine
 10
26.550227
 20
18.825122
 30
0.0
 11
26.510577
 21
18.805301
 31
0.0
  0
LINE
  5
114
100
AcDbEntity
  8
1
370
    15
390
0
  6
Continuous
 62
     1
100
AcDbLine
 10
26.510577
 20
18.805301
 30
0.0
 11
26.485804
 21
18.785487
 31
0.0
  0
LINE
  5
115
100
AcDbEntity
  8
1
370
    15
390
0
  6
Continuous
 62
     1
100
AcDbLine
 10
26.485804
 20
18.785487
 30
0.0
 11
26.426325
 21
18.775577
 31
0.0
  0
LINE
  5
116
100
AcDbEntity
  8
1
370
    15
390
0
  6
Continuous
 62
     1
100
AcDbLine
 10
26.426325
 20
18.775577
 30
0.0
 11
26.401553
 21
18.770625
 31
0.0
  0
LINE
  5
117
100
AcDbEntity
  8
1
370
    15
390
0
  6
Continuous
 62
     1
100
AcDbLine
 10
26.401553
 20
18.770625
 30
0.0
 11
26.371813
 21
18.770625
 31
0.0
  0
LINE
  5
118
100
AcDbEntity
  8
1
370
    15
390
0
  6
Continuous
 62
     1
100
AcDbLine
 10
26.371813
 20
18.770625
 30
0.0
 11
26.344782
 21
18.755763
 31
0.0
  0
LINE
  5
119
100
AcDbEntity
  8
1
370
    15
390
0
  6
Continuous
 62
     1
100
AcDbLine
 10
26.470278
 20
19.569523
 30
0.0
 11
26.61999
 21
19.719235
 31
0.0
  0
LINE
  5
11A
100
AcDbEntity
  8
1
370
    15
390
0
  6
Continuous
 62
     1
100
AcDbLine
 10
26.470286
 20
19.481137
 30
0.0
 11
26.708376
 21
19.719235
 31
0.0
  0
LINE
  5
11B
100
AcDbEntity
  8
1
370
    15
390
0
  6
Continuous
 62
     1
100
AcDbLine
 10
26.344782
 20
19.178861
 30
0.0
 11
26.755892
 21
19.589978
 31
0.0
  0
LINE
  5
11C
100
AcDbEntity
  8
1
370
    15
390
0
  6
Continuous
 62
     1
100
AcDbLine
 10
26.344782
 20
19.090474
 30
0.0
 11
26.755892
 21
19.501591
 31
0.0
  0
LINE
  5
11D
100
AcDbEntity
  8
1
370
    15
390
0
  6
Continuous
 62
     1
100
AcDbLine
 10
26.674059
 20
18.889423
 30
0.0
 11
26.621806
 21
18.837169
 31
0.0
  0
LINE
  5
11E
100
AcDbEntity
  8
1
370
    15
390
0
  6
Continuous
 62
     1
100
AcDbLine
 10
26.730479
 20
19.034231
 30
0.0
 11
26.480921
 21
18.784671
 31
0.0
  0
LINE
  5
11F
100
AcDbEntity
  8
1
370
    15
390
0
  6
Continuous
 62
     1
100
AcDbLine
 10
26.74766
 20
19.139806
 30
0.0
 11
26.378489
 21
18.770625
 31
0.0
  0
LINE
  5
120
100
AcDbEntity
  8
1
370
    15
390
0
  6
Continuous
 62
     1
100
AcDbLine
 10
26.755885
 20
19.23641
 30
0.0
 11
26.344782
 21
18.825305
 31
0.0
  0
LINE
  5
121
100
AcDbEntity
  8
1
370
    15
390
0
  6
Continuous
 62
     1
100
AcDbLine
 10
26.740321
 20
19.309232
 30
0.0
 11
26.344782
 21
18.913699
 31
0.0
  0
LINE
  5
122
100
AcDbEntity
  8
1
370
    15
390
0
  6
Continuous
 62
     1
100
AcDbLine
 10
26.73112
 20
19.388417
 30
0.0
 11
26.344782
 21
19.002086
 31
0.0
  0
LINE
  5
123
100
AcDbEntity
  8
1
370
    15
390
0
  6
Continuous
 62
     1
100
AcDbLine
 10
26.470278
 20
19.39275
 30
0.0
 11
26.741152
 21
19.663624
 31
0.0
  0
LINE
  5
124
100
AcDbEntity
  8
1
370
    15
390
0
  6
Continuous
 62
     1
100
AcDbLine
 10
26.412264
 20
19.334736
 30
0.0
 11
26.344782
 21
19.267255
 31
0.0
  0
LINE
  5
125
100
AcDbEntity
  8
1
370
    15
390
0
  6
Continuous
 62
     1
100
AcDbLine
 10
26.820322
 20
21.78673
 30
0.0
 11
26.824908
 21
21.807787
 31
0.0
  0
LINE
  5
126
100
AcDbEntity
  8
1
370
    15
390
0
  6
Continuous
 62
     1
100
AcDbLine
 10
26.714617
 20
21.817736
 30
0.0
 11
26.56428
 21
21.667399
 31
0.0
  0
LINE
  5
127
100
AcDbEntity
  8
1
370
    15
390
0
  6
Continuous
 62
     1
100
AcDbLine
 10
26.803004
 20
21.817736
 30
0.0
 11
26.517283
 21
21.532008
 31
0.0
  0
ELLIPSE
  5
128
100
AcDbEntity
  8
1
370
    15
390
0
  6
Continuous
 62
     1
100
AcDbEllipse
 10
26.519915
 20
21.686098
 30
0.0
 11
-0.0005264282226563
 21
-0.0534210205078125
 31
0.0
210
0.0
220
0.0
230
1.0
 40
0.813053
 41
0.0
 42
6.2831853071795862
  0
ELLIPSE
  5
129
100
AcDbEntity
  8
1
370
    15
390
0
  6
Continuous
 62
     1
100
AcDbEllipse
 10
26.427508
 20
19.529709
 30
0.0
 11
0.0011672973632813
 21
0.0524406433105469
 31
0.0
210
0.0
220
0.0
230
1.0
 40
0.826799
 41
0.0
 42
6.2831853071795862
  0
LINE
  5
12A
100
AcDbEntity
  8
1
370
    15
390
0
  6
Continuous
 62
     1
100
AcDbLine
 10
26.784068
 20
20.50384
 30
0.0
 11
26.798701
 21
20.43278
 31
0.0
  0
LINE
  5
12B
100
AcDbEntity
  8
1
370
    15
390
0
  6
Continuous
 62
     1
100
AcDbLine
 10
26.798701
 20
20.43278
 30
0.0
 11
26.798701
 21
20.29777
 31
0.0
  0
LINE
  5
12C
100
AcDbEntity
  8
1
370
    15
390
0
  6
Continuous
 62
     1
100
AcDbLine
 10
26.798701
 20
20.29777
 30
0.0
 11
26.791384
 21
20.240923
 31
0.0
  0
LINE
  5
12D
100
AcDbEntity
  8
1
370
    15
390
0
  6
Continuous
 62
     1
100
AcDbLine
 10
26.791384
 20
20.240923
 30
0.0
 11
26.765788
 21
20.141444
 31
0.0
  0
LINE
  5
12E
100
AcDbEntity
  8
1
370
    15
390
0
  6
Continuous
 62
     1
100
AcDbLine
 10
26.765788
 20
20.141444
 30
0.0
 11
26.765788
 21
20.077486
 31
0.0
  0
LINE
  5
12F
100
AcDbEntity
  8
1
370
    15
390
0
  6
Continuous
 62
     1
100
AcDbLine
 10
26.765788
 20
20.077486
 30
0.0
 11
26.765788
 21
20.006426
 31
0.0
  0
LINE
  5
130
100
AcDbEntity
  8
1
370
    15
390
0
  6
Continuous
 62
     1
100
AcDbLine
 10
26.765788
 20
20.006426
 30
0.0
 11
26.754824
 21
19.928263
 31
0.0
  0
LINE
  5
131
100
AcDbEntity
  8
1
370
    15
390
0
  6
Continuous
 62
     1
100
AcDbLine
 10
26.754824
 20
19.928263
 30
0.0
 11
26.745982
 21
19.801106
 31
0.0
  0
LINE
  5
132
100
AcDbEntity
  8
1
370
    15
390
0
  6
Continuous
 62
     1
100
AcDbLine
 10
26.623194
 20
20.474734
 30
0.0
 11
26.678034
 21
20.474734
 31
0.0
  0
LINE
  5
133
100
AcDbEntity
  8
1
370
    15
390
0
  6
Continuous
 62
     1
100
AcDbLine
 10
26.593943
 20
20.474734
 30
0.0
 11
26.316462
 21
20.474734
 31
0.0
  0
LINE
  5
134
100
AcDbEntity
  8
1
370
    15
390
0
  6
Continuous
 62
     1
100
AcDbLine
 10
26.824908
 20
21.807787
 30
0.0
 11
26.818812
 21
21.865702
 31
0.0
  0
LINE
  5
135
100
AcDbEntity
  8
1
370
    15
390
0
  6
Continuous
 62
     1
100
AcDbLine
 10
26.818812
 20
21.865702
 30
0.0
 11
26.813014
 21
21.922091
 31
0.0
  0
LINE
  5
136
100
AcDbEntity
  8
1
370
    15
390
0
  6
Continuous
 62
     1
100
AcDbLine
 10
26.813014
 20
21.922091
 30
0.0
 11
26.813014
 21
21.978487
 31
0.0
  0
LINE
  5
137
100
AcDbEntity
  8
1
370
    15
390
0
  6
Continuous
 62
     1
100
AcDbLine
 10
26.813014
 20
21.978487
 30
0.0
 11
26.84202
 21
22.034876
 31
0.0
  0
LINE
  5
138
100
AcDbEntity
  8
1
370
    15
390
0
  6
Continuous
 62
     1
100
AcDbLine
 10
26.84202
 20
22.034876
 30
0.0
 11
26.84202
 21
22.102541
 31
0.0
  0
LINE
  5
139
100
AcDbEntity
  8
1
370
    15
390
0
  6
Continuous
 62
     1
100
AcDbLine
 10
26.84202
 20
22.102541
 30
0.0
 11
26.836222
 21
22.18149
 31
0.0
  0
LINE
  5
13A
100
AcDbEntity
  8
1
370
    15
390
0
  6
Continuous
 62
     1
100
AcDbLine
 10
26.836222
 20
22.18149
 30
0.0
 11
26.836222
 21
22.260439
 31
0.0
  0
LINE
  5
13B
100
AcDbEntity
  8
1
370
    15
390
0
  6
Continuous
 62
     1
100
AcDbLine
 10
26.836222
 20
22.260439
 30
0.0
 11
26.824618
 21
22.339381
 31
0.0
  0
LINE
  5
13C
100
AcDbEntity
  8
1
370
    15
390
0
  6
Continuous
 62
     1
100
AcDbLine
 10
26.824618
 20
22.339381
 30
0.0
 11
26.824618
 21
22.429606
 31
0.0
  0
LINE
  5
13D
100
AcDbEntity
  8
1
370
    15
390
0
  6
Continuous
 62
     1
100
AcDbLine
 10
26.824618
 20
22.429606
 30
0.0
 11
26.84202
 21
22.519831
 31
0.0
  0
LINE
  5
13E
100
AcDbEntity
  8
1
370
    15
390
0
  6
Continuous
 62
     1
100
AcDbLine
 10
26.84202
 20
22.519831
 30
0.0
 11
26.847826
 21
22.581858
 31
0.0
  0
LINE
  5
13F
100
AcDbEntity
  8
1
370
    15
390
0
  6
Continuous
 62
     1
100
AcDbLine
 10
26.847826
 20
22.581858
 30
0.0
 11
26.859431
 21
22.643893
 31
0.0
  0
LINE
  5
140
100
AcDbEntity
  8
1
370
    15
390
0
  6
Continuous
 62
     1
100
AcDbLine
 10
26.859431
 20
22.643893
 30
0.0
 11
26.789797
 21
22.666445
 31
0.0
  0
LINE
  5
141
100
AcDbEntity
  8
1
370
    15
390
0
  6
Continuous
 62
     1
100
AcDbLine
 10
26.789797
 20
22.666445
 30
0.0
 11
26.783991
 21
22.672083
 31
0.0
  0
LINE
  5
142
100
AcDbEntity
  8
1
370
    15
390
0
  6
Continuous
 62
     1
100
AcDbLine
 10
26.719782
 20
22.643725
 30
0.0
 11
26.783991
 21
22.672083
 31
0.0
  0
LINE
  5
143
100
AcDbEntity
  8
1
370
    15
390
0
  6
CL____X1
 62
     1
100
AcDbLine
 10
26.626276
 20
21.967249
 30
0.0
 11
26.719782
 21
22.021235
 31
0.0
  0
LINE
  5
144
100
AcDbEntity
  8
1
370
    15
390
0
  6
CL____X1
 62
     1
100
AcDbLine
 10
26.719782
 20
22.643725
 30
0.0
 11
26.719782
 21
22.021235
 31
0.0
  0
LINE
  5
145
100
AcDbEntity
  8
1
370
    15
390
0
  6
Continuous
 62
     1
100
AcDbLine
 10
26.823863
 20
21.817736
 30
0.0
 11
26.626276
 21
21.817736
 31
0.0
  0
LINE
  5
146
100
AcDbEntity
  8
1
370
    15
390
0
  6
CL____X1
 62
     1
100
AcDbLine
 10
26.719782
 20
22.021235
 30
0.0
 11
26.564494
 21
22.021235
 31
0.0
  0
LINE
  5
147
100
AcDbEntity
  8
1
370
    15
390
0
  6
CL____X1
 62
     1
100
AcDbLine
 10
26.626276
 20
21.967249
 30
0.0
 11
26.564494
 21
21.967249
 31
0.0
  0
LINE
  5
148
100
AcDbEntity
  8
1
370
    15
390
0
  6
Continuous
 62
     7
100
AcDbLine
 10
25.174281
 20
21.55173
 30
0.0
 11
25.174281
 21
19.722737
 31
0.0
  0
LINE
  5
149
100
AcDbEntity
  8
1
370
    15
390
0
  6
Continuous
 62
     7
100
AcDbLine
 10
25.174281
 20
21.55173
 30
0.0
 11
25.127276
 21
21.598734
 31
0.0
  0
LINE
  5
14A
100
AcDbEntity
  8
1
370
    15
390
0
  6
Continuous
 62
     7
100
AcDbLine
 10
25.174281
 20
19.722737
 30
0.0
 11
25.212199
 21
19.684811
 31
0.0
  0
ARC
  5
14B
100
AcDbEntity
  8
1
370
    15
390
0
  6
Continuous
 62
     7
100
AcDbCircle
 10
25.190307
 20
19.662903
 30
0.0
 40
0.030971
100
AcDbArc
 50
359.978218
 51
405.020571
  0
LINE
  5
14C
100
AcDbEntity
  8
1
370
    15
390
0
  6
CL____X1
 62
     7
100
AcDbLine
 10
25.138178
 20
21.587832
 30
0.0
 11
25.138178
 21
21.098734
 31
0.0
  0
LINE
  5
14D
100
AcDbEntity
  8
1
370
    15
390
0
  6
Continuous
 62
     7
100
AcDbLine
 10
25.221278
 20
19.338734
 30
0.0
 11
25.221278
 21
19.662892
 31
0.0
  0
LINE
  5
14E
100
AcDbEntity
  8
0
370
    15
390
0
  6
CL____X1
 62
     1
100
AcDbLine
 10
25.15478
 20
21.798228
 30
0.0
 11
25.093279
 21
21.833735
 31
0.0
  0
LINE
  5
14F
100
AcDbEntity
  8
0
370
    15
390
0
  6
CL____X1
 62
     1
100
AcDbLine
 10
25.15478
 20
21.798228
 30
0.0
 11
25.15478
 21
21.630732
 31
0.0
  0
LINE
  5
150
100
AcDbEntity
  8
0
370
    15
390
0
  6
CL____X1
 62
     1
100
AcDbLine
 10
25.202776
 20
21.603022
 30
0.0
 11
25.15478
 21
21.630732
 31
0.0
  0
LINE
  5
151
100
AcDbEntity
  8
0
370
    15
390
0
  6
CL____X1
 62
     1
100
AcDbLine
 10
25.202776
 20
21.603022
 30
0.0
 11
25.202776
 21
19.754734
 31
0.0
  0
LINE
  5
152
100
AcDbEntity
  8
0
370
    15
390
0
  6
CL____X1
 62
     1
100
AcDbLine
 10
25.249781
 20
19.727597
 30
0.0
 11
25.202776
 21
19.754734
 31
0.0
  0
LINE
  5
153
100
AcDbEntity
  8
0
370
    15
390
0
  6
CL____X1
 62
     1
100
AcDbLine
 10
25.249781
 20
19.727597
 30
0.0
 11
25.249781
 21
19.441731
 31
0.0
  0
LINE
  5
154
100
AcDbEntity
  8
1
370
    15
390
0
  6
Continuous
 62
     7
100
AcDbLine
 10
25.065279
 20
22.804316
 30
0.0
 11
25.065279
 21
21.78673
 31
0.0
  0
LINE
  5
155
100
AcDbEntity
  8
0
370
    15
390
0
  6
CL____X1
 62
     1
100
AcDbLine
 10
25.093279
 20
21.962054
 30
0.0
 11
25.093279
 21
21.833735
 31
0.0
  0
LINE
  5
156
100
AcDbEntity
  8
0
370
    15
390
0
  6
CL____X1
 62
     1
100
AcDbLine
 10
25.846781
 20
19.097059
 30
0.0
 11
25.249781
 21
19.441731
 31
0.0
  0
LINE
  5
157
100
AcDbEntity
  8
1
370
    15
390
0
  6
Continuous
 62
     7
100
AcDbLine
 10
25.428179
 20
19.338734
 30
0.0
 11
25.221278
 21
19.338734
 31
0.0
  0
LINE
  5
158
100
AcDbEntity
  8
1
370
    15
390
0
  6
Continuous
 62
     7
100
AcDbLine
 10
25.127276
 20
21.761622
 30
0.0
 11
25.127276
 21
21.598734
 31
0.0
  0
LINE
  5
159
100
AcDbEntity
  8
1
370
    15
390
0
  6
Continuous
 62
     7
100
AcDbLine
 10
25.11278
 20
21.78673
 30
0.0
 11
25.065279
 21
21.78673
 31
0.0
  0
LINE
  5
15A
100
AcDbEntity
  8
0
370
    15
390
0
  6
Continuous
 62
     7
100
AcDbLine
 10
25.127276
 20
21.761622
 30
0.0
 11
25.11278
 21
21.78673
 31
0.0
  0
CIRCLE
  5
15C
100
AcDbEntity
  8
0
370
    15
390
0
  6
DIVIDE
 62
     1
100
AcDbCircle
 10
25.104433
 20
21.774645
 30
0.0
 40
0.060884
  0
LINE
  5
15D
100
AcDbEntity
  8
3
370
    15
390
0
  6
Continuous
 62
     1
100
AcDbLine
 10
25.077277
 20
21.598734
 30
0.0
 11
24.944018
 21
21.598734
 31
0.0
  0
LINE
  5
15E
100
AcDbEntity
  8
3
370
    15
390
0
  6
Continuous
 62
     1
100
AcDbLine
 10
25.127276
 20
21.680178
 30
0.0
 11
24.944018
 21
21.680178
 31
0.0
  0
LINE
  5
15F
100
AcDbEntity
  8
3
370
    15
390
0
  6
Continuous
 62
     1
100
AcDbLine
 10
24.944018
 20
21.598734
 30
0.0
 11
24.690535
 21
21.301115
 31
0.0
  0
LINE
  5
160
100
AcDbEntity
  8
4
370
    15
390
0
  6
Continuous
 62
     7
100
AcDbLine
 10
24.322512
 20
21.456541
 30
0.0
 11
24.402537
 21
21.624876
 31
0.0
  0
LINE
  5
161
100
AcDbEntity
  8
0
370
    15
390
0
  6
Continuous
 62
     1
100
AcDbLine
 10
24.745478
 20
21.760649
 30
0.0
 11
24.619456
 21
21.541384
 31
0.0
  0
LINE
  5
162
100
AcDbEntity
  8
0
370
    15
390
0
  6
Continuous
 62
     1
100
AcDbLine
 10
24.658762
 20
21.760649
 30
0.0
 11
24.745478
 21
21.760649
 31
0.0
  0
LINE
  5
163
100
AcDbEntity
  8
0
370
    15
390
0
  6
Continuous
 62
     1
100
AcDbLine
 10
24.619471
 20
21.541399
 30
0.0
 11
24.567069
 21
21.632162
 31
0.0
  0
LINE
  5
164
100
AcDbEntity
  8
3
370
    15
390
0
  6
Continuous
 62
     1
100
AcDbLine
 10
24.944018
 20
21.680178
 30
0.0
 11
24.825808
 21
21.541384
 31
0.0
  0
LINE
  5
165
100
AcDbEntity
  8
3
370
    15
390
0
  6
Continuous
 62
     1
100
AcDbLine
 10
24.501425
 20
21.541384
 30
0.0
 11
24.825808
 21
21.541384
 31
0.0
  0
LINE
  5
166
100
AcDbEntity
  8
3
370
    15
390
0
  6
Continuous
 62
     1
100
AcDbLine
 10
25.171278
 20
19.338734
 30
0.0
 11
24.761099
 21
19.338734
 31
0.0
  0
LINE
  5
167
100
AcDbEntity
  8
3
370
    15
390
0
  6
Continuous
 62
     1
100
AcDbLine
 10
24.527823
 20
19.179921
 30
0.0
 11
24.761099
 21
19.338734
 31
0.0
  0
LINE
  5
168
100
AcDbEntity
  8
4
370
    15
390
0
  6
Continuous
 62
     7
100
AcDbLine
 10
24.322512
 20
19.378891
 30
0.0
 11
24.402537
 21
19.547226
 31
0.0
  0
LINE
  5
169
100
AcDbEntity
  8
3
370
    15
390
0
  6
Continuous
 62
     1
100
AcDbLine
 10
24.501425
 20
19.45065
 30
0.0
 11
25.221278
 21
19.45065
 31
0.0
  0
LINE
  5
16A
100
AcDbEntity
  8
0
370
    15
390
0
  6
Continuous
 62
     1
100
AcDbLine
 10
24.745478
 20
19.669915
 30
0.0
 11
24.619456
 21
19.45065
 31
0.0
  0
LINE
  5
16B
100
AcDbEntity
  8
0
370
    15
390
0
  6
Continuous
 62
     1
100
AcDbLine
 10
24.658762
 20
19.669915
 30
0.0
 11
24.745478
 21
19.669915
 31
0.0
  0
LINE
  5
16C
100
AcDbEntity
  8
0
370
    15
390
0
  6
Continuous
 62
     1
100
AcDbLine
 10
24.619471
 20
19.450665
 30
0.0
 11
24.567069
 21
19.541428
 31
0.0
  0
LINE
  5
16D
100
AcDbEntity
  8
3
370
    15
390
0
  6
Continuous
 62
     1
100
AcDbLine
 10
25.221278
 20
19.338734
 30
0.0
 11
24.88579
 21
18.903822
 31
0.0
  0
LINE
  5
16E
100
AcDbEntity
  8
3
370
    15
390
0
  6
Continuous
 62
     1
100
AcDbLine
 10
24.733149
 20
18.903822
 30
0.0
 11
24.88579
 21
18.903822
 31
0.0
  0
LINE
  5
16F
100
AcDbEntity
  8
3
370
    15
390
0
  6
Continuous
 62
     1
100
AcDbLine
 10
26.530009
 20
19.334736
 30
0.0
 11
28.349299
 21
19.334736
 31
0.0
  0
LINE
  5
170
100
AcDbEntity
  8
3
370
    15
390
0
  6
Continuous
 62
     1
100
AcDbLine
 10
25.31597
 20
21.78673
 30
0.0
 11
25.31597
 21
21.582087
 31
0.0
  0
LINE
  5
171
100
AcDbEntity
  8
3
370
    15
390
0
  6
Continuous
 62
     1
100
AcDbLine
 10
25.31597
 20
21.833735
 30
0.0
 11
25.31597
 21
24.676356
 31
0.0
  0
LINE
  5
172
100
AcDbEntity
  8
3
370
    15
390
0
  6
Continuous
 62
     1
100
AcDbLine
 10
25.162779
 20
21.78673
 30
0.0
 11
25.722472
 21
21.78673
 31
0.0
  0
LINE
  5
173
100
AcDbEntity
  8
3
370
    15
390
0
  6
Continuous
 62
     1
100
AcDbLine
 10
25.722472
 20
23.760226
 30
0.0
 11
25.722472
 21
21.78673
 31
0.0
  0
LINE
  5
174
100
AcDbEntity
  8
3
370
    15
390
0
  6
Continuous
 62
     1
100
AcDbLine
 10
25.519221
 20
24.218356
 30
0.0
 11
25.519221
 21
21.833735
 31
0.0
  0
LINE
  5
175
100
AcDbEntity
  8
3
370
    15
390
0
  6
Continuous
 62
     1
100
AcDbLine
 10
25.143279
 20
21.833735
 30
0.0
 11
25.519221
 21
21.833735
 31
0.0
  0
LINE
  5
176
100
AcDbEntity
  8
3
370
    15
390
0
  6
Continuous
 62
     1
100
AcDbLine
 10
25.063654
 20
21.920409
 30
0.0
 11
24.763197
 21
21.920409
 31
0.0
  0
LINE
  5
177
100
AcDbEntity
  8
1
370
    15
390
0
  6
Continuous
 62
     1
100
AcDbLine
 10
25.174281
 20
21.55173
 30
0.0
 11
25.31597
 21
21.55173
 31
0.0
  0
LINE
  5
178
100
AcDbEntity
  8
1
370
    15
390
0
  6
Continuous
 62
     1
100
AcDbLine
 10
25.127276
 20
21.598734
 30
0.0
 11
25.31597
 21
21.598734
 31
0.0
  0
LINE
  5
179
100
AcDbEntity
  8
1
370
    15
390
0
  6
Continuous
 62
     1
100
AcDbLine
 10
25.221278
 20
19.662892
 30
0.0
 11
25.31597
 21
19.662892
 31
0.0
  0
LINE
  5
17A
100
AcDbEntity
  8
1
370
    15
390
0
  6
Continuous
 62
     1
100
AcDbLine
 10
25.174281
 20
19.722737
 30
0.0
 11
25.31597
 21
19.722737
 31
0.0
  0
LINE
  5
17B
100
AcDbEntity
  8
1
370
    15
390
0
  6
Continuous
 62
     1
100
AcDbLine
 10
25.138178
 20
21.098734
 30
0.0
 11
25.31597
 21
21.098734
 31
0.0
  0
TEXT
  5
17D
100
AcDbEntity
  8
0
370
    15
390
0
  6
Continuous
 62
     7
100
AcDbText
 10
20.443011
 20
22.72711
 30
0.0
 40
0.065844
  1
LET
 50
270.0
  7
Vcadd_SIMP
100
AcDbText
  0
TEXT
  5
17E
100
AcDbEntity
  8
0
370
    15
390
0
  6
Continuous
 62
     7
100
AcDbText
 10
20.443026
 20
21.619826
 30
0.0
 40
0.065844
  1
REVISION 
 50
270.0
  7
Vcadd_SIMP
100
AcDbText
  0
TEXT
  5
17F
100
AcDbEntity
  8
0
370
    15
390
0
  6
Continuous
 62
     7
100
AcDbText
 10
20.441012
 20
20.01866
 30
0.0
 40
0.065844
  1
DATE 
 50
270.0
  7
Vcadd_SIMP
100
AcDbText
  0
TEXT
  5
180
100
AcDbEntity
  8
0
370
    15
390
0
  6
Continuous
 62
     7
100
AcDbText
 10
20.441164
 20
19.604645
 30
0.0
 40
0.065844
  1
DRN 
 50
270.0
  7
Vcadd_SIMP
100
AcDbText
  0
TEXT
  5
181
100
AcDbEntity
  8
0
370
    15
390
0
  6
Continuous
 62
     7
100
AcDbText
 10
20.440844
 20
19.357163
 30
0.0
 40
0.065844
  1
CHK 
 50
270.0
  7
Vcadd_SIMP
100
AcDbText
  0
TEXT
  5
182
100
AcDbEntity
  8
0
370
    15
390
0
  6
Continuous
 62
     7
100
AcDbText
 10
20.441164
 20
19.108141
 30
0.0
 40
0.065844
  1
REL
 50
270.0
  7
Vcadd_SIMP
100
AcDbText
  0
TEXT
  5
183
100
AcDbEntity
  8
0
370
    15
390
0
  6
Continuous
 62
     7
100
AcDbText
 10
21.665118
 20
18.571169
 30
0.0
 40
0.062
  1
UNLESS
 50
270.0
  7
Vcadd_SIMP
100
AcDbText
  0
TEXT
  5
184
100
AcDbEntity
  8
0
370
    15
390
0
  6
Continuous
 62
     7
100
AcDbText
 10
21.561358
 20
18.661593
 30
0.0
 40
0.062
  1
OTHERWISE
 50
270.0
  7
Vcadd_SIMP
100
AcDbText
  0
TEXT
  5
185
100
AcDbEntity
  8
0
370
    15
390
0
  6
Continuous
 62
     7
100
AcDbText
 10
21.449297
 20
18.659441
 30
0.0
 40
0.062
  1
SPECIFIED
 50
270.0
  7
Vcadd_SIMP
100
AcDbText
  0
TEXT
  5
186
100
AcDbEntity
  8
0
370
    15
390
0
  6
Continuous
 62
     7
100
AcDbText
 10
21.652285
 20
17.849947
 30
0.0
 40
0.062
  1
TITLE
 50
270.0
  7
Vcadd_SIMP
100
AcDbText
  0
TEXT
  5
187
100
AcDbEntity
  8
0
370
    15
390
0
  6
Continuous
 62
     7
100
AcDbText
 10
21.652316
 20
14.848753
 30
0.0
 40
0.062
  1
REVISION
 50
270.0
  7
Vcadd_SIMP
100
AcDbText
  0
TEXT
  5
188
100
AcDbEntity
  8
0
370
    15
390
0
  6
Continuous
 62
     7
100
AcDbText
 10
21.23218
 20
17.858462
 30
0.0
 40
0.062
  1
SCALE
 50
270.0
  7
Vcadd_SIMP
100
AcDbText
  0
TEXT
  5
189
100
AcDbEntity
  8
0
370
    15
390
0
  6
Continuous
 62
     7
100
AcDbText
 10
21.23218
 20
17.858462
 30
0.0
 40
0.062
  1
      REF.                
 50
270.0
  7
Vcadd_SIMP
100
AcDbText
  0
TEXT
  5
18A
100
AcDbEntity
  8
0
370
    15
390
0
  6
Continuous
 62
     7
100
AcDbText
 10
21.23218
 20
16.224669
 30
0.0
 40
0.062
  1
MATERIAL
 50
270.0
  7
Vcadd_SIMP
100
AcDbText
  0
TEXT
  5
18B
100
AcDbEntity
  8
0
370
    15
390
0
  6
Continuous
 62
     7
100
AcDbText
 10
20.864809
 20
17.853396
 30
0.0
 40
0.062
  1
DRAWN    
 50
270.0
  7
Vcadd_SIMP
100
AcDbText
  0
TEXT
  5
18C
100
AcDbEntity
  8
0
370
    15
390
0
  6
Continuous
 62
     7
100
AcDbText
 10
20.864809
 20
17.317705
 30
0.0
 40
0.062
  1
CHECK 
 50
270.0
  7
Vcadd_SIMP
100
AcDbText
  0
TEXT
  5
18D
100
AcDbEntity
  8
0
370
    15
390
0
  6
Continuous
 62
     7
100
AcDbText
 10
20.864809
 20
16.776945
 30
0.0
 40
0.062
  1
RELEASE
 50
270.0
  7
Vcadd_SIMP
100
AcDbText
  0
TEXT
  5
18E
100
AcDbEntity
  8
0
370
    15
390
0
  6
Continuous
 62
     7
100
AcDbText
 10
20.575594
 20
17.847353
 30
0.0
 40
0.062
  1
DATE     
 50
270.0
  7
Vcadd_SIMP
100
AcDbText
  0
TEXT
  5
18F
100
AcDbEntity
  8
0
370
    15
390
0
  6
Continuous
 62
     7
100
AcDbText
 10
20.575594
 20
17.311678
 30
0.0
 40
0.062
  1
DATE  
 50
270.0
  7
Vcadd_SIMP
100
AcDbText
  0
TEXT
  5
190
100
AcDbEntity
  8
0
370
    15
390
0
  6
Continuous
 62
     7
100
AcDbText
 10
20.575594
 20
16.770918
 30
0.0
 40
0.062
  1
DATE
 50
270.0
  7
Vcadd_SIMP
100
AcDbText
  0
TEXT
  5
191
100
AcDbEntity
  8
0
370
    15
390
0
  6
Continuous
 62
     7
100
AcDbText
 10
20.864809
 20
16.227934
 30
0.0
 40
0.062
  1
HEAT TREAT & FINISH
 50
270.0
  7
Vcadd_SIMP
100
AcDbText
  0
TEXT
  5
192
100
AcDbEntity
  8
0
370
    15
390
0
  6
Continuous
 62
     7
100
AcDbText
 10
21.652316
 20
14.662749
 30
0.0
 40
0.062
  1
      PART NO.
 50
270.0
  7
Vcadd_SIMP
100
AcDbText
  0
TEXT
  5
193
100
AcDbEntity
  8
0
370
    15
390
0
  6
Continuous
 62
     7
100
AcDbText
 10
30.281359
 20
14.861204
 30
0.0
 40
0.062
  1
REVISION PART NO.
 50
270.0
  7
Vcadd_SIMP
100
AcDbText
  0
TEXT
  5
194
100
AcDbEntity
  8
0
370
    15
390
0
  6
Continuous
 62
     7
100
AcDbText
 10
20.722598
 20
17.747668
 30
0.0
 40
0.094
  1
HHP
 50
270.0
  7
Vcadd_SIMP
100
AcDbText
  0
TEXT
  5
195
100
AcDbEntity
  8
0
370
    15
390
0
  6
Continuous
 62
     7
100
AcDbText
 10
20.717883
 20
17.240115
 30
0.0
 40
0.094
  1
JDA
 50
270.0
  7
Vcadd_SIMP
100
AcDbText
  0
TEXT
  5
196
100
AcDbEntity
  8
0
370
    15
390
0
  6
Continuous
 62
     7
100
AcDbText
 10
20.444949
 20
17.794283
 30
0.0
 40
0.062
  1
2-8-80 
 50
270.0
  7
Vcadd_SIMP
100
AcDbText
  0
TEXT
  5
197
100
AcDbEntity
  8
0
370
    15
390
0
  6
Continuous
 62
     7
100
AcDbText
 10
20.444949
 20
17.252276
 30
0.0
 40
0.062
  1
2-8-80 
 50
270.0
  7
Vcadd_SIMP
100
AcDbText
  0
TEXT
  5
198
100
AcDbEntity
  8
4
370
    15
390
0
  6
Continuous
 62
     7
100
AcDbText
 10
24.282877
 20
21.471709
 30
0.0
 40
0.16275
  1
O
  7
Vcadd_SIMP
100
AcDbText
  0
TEXT
  5
199
100
AcDbEntity
  8
4
370
    15
390
0
  6
Continuous
 62
     7
100
AcDbText
 10
24.282877
 20
19.380978
 30
0.0
 40
0.16275
  1
O
  7
Vcadd_SIMP
100
AcDbText
  0
LINE
  5
19A
100
AcDbEntity
  8
4
370
    15
390
0
  6
Continuous
 62
     7
100
AcDbLine
 10
21.771754
 20
12.138289
 30
0.0
 11
21.771754
 21
12.138289
 31
0.0
  0
LINE
  5
19B
100
AcDbEntity
  8
4
370
    15
390
0
  6
Continuous
 62
     7
100
AcDbLine
 10
21.771757
 20
12.138289
 30
0.0
 11
21.771757
 21
12.138289
 31
0.0
  0
LINE
  5
19C
100
AcDbEntity
  8
4
370
    15
390
0
  6
Continuous
 62
     7
100
AcDbLine
 10
21.771757
 20
12.138289
 30
0.0
 11
21.771757
 21
12.138289
 31
0.0
  0
LINE
  5
19D
100
AcDbEntity
  8
4
370
    15
390
0
  6
Continuous
 62
     7
100
AcDbLine
 10
25.447072
 20
15.419752
 30
0.0
 11
25.814538
 21
15.419752
 31
0.0
  0
LINE
  5
19E
100
AcDbEntity
  8
4
370
    15
390
0
  6
Continuous
 62
     7
100
AcDbLine
 10
25.814538
 20
15.419752
 30
0.0
 11
25.814538
 21
15.751339
 31
0.0
  0
LINE
  5
19F
100
AcDbEntity
  8
4
370
    15
390
0
  6
Continuous
 62
     7
100
AcDbLine
 10
25.814538
 20
15.751339
 30
0.0
 11
25.447072
 21
15.751339
 31
0.0
  0
LINE
  5
1A0
100
AcDbEntity
  8
4
370
    15
390
0
  6
Continuous
 62
     7
100
AcDbLine
 10
25.447072
 20
15.751339
 30
0.0
 11
25.447072
 21
15.419752
 31
0.0
  0
CIRCLE
  5
1A1
100
AcDbEntity
  8
4
370
    15
390
0
  6
Continuous
 62
     7
100
AcDbCircle
 10
25.630805
 20
15.585545
 30
0.0
 40
0.129336
  0
CIRCLE
  5
1A2
100
AcDbEntity
  8
4
370
    15
390
0
  6
Continuous
 62
     7
100
AcDbCircle
 10
25.630805
 20
15.585545
 30
0.0
 40
0.057001
  0
HATCH
  5
1A3
100
AcDbEntity
  8
4
370
     0
390
0
  6
Continuous
 62
     7
100
AcDbHatch
 10
0.0
 20
0.0
 30
0.0
210
0.0
220
0.0
230
1.0
  2
SOLID
 70
     1
 71
     0
 91
        1
 92
        1
 93
        1
 72
     2
 10
25.63080531987864
 20
15.585545222298169
 40
0.0570005946738519
 50
0.0
 51
359.999994
 73
     1
 97
        0
 75
     0
 76
     1
 98
        1
 10
0.0
 20
0.0
  0
LINE
  5
1A4
100
AcDbEntity
  8
4
370
    15
390
0
  6
Continuous
 62
     7
100
AcDbLine
 10
25.814538
 20
15.751339
 30
0.0
 11
26.798125
 21
15.751339
 31
0.0
  0
LINE
  5
1A5
100
AcDbEntity
  8
4
370
    15
390
0
  6
Continuous
 62
     7
100
AcDbLine
 10
25.814538
 20
15.419752
 30
0.0
 11
26.798125
 21
15.419752
 31
0.0
  0
LINE
  5
1A6
100
AcDbEntity
  8
4
370
    15
390
0
  6
Continuous
 62
     7
100
AcDbLine
 10
26.798125
 20
15.751339
 30
0.0
 11
26.798125
 21
15.419752
 31
0.0
  0
LINE
  5
1A7
100
AcDbEntity
  8
4
370
    15
390
0
  6
Continuous
 62
     7
100
AcDbLine
 10
26.798125
 20
15.419752
 30
0.0
 11
27.16559
 21
15.419752
 31
0.0
  0
LINE
  5
1A8
100
AcDbEntity
  8
4
370
    15
390
0
  6
Continuous
 62
     7
100
AcDbLine
 10
27.16559
 20
15.419752
 30
0.0
 11
27.16559
 21
15.751339
 31
0.0
  0
LINE
  5
1A9
100
AcDbEntity
  8
4
370
    15
390
0
  6
Continuous
 62
     7
100
AcDbLine
 10
27.16559
 20
15.751339
 30
0.0
 11
26.798125
 21
15.751339
 31
0.0
  0
TEXT
  5
1AA
100
AcDbEntity
  8
4
370
    15
390
0
  6
Continuous
 62
     7
100
AcDbText
 10
26.844735
 20
15.457956
 30
0.0
 40
0.24
  1
A
  7
Vcadd_SIMP
 72
     1
 11
26.982735
 21
15.457956
 31
0.0
100
AcDbText
  0
TEXT
  5
1AB
100
AcDbEntity
  8
0
370
    15
390
0
  6
Continuous
 62
     7
100
AcDbText
 10
21.07084
 20
17.37319
 30
0.0
 40
0.12
  1
SERIES 3
 50
270.0
  7
Vcadd_SIMP
100
AcDbText
  0
TEXT
  5
1AC
100
AcDbEntity
  8
0
370
    15
390
0
  6
Continuous
 62
     7
100
AcDbText
 10
21.033175
 20
17.837038
 30
0.0
 40
0.094
  1
1:1
 50
270.0
  7
Vcadd_SIMP
100
AcDbText
  0
TEXT
  5
1AD
100
AcDbEntity
  8
4
370
    15
390
0
  6
Continuous
 62
     7
100
AcDbText
 10
22.745312
 20
21.832099
 30
0.0
 40
0.142
  1
L.S.
  7
Vcadd_SIMP
100
AcDbText
  0
LINE
  5
1AE
100
AcDbEntity
  8
3
370
    15
390
0
  6
Continuous
 62
     1
100
AcDbLine
 10
24.206832
 20
19.45065
 30
0.0
 11
23.543611
 21
19.45065
 31
0.0
  0
LINE
  5
1AF
100
AcDbEntity
  8
0
370
    15
390
0
  6
Continuous
 62
     1
100
AcDbLine
 10
26.344782
 20
18.263111
 30
0.0
 11
25.344782
 21
18.263111
 31
0.0
  0
LINE
  5
1B0
100
AcDbEntity
  8
4
370
    15
390
0
  6
Continuous
 62
     7
100
AcDbLine
 10
26.17647
 20
18.301731
 30
0.0
 11
26.256495
 21
18.470066
 31
0.0
  0
TEXT
  5
1B1
100
AcDbEntity
  8
4
370
    15
390
0
  6
Continuous
 62
     7
100
AcDbText
 10
26.136836
 20
18.316898
 30
0.0
 40
0.16275
  1
O
  7
Vcadd_SIMP
100
AcDbText
  0
LINE
  5
1B2
100
AcDbEntity
  8
0
370
    15
390
0
  6
Continuous
 62
     1
100
AcDbLine
 10
25.344782
 20
18.135999
 30
0.0
 11
25.344782
 21
19.287632
 31
0.0
  0
LINE
  5
1B3
100
AcDbEntity
  8
0
370
    15
390
0
  6
Continuous
 62
     1
100
AcDbLine
 10
26.344782
 20
18.135999
 30
0.0
 11
26.344782
 21
18.698732
 31
0.0
  0
LINE
  5
1B4
100
AcDbEntity
  8
1
370
    15
390
0
  6
Continuous
 62
     7
100
AcDbLine
 10
25.844782
 20
18.996112
 30
0.0
 11
25.844782
 21
20.689196
 31
0.0
  0
LINE
  5
1B5
100
AcDbEntity
  8
1
370
    15
390
0
  6
Continuous
 62
     7
100
AcDbLine
 10
22.112936
 20
22.789739
 30
0.0
 11
22.248144
 21
22.789739
 31
0.0
  0
LINE
  5
1B6
100
AcDbEntity
  8
1
370
    15
390
0
  6
Continuous
 62
     7
100
AcDbLine
 10
22.362539
 20
22.591592
 30
0.0
 11
22.248144
 21
22.789739
 31
0.0
  0
CIRCLE
  5
1B7
100
AcDbEntity
  8
1
370
    15
390
0
  6
Continuous
 62
     1
100
AcDbCircle
 10
22.242178
 20
22.728975
 30
0.0
 40
0.276708
  0
LINE
  5
1B8
100
AcDbEntity
  8
1
370
    15
390
0
  6
Continuous
 62
     7
100
AcDbLine
 10
22.112936
 20
22.789739
 30
0.0
 11
22.112936
 21
22.975721
 31
0.0
  0
LINE
  5
1B9
100
AcDbEntity
  8
1
370
    15
390
0
  6
Continuous
 62
     7
100
AcDbLine
 10
22.362539
 20
22.47981
 30
0.0
 11
22.362539
 21
22.591592
 31
0.0
  0
LINE
  5
1BA
100
AcDbEntity
  8
1
370
    15
390
0
  6
Continuous
 62
     1
100
AcDbLine
 10
22.248144
 20
22.824727
 30
0.0
 11
22.248144
 21
23.348058
 31
0.0
  0
LINE
  5
1BB
100
AcDbEntity
  8
1
370
    15
390
0
  6
Continuous
 62
     1
100
AcDbLine
 10
21.967069
 20
23.276574
 30
0.0
 11
22.230993
 21
22.819444
 31
0.0
  0
INSERT
  5
1C9
100
AcDbEntity
  8
3
370
    40
390
0
  6
Continuous
 62
     1
100
AcDbBlockReference
  2
MAU
 10
22.248144
 20
23.262735
 30
0.0
 42
-1.0
 50
270.0
  0
LINE
  5
1CA
100
AcDbEntity
  8
3
370
    15
390
0
  6
Continuous
 62
     1
100
AcDbLine
 10
22.500822
 20
23.262735
 30
0.0
 11
22.248144
 21
23.262735
 31
0.0
  0
INSERT
  5
1D8
100
AcDbEntity
  8
3
370
    60
390
0
  6
Continuous
 62
     1
100
AcDbBlockReference
  2
MAL
 10
22.012144
 20
23.198503
 30
0.0
 42
-1.0
 50
205.0
  0
LINE
  5
1D9
100
AcDbEntity
  8
3
370
    15
390
0
  6
Continuous
 62
     1
100
AcDbLine
 10
21.798574
 20
23.088014
 30
0.0
 11
22.012144
 21
23.198503
 31
0.0
  0
INSERT
  5
1DA
100
AcDbEntity
  8
3
370
    40
390
0
  6
Continuous
 62
     1
100
AcDbBlockReference
  2
MAU
 10
22.248144
 20
22.904363
 30
0.0
 42
-1.0
 50
270.0
  0
LINE
  5
1DB
100
AcDbEntity
  8
3
370
    15
390
0
  6
Continuous
 62
     1
100
AcDbLine
 10
22.662466
 20
22.904363
 30
0.0
 11
22.248144
 21
22.904363
 31
0.0
  0
LINE
  5
1DC
100
AcDbEntity
  8
4
370
    15
390
0
  6
Continuous
 62
     7
100
AcDbLine
 10
23.350195
 20
22.824655
 30
0.0
 11
23.430219
 21
22.99299
 31
0.0
  0
TEXT
  5
1DD
100
AcDbEntity
  8
4
370
    15
390
0
  6
Continuous
 62
     7
100
AcDbText
 10
23.31056
 20
22.839822
 30
0.0
 40
0.16275
  1
O
  7
Vcadd_SIMP
100
AcDbText
  0
LINE
  5
1DE
100
AcDbEntity
  8
3
370
    15
390
0
  6
Continuous
 62
     1
100
AcDbLine
 10
23.235032
 20
22.904363
 30
0.0
 11
22.662466
 21
22.904363
 31
0.0
  0
LINE
  5
1DF
100
AcDbEntity
  8
4
370
    15
390
0
  6
Continuous
 62
     7
100
AcDbLine
 10
24.322512
 20
22.200493
 30
0.0
 11
24.402537
 21
22.368828
 31
0.0
  0
TEXT
  5
1E0
100
AcDbEntity
  8
4
370
    15
390
0
  6
Continuous
 62
     7
100
AcDbText
 10
24.282877
 20
22.215661
 30
0.0
 40
0.16275
  1
O
  7
Vcadd_SIMP
100
AcDbText
  0
LINE
  5
1E1
100
AcDbEntity
  8
3
370
    15
390
0
  6
Continuous
 62
     1
100
AcDbLine
 10
24.202584
 20
22.285332
 30
0.0
 11
23.543611
 21
22.285332
 31
0.0
  0
LINE
  5
1E2
100
AcDbEntity
  8
3
370
    15
390
0
  6
Continuous
 62
     1
100
AcDbLine
 10
24.763197
 20
21.920409
 30
0.0
 11
24.621311
 21
22.285332
 31
0.0
  0
LINE
  5
1E3
100
AcDbEntity
  8
3
370
    15
390
0
  6
Continuous
 62
     1
100
AcDbLine
 10
24.621311
 20
22.285332
 30
0.0
 11
24.501425
 21
22.285332
 31
0.0
  0
LINE
  5
1E5
100
AcDbEntity
  8
4
370
    15
390
0
  6
TYPE___8
 62
     1
100
AcDbLine
 10
22.4636
 20
22.931458
 30
0.0
 11
22.347861
 21
22.97938
 31
0.0
  0
LINE
  5
1E6
100
AcDbEntity
  8
4
370
    15
390
0
  6
TYPE___8
 62
     1
100
AcDbLine
 10
23.546047
 20
22.483264
 30
0.0
 11
23.050229
 21
22.688561
 31
0.0
  0
LINE
  5
1E7
100
AcDbEntity
  8
4
370
    15
390
0
  6
TYPE___8
 62
     1
100
AcDbLine
 10
24.667382
 20
22.018969
 30
0.0
 11
24.394185
 21
22.132088
 31
0.0
  0
LINE
  5
1E8
100
AcDbEntity
  8
4
370
    15
390
0
  6
TYPE___8
 62
     1
100
AcDbLine
 10
25.131085
 20
21.82697
 30
0.0
 11
25.024171
 21
21.871238
 31
0.0
  0
LINE
  5
1E9
100
AcDbEntity
  8
4
370
    15
390
0
  6
TYPE___8
 62
     1
100
AcDbLine
 10
24.831476
 20
21.951025
 30
0.0
 11
24.783219
 21
21.971006
 31
0.0
  0
LINE
  5
1EA
100
AcDbEntity
  8
4
370
    15
390
0
  6
TYPE___8
 62
     1
100
AcDbLine
 10
25.080417
 20
21.714439
 30
0.0
 11
24.896636
 21
21.761634
 31
0.0
  0
LINE
  5
1EB
100
AcDbEntity
  8
4
370
    15
390
0
  6
TYPE___8
 62
     1
100
AcDbLine
 10
24.650492
 20
21.824843
 30
0.0
 11
22.144893
 21
22.468278
 31
0.0
  0
LINE
  5
1EC
100
AcDbEntity
  8
3
370
    15
390
0
  6
Continuous
 62
     1
100
AcDbLine
 10
25.124281
 20
19.722737
 30
0.0
 11
23.390076
 21
19.722737
 31
0.0
  0
LINE
  5
1ED
100
AcDbEntity
  8
3
370
    15
390
0
  6
Continuous
 62
     1
100
AcDbLine
 10
24.803603
 20
20.63856
 30
0.0
 11
25.174281
 21
20.63856
 31
0.0
  0
LINE
  5
1EE
100
AcDbEntity
  8
4
370
    15
390
0
  6
Continuous
 62
     7
100
AcDbLine
 10
24.65781
 20
20.553717
 30
0.0
 11
24.737835
 21
20.722052
 31
0.0
  0
TEXT
  5
1EF
100
AcDbEntity
  8
4
370
    15
390
0
  6
Continuous
 62
     7
100
AcDbText
 10
24.618175
 20
20.568884
 30
0.0
 40
0.16275
  1
O
  7
Vcadd_SIMP
100
AcDbText
  0
LINE
  5
1F0
100
AcDbEntity
  8
3
370
    15
390
0
  6
Continuous
 62
     1
100
AcDbLine
 10
24.54213
 20
20.63856
 30
0.0
 11
23.878909
 21
20.63856
 31
0.0
  0
LINE
  5
1F1
100
AcDbEntity
  8
1
370
    15
390
0
  6
Continuous
 62
     7
100
AcDbLine
 10
22.992912
 20
20.274237
 30
0.0
 11
23.057487
 21
20.209693
 31
0.0
  0
ARC
  5
1F2
100
AcDbEntity
  8
1
370
    15
390
0
  6
Continuous
 62
     7
100
AcDbCircle
 10
23.00072
 20
20.153033
 30
0.0
 40
0.080205
100
AcDbArc
 50
0.057109
 51
44.945426
  0
CIRCLE
  5
1F4
100
AcDbEntity
  8
3
370
    15
390
0
  6
PHANTOM
 62
     1
100
AcDbCircle
 10
23.025001
 20
20.225067
 30
0.0
 40
0.315099
  0
LINE
  5
1F5
100
AcDbEntity
  8
1
370
    15
390
0
  6
Continuous
 62
     7
100
AcDbLine
 10
22.992912
 20
20.274237
 30
0.0
 11
22.992912
 21
20.538528
 31
0.0
  0
LINE
  5
1F6
100
AcDbEntity
  8
1
370
    15
390
0
  6
Continuous
 62
     7
100
AcDbLine
 10
23.080925
 20
20.153113
 30
0.0
 11
23.080925
 21
19.914971
 31
0.0
  0
LINE
  5
1F7
100
AcDbEntity
  8
3
370
    15
390
0
  6
Continuous
 62
     1
100
AcDbLine
 10
23.074821
 20
20.183722
 30
0.0
 11
22.737495
 21
20.00254
 31
0.0
  0
LINE
  5
1F8
100
AcDbEntity
  8
3
370
    15
390
0
  6
Continuous
 62
     1
100
AcDbLine
 10
22.737495
 20
20.00254
 30
0.0
 11
22.644924
 21
20.00254
 31
0.0
  0
LINE
  5
1F9
100
AcDbEntity
  8
3
370
    15
390
0
  6
Continuous
 62
     1
100
AcDbLine
 10
22.957157
 20
20.309976
 30
0.0
 11
22.625339
 21
20.641636
 31
0.0
  0
LINE
  5
1FA
100
AcDbEntity
  8
3
370
    15
390
0
  6
Continuous
 62
     1
100
AcDbLine
 10
22.992912
 20
20.597218
 30
0.0
 11
22.992912
 21
20.795665
 31
0.0
  0
ARC
  5
1FB
100
AcDbEntity
  8
3
370
    15
390
0
  6
Continuous
 62
     1
100
AcDbCircle
 10
22.992912
 20
20.274237
 30
0.0
 40
0.460409
100
AcDbArc
 50
65.863881
 51
90.0
  0
ARC
  5
1FC
100
AcDbEntity
  8
3
370
    15
390
0
  6
Continuous
 62
     1
100
AcDbCircle
 10
22.992912
 20
20.274237
 30
0.0
 40
0.460409
100
AcDbArc
 50
135.013542
 51
163.25445
  0
TEXT
  5
1FD
100
AcDbEntity
  8
4
370
    15
390
0
  6
Continuous
 62
     7
100
AcDbText
 10
23.273599
 20
20.677815
 30
0.0
 40
0.142
  1
45^  
  7
Vcadd_SIMP
100
AcDbText
  0
TEXT
  5
1FE
100
AcDbEntity
  8
4
370
    15
390
0
  6
Continuous
 62
     7
100
AcDbText
 10
23.273599
 20
20.500315
 30
0.0
 40
0.142
  1
**
  7
Vcadd_SIMP
100
AcDbText
  0
CIRCLE
  5
1FF
100
AcDbEntity
  8
4
370
    15
390
0
  6
TYPE___8
 62
     1
100
AcDbCircle
 10
25.206556
 20
19.695828
 30
0.0
 40
0.115312
  0
LINE
  5
200
100
AcDbEntity
  8
4
370
    15
390
0
  6
TYPE___8
 62
     1
100
AcDbLine
 10
25.193829
 20
19.810435
 30
0.0
 11
23.102009
 21
20.528115
 31
0.0
  0
LINE
  5
201
100
AcDbEntity
  8
4
370
    15
390
0
  6
TYPE___8
 62
     1
100
AcDbLine
 10
25.175068
 20
19.580516
 30
0.0
 11
24.8765
 21
19.625839
 31
0.0
  0
LINE
  5
202
100
AcDbEntity
  8
4
370
    15
390
0
  6
TYPE___8
 62
     1
100
AcDbLine
 10
24.022375
 20
19.755496
 30
0.0
 11
22.966273
 21
19.915814
 31
0.0
  0
LINE
  5
203
100
AcDbEntity
  8
1
370
    15
390
0
  6
Continuous
 62
     1
100
AcDbLine
 10
26.775721
 20
20.738268
 30
0.0
 11
26.770654
 21
20.706494
 31
0.0
  0
LINE
  5
204
100
AcDbEntity
  8
3
370
    15
390
0
  6
Continuous
 62
     1
100
AcDbLine
 10
26.710947
 20
20.474734
 30
0.0
 11
29.575764
 21
20.474734
 31
0.0
  0
LINE
  5
205
100
AcDbEntity
  8
3
370
    15
390
0
  6
Continuous
 62
     1
100
AcDbLine
 10
25.850479
 20
24.218356
 30
0.0
 11
25.519221
 21
24.218356
 31
0.0
  0
LINE
  5
206
100
AcDbEntity
  8
3
370
    15
390
0
  6
Continuous
 62
     1
100
AcDbLine
 10
25.850479
 20
23.760226
 30
0.0
 11
25.722472
 21
23.760226
 31
0.0
  0
LINE
  5
207
100
AcDbEntity
  8
3
370
    15
390
0
  6
Continuous
 62
     1
100
AcDbLine
 10
27.822209
 20
21.78673
 30
0.0
 11
27.822209
 21
21.427538
 31
0.0
  0
LINE
  5
208
100
AcDbEntity
  8
3
370
    15
390
0
  6
Continuous
 62
     1
100
AcDbLine
 10
26.859278
 20
21.817736
 30
0.0
 11
27.918431
 21
21.817736
 31
0.0
  0
LINE
  5
209
100
AcDbEntity
  8
4
370
    15
390
0
  6
Continuous
 62
     1
100
AcDbLine
 10
29.575764
 20
22.30896
 30
0.0
 11
27.521689
 21
22.30896
 31
0.0
  0
LINE
  5
20A
100
AcDbEntity
  8
4
370
    15
390
0
  6
Continuous
 62
     1
100
AcDbLine
 10
27.644288
 20
22.021235
 30
0.0
 11
27.521689
 21
22.30896
 31
0.0
  0
LINE
  5
20B
100
AcDbEntity
  8
3
370
    15
390
0
  6
Continuous
 62
     1
100
AcDbLine
 10
27.937426
 20
18.729775
 30
0.0
 11
28.231726
 21
18.729775
 31
0.0
  0
LINE
  5
20C
100
AcDbEntity
  8
3
370
    15
390
0
  6
Continuous
 62
     1
100
AcDbLine
 10
26.402659
 20
18.946735
 30
0.0
 11
28.044929
 21
18.946735
 31
0.0
  0
LINE
  5
20D
100
AcDbEntity
  8
4
370
    15
390
0
  6
Continuous
 62
     1
100
AcDbLine
 10
28.044929
 20
18.946735
 30
0.0
 11
27.937426
 21
18.729775
 31
0.0
  0
LINE
  5
20E
100
AcDbEntity
  8
3
370
    15
390
0
  6
Continuous
 62
     1
100
AcDbLine
 10
24.202584
 20
21.541384
 30
0.0
 11
23.474745
 21
21.541384
 31
0.0
  0
LINE
  5
20F
100
AcDbEntity
  8
4
370
    15
390
0
  6
Continuous
 62
     1
100
AcDbLine
 10
23.458296
 20
21.645148
 30
0.0
 11
23.257506
 21
21.645148
 31
0.0
  0
LINE
  5
210
100
AcDbEntity
  8
4
370
    15
390
0
  6
Continuous
 62
     1
100
AcDbLine
 10
23.458296
 20
21.645148
 30
0.0
 11
23.257506
 21
21.645148
 31
0.0
  0
LINE
  5
211
100
AcDbEntity
  8
4
370
    15
390
0
  6
Continuous
 62
     1
100
AcDbLine
 10
23.458296
 20
21.43762
 30
0.0
 11
23.257506
 21
21.43762
 31
0.0
  0
LINE
  5
212
100
AcDbEntity
  8
4
370
    15
390
0
  6
Continuous
 62
     1
100
AcDbLine
 10
23.257506
 20
21.43762
 30
0.0
 11
23.234335
 21
21.43762
 31
0.0
  0
LINE
  5
213
100
AcDbEntity
  8
4
370
    15
390
0
  6
Continuous
 62
     1
100
AcDbLine
 10
23.234335
 20
21.43762
 30
0.0
 11
23.234335
 21
21.645148
 31
0.0
  0
LINE
  5
214
100
AcDbEntity
  8
4
370
    15
390
0
  6
Continuous
 62
     1
100
AcDbLine
 10
23.234335
 20
21.645148
 30
0.0
 11
23.292395
 21
21.645148
 31
0.0
  0
LINE
  5
215
100
AcDbEntity
  8
4
370
    15
390
0
  6
Continuous
 62
     1
100
AcDbLine
 10
23.458296
 20
21.43762
 30
0.0
 11
23.474745
 21
21.43762
 31
0.0
  0
LINE
  5
216
100
AcDbEntity
  8
4
370
    15
390
0
  6
Continuous
 62
     1
100
AcDbLine
 10
23.474745
 20
21.43762
 30
0.0
 11
23.474745
 21
21.645148
 31
0.0
  0
LINE
  5
217
100
AcDbEntity
  8
4
370
    15
390
0
  6
Continuous
 62
     1
100
AcDbLine
 10
23.474745
 20
21.645148
 30
0.0
 11
23.401427
 21
21.645148
 31
0.0
  0
TEXT
  5
218
100
AcDbEntity
  8
4
370
    15
390
0
  6
Continuous
 62
     7
100
AcDbText
 10
23.28752
 20
21.475073
 30
0.0
 40
0.142
  1
A
  7
Vcadd_SIMP
100
AcDbText
  0
ARC
  5
219
100
AcDbEntity
  8
4
370
    15
390
0
  6
Continuous
 62
     1
100
AcDbCircle
 10
25.192097
 20
21.533913
 30
0.0
 40
0.731923
100
AcDbArc
 50
315.0
 51
334.186528
  0
ARC
  5
21A
100
AcDbEntity
  8
4
370
    15
390
0
  6
Continuous
 62
     1
100
AcDbCircle
 10
25.192097
 20
21.533913
 30
0.0
 40
0.731923
100
AcDbArc
 50
248.456372
 51
270.0
  0
TEXT
  5
21B
100
AcDbEntity
  8
4
370
    15
390
0
  6
Continuous
 62
     7
100
AcDbText
 10
25.284747
 20
20.817338
 30
0.0
 40
0.142
  1
45^  
  7
Vcadd_SIMP
100
AcDbText
  0
LINE
  5
21C
100
AcDbEntity
  8
4
370
    15
390
0
  6
Continuous
 62
     1
100
AcDbLine
 10
25.249726
 20
21.476284
 30
0.0
 11
25.785124
 21
20.940887
 31
0.0
  0
LINE
  5
21D
100
AcDbEntity
  8
0
370
    15
390
0
  6
CL____X1
 62
     1
100
AcDbLine
 10
25.093279
 20
21.962054
 30
0.0
 11
24.990778
 21
22.021235
 31
0.0
  0
LINE
  5
21E
100
AcDbEntity
  8
0
370
    15
390
0
  6
CL____X1
 62
     1
100
AcDbLine
 10
24.990778
 20
22.021235
 30
0.0
 11
24.990778
 21
22.804316
 31
0.0
  0
LINE
  5
21F
100
AcDbEntity
  8
3
370
    15
390
0
  6
Continuous
 62
     1
100
AcDbLine
 10
24.989302
 20
22.63362
 30
0.0
 11
24.649433
 21
22.63362
 31
0.0
  0
LINE
  5
220
100
AcDbEntity
  8
4
370
    15
390
0
  6
Continuous
 62
     7
100
AcDbLine
 10
24.512094
 20
22.548777
 30
0.0
 11
24.592119
 21
22.717112
 31
0.0
  0
TEXT
  5
221
100
AcDbEntity
  8
4
370
    15
390
0
  6
Continuous
 62
     7
100
AcDbText
 10
24.47246
 20
22.563944
 30
0.0
 40
0.16275
  1
O
  7
Vcadd_SIMP
100
AcDbText
  0
LINE
  5
222
100
AcDbEntity
  8
0
370
    15
390
0
  6
Continuous
 62
     7
100
AcDbLine
 10
20.396761
 20
22.513289
 30
0.0
 11
21.771761
 21
22.513289
 31
0.0
  0
LINE
  5
223
100
AcDbEntity
  8
0
370
    15
390
0
  6
Continuous
 62
     2
100
AcDbLine
 10
20.396761
 20
22.763289
 30
0.0
 11
21.771761
 21
22.763289
 31
0.0
  0
LINE
  5
224
100
AcDbEntity
  8
0
370
    15
390
0
  6
Continuous
 62
     7
100
AcDbLine
 10
20.396761
 20
20.138289
 30
0.0
 11
21.771761
 21
20.138289
 31
0.0
  0
LINE
  5
225
100
AcDbEntity
  8
0
370
    15
390
0
  6
Continuous
 62
     7
100
AcDbLine
 10
20.396761
 20
19.638291
 30
0.0
 11
21.771761
 21
19.638291
 31
0.0
  0
LINE
  5
226
100
AcDbEntity
  8
0
370
    15
390
0
  6
Continuous
 62
     7
100
AcDbLine
 10
20.396761
 20
19.388291
 30
0.0
 11
21.771761
 21
19.388291
 31
0.0
  0
LINE
  5
227
100
AcDbEntity
  8
0
370
    15
390
0
  6
Continuous
 62
     7
100
AcDbLine
 10
20.396761
 20
19.138293
 30
0.0
 11
21.771761
 21
19.138293
 31
0.0
  0
LINE
  5
228
100
AcDbEntity
  8
0
370
    15
390
0
  6
Continuous
 62
     7
100
AcDbLine
 10
20.396761
 20
18.888293
 30
0.0
 11
21.771761
 21
18.888293
 31
0.0
  0
LINE
  5
229
100
AcDbEntity
  8
0
370
    15
390
0
  6
Continuous
 62
     7
100
AcDbLine
 10
21.644762
 20
22.513289
 30
0.0
 11
21.644762
 21
20.138289
 31
0.0
  0
LINE
  5
22A
100
AcDbEntity
  8
0
370
    15
390
0
  6
Continuous
 62
     7
100
AcDbLine
 10
21.332766
 20
22.513289
 30
0.0
 11
21.332766
 21
20.138289
 31
0.0
  0
LINE
  5
22B
100
AcDbEntity
  8
0
370
    15
390
0
  6
Continuous
 62
     7
100
AcDbLine
 10
21.17676
 20
22.513289
 30
0.0
 11
21.17676
 21
20.138289
 31
0.0
  0
LINE
  5
22C
100
AcDbEntity
  8
0
370
    15
390
0
  6
Continuous
 62
     7
100
AcDbLine
 10
20.708758
 20
20.138289
 30
0.0
 11
20.708758
 21
22.513289
 31
0.0
  0
TEXT
  5
22D
100
AcDbEntity
  8
0
370
    15
390
0
  6
Continuous
 62
     7
100
AcDbText
 10
20.599301
 20
22.474072
 30
0.0
 40
0.075
  1
.002 CONCENTRICITY WAS .001
 50
270.0
  7
Vcadd_SIMP
100
AcDbText
  0
TEXT
  5
22E
100
AcDbEntity
  8
0
370
    15
390
0
  6
Continuous
 62
     7
100
AcDbText
 10
20.663319
 20
19.599787
 30
0.0
 40
0.074
  1
DAS
 50
270.0
 41
0.75
  7
Vcadd_SIMP
100
AcDbText
  0
TEXT
  5
22F
100
AcDbEntity
  8
0
370
    15
390
0
  6
Continuous
 62
     7
100
AcDbText
 10
20.752339
 20
22.485134
 30
0.0
 40
0.074
  1
REDRAWN TO BE CONSISTENT WITH SIMILAR CAVS
 50
270.0
 41
0.75
  7
Vcadd_SIMP
100
AcDbText
  0
LINE
  5
230
100
AcDbEntity
  8
0
370
    15
390
0
  6
Continuous
 62
     7
100
AcDbLine
 10
20.864764
 20
18.888293
 30
0.0
 11
20.864764
 21
22.763289
 31
0.0
  0
TEXT
  5
231
100
AcDbEntity
  8
0
370
    15
390
0
  6
Continuous
 62
     7
100
AcDbText
 10
20.66354
 20
22.681148
 30
0.0
 40
0.075
  1
J
 50
270.0
  7
Vcadd_SIMP
100
AcDbText
  0
TEXT
  5
232
100
AcDbEntity
  8
0
370
    15
390
0
  6
Continuous
 62
     7
100
AcDbText
 10
20.668628
 20
20.106415
 30
0.0
 40
0.074
  1
28JUL99
 50
270.0
 41
0.75
  7
Vcadd_SIMP
100
AcDbText
  0
LINE
  5
233
100
AcDbEntity
  8
4
370
    15
390
0
  6
Continuous
 62
     1
100
AcDbLine
 10
26.768882
 20
22.021235
 30
0.0
 11
27.644288
 21
22.021235
 31
0.0
  0
TEXT
  5
234
100
AcDbEntity
  8
4
370
    15
390
0
  6
Continuous
 62
     7
100
AcDbText
 10
25.727684
 20
15.46661
 30
0.0
 40
0.24
  1
0,05
  7
Vcadd_SIMP
 72
     1
 11
26.279684
 21
15.46661
 31
0.0
100
AcDbText
  0
LINE
  5
235
100
AcDbEntity
  8
3
370
    15
390
0
  6
Continuous
 62
     1
100
AcDbLine
 10
25.804365
 20
24.676356
 30
0.0
 11
25.31597
 21
24.676356
 31
0.0
  0
TEXT
  5
236
100
AcDbEntity
  8
4
370
    15
390
0
  6
Continuous
 62
     7
100
AcDbText
 10
29.615469
 20
22.869972
 30
0.0
 40
0.142
  1
24,61
  7
Vcadd_SIMP
100
AcDbText
  0
TEXT
  5
237
100
AcDbEntity
  8
4
370
    15
390
0
  6
Continuous
 62
     7
100
AcDbText
 10
29.6367
 20
22.245416
 30
0.0
 40
0.142
  1
5,94*
  7
Vcadd_SIMP
100
AcDbText
  0
TEXT
  5
238
100
AcDbEntity
  8
4
370
    15
390
0
  6
Continuous
 62
     7
100
AcDbText
 10
29.6367
 20
22.032416
 30
0.0
 40
0.142
  1
 REF
  7
Vcadd_SIMP
100
AcDbText
  0
TEXT
  5
239
100
AcDbEntity
  8
4
370
    15
390
0
  6
Continuous
 62
     7
100
AcDbText
 10
29.743486
 20
21.726817
 30
0.0
 40
0.142
  1
0,00
  7
Vcadd_SIMP
100
AcDbText
  0
TEXT
  5
23A
100
AcDbEntity
  8
0
370
    15
390
0
  6
Continuous
 62
     7
100
AcDbText
 10
25.371882
 20
18.323059
 30
0.0
 40
0.142
  1
25,40
  7
Vcadd_SIMP
100
AcDbText
  0
TEXT
  5
23B
100
AcDbEntity
  8
4
370
    15
390
0
  6
Continuous
 62
     7
100
AcDbText
 10
29.621384
 20
20.422133
 30
0.0
 40
0.142
  1
33,32
  7
Vcadd_SIMP
100
AcDbText
  0
TEXT
  5
23C
100
AcDbEntity
  8
4
370
    15
390
0
  6
Continuous
 62
     7
100
AcDbText
 10
22.569963
 20
22.925855
 30
0.0
 40
0.142
  1
37,29
  7
Vcadd_SIMP
100
AcDbText
  0
TEXT
  5
23D
100
AcDbEntity
  8
4
370
    15
390
0
  6
Continuous
 62
     7
100
AcDbText
 10
22.569963
 20
22.748353
 30
0.0
 40
0.142
  1
37,34
  7
Vcadd_SIMP
100
AcDbText
  0
TEXT
  5
23E
100
AcDbEntity
  8
4
370
    15
390
0
  6
Continuous
 62
     7
100
AcDbText
 10
23.534291
 20
22.13147
 30
0.0
 40
0.142
  1
39,73
  7
Vcadd_SIMP
100
AcDbText
  0
TEXT
  5
23F
100
AcDbEntity
  8
4
370
    15
390
0
  6
Continuous
 62
     7
100
AcDbText
 10
22.084515
 20
21.726721
 30
0.0
 40
0.142
  1
0,00
  7
Vcadd_SIMP
100
AcDbText
  0
TEXT
  5
240
100
AcDbEntity
  8
4
370
    15
390
0
  6
Continuous
 62
     7
100
AcDbText
 10
24.328548
 20
21.663775
 30
0.0
 40
0.103
  1
1,6
  7
Vcadd_SIMP
100
AcDbText
  0
TEXT
  5
241
100
AcDbEntity
  8
4
370
    15
390
0
  6
Continuous
 62
     7
100
AcDbText
 10
24.328548
 20
19.57304
 30
0.0
 40
0.103
  1
1,6
  7
Vcadd_SIMP
100
AcDbText
  0
TEXT
  5
242
100
AcDbEntity
  8
4
370
    15
390
0
  6
Continuous
 62
     7
100
AcDbText
 10
21.810001
 20
19.928661
 30
0.0
 40
0.142
  1
0,80 R
  7
Vcadd_SIMP
100
AcDbText
  0
TEXT
  5
243
100
AcDbEntity
  8
4
370
    15
390
0
  6
Continuous
 62
     7
100
AcDbText
 10
21.810001
 20
19.751161
 30
0.0
 40
0.142
  1
 **
  7
Vcadd_SIMP
100
AcDbText
  0
TEXT
  5
244
100
AcDbEntity
  8
4
370
    15
390
0
  6
Continuous
 62
     7
100
AcDbText
 10
23.534291
 20
21.56502
 30
0.0
 40
0.142
  1
36,53
  7
Vcadd_SIMP
100
AcDbText
  0
TEXT
  5
245
100
AcDbEntity
  8
4
370
    15
390
0
  6
Continuous
 62
     7
100
AcDbText
 10
23.534291
 20
21.387518
 30
0.0
 40
0.142
  1
36,58
  7
Vcadd_SIMP
100
AcDbText
  0
TEXT
  5
246
100
AcDbEntity
  8
4
370
    15
390
0
  6
Continuous
 62
     7
100
AcDbText
 10
23.865667
 20
20.662196
 30
0.0
 40
0.142
  1
34,11
  7
Vcadd_SIMP
100
AcDbText
  0
TEXT
  5
247
100
AcDbEntity
  8
4
370
    15
390
0
  6
Continuous
 62
     7
100
AcDbText
 10
23.865667
 20
20.484694
 30
0.0
 40
0.142
  1
34,21
  7
Vcadd_SIMP
100
AcDbText
  0
LINE
  5
248
100
AcDbEntity
  8
3
370
    15
390
0
  6
Continuous
 62
     1
100
AcDbLine
 10
23.306062
 20
19.554383
 30
0.0
 11
22.699184
 21
19.554383
 31
0.0
  0
LINE
  5
249
100
AcDbEntity
  8
4
370
    15
390
0
  6
Continuous
 62
     1
100
AcDbLine
 10
23.390076
 20
19.722737
 30
0.0
 11
23.306062
 21
19.554383
 31
0.0
  0
TEXT
  5
24A
100
AcDbEntity
  8
4
370
    15
390
0
  6
Continuous
 62
     7
100
AcDbText
 10
23.52804
 20
19.474285
 30
0.0
 40
0.142
  1
31,75
  7
Vcadd_SIMP
100
AcDbText
  0
TEXT
  5
24B
100
AcDbEntity
  8
4
370
    15
390
0
  6
Continuous
 62
     7
100
AcDbText
 10
23.52804
 20
19.296787
 30
0.0
 40
0.142
  1
31,80
  7
Vcadd_SIMP
100
AcDbText
  0
TEXT
  5
24C
100
AcDbEntity
  8
4
370
    15
390
0
  6
Continuous
 62
     7
100
AcDbText
 10
22.545973
 20
23.194001
 30
0.0
 40
0.142
  1
30^ **
  7
Vcadd_SIMP
100
AcDbText
  0
TEXT
  5
24D
100
AcDbEntity
  8
4
370
    15
390
0
  6
Continuous
 62
     7
100
AcDbText
 10
23.69522
 20
22.577521
 30
0.0
 40
0.142
  1
44,45
  7
Vcadd_SIMP
100
AcDbText
  0
TEXT
  5
24E
100
AcDbEntity
  8
4
370
    15
390
0
  6
Continuous
 62
     7
100
AcDbText
 10
24.276095
 20
22.767964
 30
0.0
 40
0.142
  1
*
  7
Vcadd_SIMP
100
AcDbText
  0
TEXT
  5
24F
100
AcDbEntity
  8
0
370
    15
390
0
  6
Continuous
 62
     7
100
AcDbText
 10
20.666472
 20
19.126326
 30
0.0
 40
0.074
  1
8372
 50
270.0
 41
0.75
  7
Vcadd_SIMP
100
AcDbText
  0
TEXT
  5
250
100
AcDbEntity
  8
4
370
    15
390
0
  6
Continuous
 62
     7
100
AcDbText
 10
22.751718
 20
18.834748
 30
0.0
 40
0.142
  1
0,50 x 45^  MAX
  7
Vcadd_SIMP
100
AcDbText
  0
TEXT
  5
251
100
AcDbEntity
  8
4
370
    15
390
0
  6
Continuous
 62
     7
100
AcDbText
 10
21.00761
 20
22.876005
 30
0.0
 40
0.142
  1
L.S.
  7
Vcadd_SIMP
100
AcDbText
  0
LINE
  5
252
100
AcDbEntity
  8
4
370
    15
390
0
  6
Continuous
 62
     1
100
AcDbLine
 10
21.854947
 20
22.789739
 30
0.0
 11
21.900569
 21
22.93517
 31
0.0
  0
LINE
  5
253
100
AcDbEntity
  8
4
370
    15
390
0
  6
Continuous
 62
     1
100
AcDbLine
 10
21.900569
 20
22.93517
 30
0.0
 11
21.555529
 21
22.93517
 31
0.0
  0
LINE
  5
254
100
AcDbEntity
  8
4
370
    15
390
0
  6
Continuous
 62
     1
100
AcDbLine
 10
22.037774
 20
22.789739
 30
0.0
 11
21.854947
 21
22.789739
 31
0.0
  0
INSERT
  5
25D
100
AcDbEntity
  8
3
370
    15
390
0
  6
Continuous
 62
     7
100
AcDbBlockReference
  2
ARROW
 10
25.221278
 20
19.338734
 30
0.0
 50
52.35376
  0
INSERT
  5
25E
100
AcDbEntity
  8
3
370
    15
390
0
  6
Continuous
 62
     7
100
AcDbBlockReference
  2
ARROW
 10
25.31597
 20
21.78673
 30
0.0
 50
90.0
  0
INSERT
  5
25F
100
AcDbEntity
  8
3
370
    15
390
0
  6
Continuous
 62
     7
100
AcDbBlockReference
  2
ARROW
 10
25.31597
 20
21.833735
 30
0.0
 42
-1.0
 50
270.0
  0
INSERT
  5
260
100
AcDbEntity
  8
4
370
    15
390
0
  6
Continuous
 62
     7
100
AcDbBlockReference
  2
ARROW
 10
24.989302
 20
22.63362
 30
0.0
  0
INSERT
  5
261
100
AcDbEntity
  8
4
370
    15
390
0
  6
Continuous
 62
     7
100
AcDbBlockReference
  2
ARROW
 10
25.127276
 20
21.680178
 30
0.0
  0
INSERT
  5
262
100
AcDbEntity
  8
4
370
    15
390
0
  6
Continuous
 62
     7
100
AcDbBlockReference
  2
ARROW
 10
25.174281
 20
20.63856
 30
0.0
  0
INSERT
  5
263
100
AcDbEntity
  8
4
370
    15
390
0
  6
Continuous
 62
     7
100
AcDbBlockReference
  2
ARROW
 10
25.221278
 20
19.45065
 30
0.0
  0
INSERT
  5
264
100
AcDbEntity
  8
4
370
    15
390
0
  6
Continuous
 62
     7
100
AcDbBlockReference
  2
ARROW
 10
25.063654
 20
21.920409
 30
0.0
  0
INSERT
  5
265
100
AcDbEntity
  8
0
370
    15
390
0
  6
Continuous
 62
     7
100
AcDbBlockReference
  2
ARROW
 10
26.344782
 20
18.263111
 30
0.0
  0
INSERT
  5
266
100
AcDbEntity
  8
0
370
    15
390
0
  6
Continuous
 62
     7
100
AcDbBlockReference
  2
ARROW
 10
25.344782
 20
18.263111
 30
0.0
 50
180.0
  0
INSERT
  5
267
100
AcDbEntity
  8
3
370
    15
390
0
  6
Continuous
 62
     7
100
AcDbBlockReference
  2
ARROW
 10
23.074821
 20
20.183722
 30
0.0
 41
1.0
 42
1.0
 50
28.240833
  0
INSERT
  5
268
100
AcDbEntity
  8
3
370
    15
390
0
  6
Continuous
 62
     7
100
AcDbBlockReference
  2
ARROW
 10
22.667277
 20
20.599719
 30
0.0
 41
1.0
 42
1.0
 50
55.0
  0
INSERT
  5
269
100
AcDbEntity
  8
3
370
    15
390
0
  6
Continuous
 62
     7
100
AcDbBlockReference
  2
ARROW
 10
22.992912
 20
20.734646
 30
0.0
 41
1.0
 42
1.0
 50
165.0
  0
INSERT
  5
26A
100
AcDbEntity
  8
3
370
    15
390
0
  6
Continuous
 62
     7
100
AcDbBlockReference
  2
ARROW
 10
27.822209
 20
21.817736
 30
0.0
 50
270.0
  0
INSERT
  5
26B
100
AcDbEntity
  8
3
370
    15
390
0
  6
Continuous
 62
     7
100
AcDbBlockReference
  2
ARROW
 10
27.822209
 20
21.78673
 30
0.0
 50
90.0
  0
INSERT
  5
26C
100
AcDbEntity
  8
4
370
     0
390
0
  6
Continuous
 62
     1
100
AcDbBlockReference
  2
ARROW
 10
25.192097
 20
20.80199
 30
0.0
 41
1.0
 50
352.34741
  0
INSERT
  5
26D
100
AcDbEntity
  8
4
370
     0
390
0
  6
Continuous
 62
     1
100
AcDbBlockReference
  2
ARROW
 10
25.709645
 20
21.016365
 30
0.0
 41
1.0
 42
1.0
 50
231.917248
  0
LINE
  5
26E
100
AcDbEntity
  8
4
370
    15
390
0
  6
Continuous
 62
     1
100
AcDbLine
 10
26.442503
 20
23.266758
 30
0.0
 11
26.210168
 21
23.266758
 31
0.0
  0
LINE
  5
26F
100
AcDbEntity
  8
4
370
    15
390
0
  6
Continuous
 62
     1
100
AcDbLine
 10
26.210168
 20
23.266758
 30
0.0
 11
26.319069
 21
22.755732
 31
0.0
  0
INSERT
  5
270
100
AcDbEntity
  8
4
370
     0
390
0
  6
Continuous
 62
     1
100
AcDbBlockReference
  2
ARROW
 10
26.319069
 20
22.755732
 30
0.0
 41
1.0
 42
1.0
 50
282.029887
  0
TEXT
  5
271
100
AcDbEntity
  8
0
370
    15
390
0
  6
Continuous
 62
     7
100
AcDbText
 10
22.189717
 20
13.634417
 30
0.0
 40
0.09
  1
Wichtige Bemerkung:
  7
Vcadd_SIMP
100
AcDbText
  0
TEXT
  5
272
100
AcDbEntity
  8
0
370
    15
390
0
  6
Continuous
 62
     7
100
AcDbText
 10
22.189717
 20
13.499417
 30
0.0
 40
0.09
  1
Diese Zeichnung beschreibt ein
  7
Vcadd_SIMP
100
AcDbText
  0
TEXT
  5
273
100
AcDbEntity
  8
0
370
    15
390
0
  6
Continuous
 62
     7
100
AcDbText
 10
22.189717
 20
13.364417
 30
0.0
 40
0.09
  1
Produkt der Firma SUN Hydraulik
  7
Vcadd_SIMP
100
AcDbText
  0
TEXT
  5
274
100
AcDbEntity
  8
0
370
    15
390
0
  6
Continuous
 62
     7
100
AcDbText
 10
22.189717
 20
13.229417
 30
0.0
 40
0.09
  1
und darf nicht ohne Genehmigung
  7
Vcadd_SIMP
100
AcDbText
  0
TEXT
  5
275
100
AcDbEntity
  8
0
370
    15
390
0
  6
Continuous
 62
     7
100
AcDbText
 10
22.189717
 20
13.094417
 30
0.0
 40
0.09
  1
vervielfδltigt oder an Dritte wei-
  7
Vcadd_SIMP
100
AcDbText
  0
TEXT
  5
276
100
AcDbEntity
  8
0
370
    15
390
0
  6
Continuous
 62
     7
100
AcDbText
 10
22.189717
 20
12.959417
 30
0.0
 40
0.09
  1
tergegeben werden. 
  7
Vcadd_SIMP
100
AcDbText
  0
TEXT
  5
277
100
AcDbEntity
  8
0
370
    15
390
0
  6
Continuous
 62
     7
100
AcDbText
 10
22.29787
 20
12.664998
 30
0.0
 40
0.09
  1
SUN HYDRAULICS CORPORATION
  7
Vcadd_SIMP
100
AcDbText
  0
TEXT
  5
278
100
AcDbEntity
  8
0
370
    15
390
0
  6
Continuous
 62
     7
100
AcDbText
 10
22.156024
 20
12.671872
 30
0.0
 40
0.085
  1
C
  7
Vcadd_SIMP
100
AcDbText
  0
TEXT
  5
279
100
AcDbEntity
  8
4
370
    15
390
0
  6
Continuous
 62
     7
100
AcDbText
 10
25.363471
 20
13.332161
 30
0.0
 40
0.133
  1
Name in Bohrtabelle: SUN STD T-16A CAVITY
  7
Vcadd_SIMP
100
AcDbText
  0
TEXT
  5
27A
100
AcDbEntity
  8
4
370
    15
390
0
  6
Continuous
 62
     7
100
AcDbText
 10
25.363471
 20
13.132661
 30
0.0
 40
0.133
  1
Code in Bohrtabelle: T16A
  7
Vcadd_SIMP
100
AcDbText
  0
TEXT
  5
27B
100
AcDbEntity
  8
4
370
    15
390
0
  6
Continuous
 62
     7
100
AcDbText
 10
25.328505
 20
14.438609
 30
0.0
 40
0.133
  1
44,45
  7
Vcadd_SIMP
100
AcDbText
  0
TEXT
  5
27C
100
AcDbEntity
  8
4
370
    15
390
0
  6
Continuous
 62
     7
100
AcDbText
 10
25.328505
 20
14.239109
 30
0.0
 40
0.133
  1
26,19
  7
Vcadd_SIMP
100
AcDbText
  0
TEXT
  5
27D
100
AcDbEntity
  8
4
370
    15
390
0
  6
Continuous
 62
     7
100
AcDbText
 10
25.328505
 20
14.039609
 30
0.0
 40
0.133
  1
45,24
  7
Vcadd_SIMP
100
AcDbText
  0
TEXT
  5
27E
100
AcDbEntity
  8
4
370
    15
390
0
  6
Continuous
 62
     7
100
AcDbText
 10
25.89275
 20
14.441155
 30
0.0
 40
0.133
  1
Freiraum fόr Sechskantnuss
  7
Vcadd_SIMP
100
AcDbText
  0
TEXT
  5
27F
100
AcDbEntity
  8
4
370
    15
390
0
  6
Continuous
 62
     7
100
AcDbText
 10
25.89275
 20
14.241655
 30
0.0
 40
0.133
  1
Min. Abstand von der Mittellinie bis zur End-
  7
Vcadd_SIMP
100
AcDbText
  0
TEXT
  5
280
100
AcDbEntity
  8
4
370
    15
390
0
  6
Continuous
 62
     7
100
AcDbText
 10
25.89275
 20
14.042155
 30
0.0
 40
0.133
  1
kante des Ventilkφrpers
  7
Vcadd_SIMP
100
AcDbText
  0
TEXT
  5
281
100
AcDbEntity
  8
4
370
    15
390
0
  6
Continuous
 62
     7
100
AcDbText
 10
25.89275
 20
13.842655
 30
0.0
 40
0.133
  1
Min. Abstand von der Mittellinie bis zur Mittel-
  7
Vcadd_SIMP
100
AcDbText
  0
TEXT
  5
282
100
AcDbEntity
  8
4
370
    15
390
0
  6
Continuous
 62
     7
100
AcDbText
 10
25.89275
 20
13.643155
 30
0.0
 40
0.133
  1
linie bei gleicher Einschraubbohrung
  7
Vcadd_SIMP
100
AcDbText
  0
TEXT
  5
283
100
AcDbEntity
  8
4
370
    15
390
0
  6
Continuous
 62
     7
100
AcDbText
 10
27.348119
 20
15.614342
 30
0.0
 40
0.15
  1
Gewinde und alle
  7
Vcadd_SIMP
100
AcDbText
  0
TEXT
  5
284
100
AcDbEntity
  8
4
370
    15
390
0
  6
Continuous
 62
     7
100
AcDbText
 10
27.348119
 20
15.419342
 30
0.0
 40
0.15
  1
Durchmesser
  7
Vcadd_SIMP
100
AcDbText
  0
TEXT
  5
285
100
AcDbEntity
  8
0
370
    15
390
0
  6
Continuous
 62
     7
100
AcDbText
 10
29.554059
 20
13.015071
 30
0.0
 40
0.13
  1
T-16A Metrisch
 50
270.0
  7
Vcadd_SIMP
 72
     1
 11
30.245825
 21
13.015071
 31
0.0
100
AcDbText
  0
TEXT
  5
286
100
AcDbEntity
  8
0
370
    15
390
0
  6
Continuous
 62
     7
100
AcDbText
 10
29.430707
 20
13.015071
 30
0.0
 40
0.13
  1
Blatt 3 von 3
 50
270.0
  7
Vcadd_SIMP
 72
     1
 11
30.076825
 21
13.015071
 31
0.0
100
AcDbText
  0
TEXT
  5
287
100
AcDbEntity
  8
4
370
    15
390
0
  6
Continuous
 62
     7
100
AcDbText
 10
25.306837
 20
17.730165
 30
0.0
 40
0.13
  1
Anschluss #1
  7
Vcadd_SIMP
100
AcDbText
  0
TEXT
  5
288
100
AcDbEntity
  8
4
370
    15
390
0
  6
Continuous
 62
     7
100
AcDbText
 10
28.257438
 20
18.663682
 30
0.0
 40
0.142
  1
72,1
  7
Vcadd_SIMP
100
AcDbText
  0
TEXT
  5
289
100
AcDbEntity
  8
4
370
    15
390
0
  6
Continuous
 62
     7
100
AcDbText
 10
28.445122
 20
19.261054
 30
0.0
 40
0.12
  1
Abstόtzung
  7
Vcadd_SIMP
100
AcDbText
  0
TEXT
  5
28A
100
AcDbEntity
  8
4
370
    15
390
0
  6
Continuous
 62
     7
100
AcDbText
 10
28.445122
 20
19.081054
 30
0.0
 40
0.12
  1
(fόr Ventilbuchse)
  7
Vcadd_SIMP
100
AcDbText
  0
TEXT
  5
28B
100
AcDbEntity
  8
4
370
    15
390
0
  6
Continuous
 62
     7
100
AcDbText
 10
28.360927
 20
21.832544
 30
0.0
 40
0.12
  1
LS-Anschlag
  7
Vcadd_SIMP
 72
     1
 11
28.886741
 21
21.832544
 31
0.0
100
AcDbText
  0
TEXT
  5
28C
100
AcDbEntity
  8
4
370
    15
390
0
  6
Continuous
 62
     7
100
AcDbText
 10
28.170182
 20
21.652544
 30
0.0
 40
0.12
  1
(Maίbezugskante)
  7
Vcadd_SIMP
 72
     1
 11
28.886741
 21
21.652544
 31
0.0
100
AcDbText
  0
TEXT
  5
28D
100
AcDbEntity
  8
4
370
    15
390
0
  6
Continuous
 62
     7
100
AcDbText
 10
28.005437
 20
22.793316
 30
0.0
 40
0.12
  1
Min. Abstand des
  7
Vcadd_SIMP
100
AcDbText
  0
TEXT
  5
28E
100
AcDbEntity
  8
4
370
    15
390
0
  6
Continuous
 62
     7
100
AcDbText
 10
28.005437
 20
22.613316
 30
0.0
 40
0.12
  1
Sechskant
  7
Vcadd_SIMP
100
AcDbText
  0
LINE
  5
28F
100
AcDbEntity
  8
3
370
    15
390
0
  6
Continuous
 62
     1
100
AcDbLine
 10
29.413558
 20
22.755732
 30
0.0
 11
26.604098
 21
22.755732
 31
0.0
  0
LINE
  5
290
100
AcDbEntity
  8
4
370
    15
390
0
  6
Continuous
 62
     1
100
AcDbLine
 10
29.413558
 20
22.755732
 30
0.0
 11
29.32039
 21
22.929691
 31
0.0
  0
LINE
  5
291
100
AcDbEntity
  8
3
370
    15
390
0
  6
Continuous
 62
     1
100
AcDbLine
 10
29.569891
 20
22.929691
 30
0.0
 11
29.32039
 21
22.929691
 31
0.0
  0
TEXT
  5
292
100
AcDbEntity
  8
4
370
    15
390
0
  6
Continuous
 62
     7
100
AcDbText
 10
28.061557
 20
24.088742
 30
0.0
 40
0.12
  1
0,80
  7
Vcadd_SIMP
100
AcDbText
  0
TEXT
  5
293
100
AcDbEntity
  8
4
370
    15
390
0
  6
Continuous
 62
     7
100
AcDbText
 10
28.649506
 20
24.091177
 30
0.0
 40
0.12
  1
Empf. min. Abstand
  7
Vcadd_SIMP
100
AcDbText
  0
TEXT
  5
294
100
AcDbEntity
  8
4
370
    15
390
0
  6
Continuous
 62
     7
100
AcDbText
 10
28.649506
 20
23.911177
 30
0.0
 40
0.12
  1
von Oberflδche
  7
Vcadd_SIMP
100
AcDbText
  0
TEXT
  5
295
100
AcDbEntity
  8
4
370
    15
390
0
  6
Continuous
 62
     7
100
AcDbText
 10
28.649506
 20
23.731177
 30
0.0
 40
0.12
  1
(gefrδίt)
  7
Vcadd_SIMP
100
AcDbText
  0
TEXT
  5
296
100
AcDbEntity
  8
4
370
    15
390
0
  6
Continuous
 62
     7
100
AcDbText
 10
28.081801
 20
23.477547
 30
0.0
 40
0.12
  1
1,60
  7
Vcadd_SIMP
100
AcDbText
  0
TEXT
  5
297
100
AcDbEntity
  8
4
370
    15
390
0
  6
Continuous
 62
     7
100
AcDbText
 10
28.645591
 20
23.484172
 30
0.0
 40
0.12
  1
Empf. min. Abstand
  7
Vcadd_SIMP
100
AcDbText
  0
TEXT
  5
298
100
AcDbEntity
  8
4
370
    15
390
0
  6
Continuous
 62
     7
100
AcDbText
 10
28.645591
 20
23.304172
 30
0.0
 40
0.12
  1
von Oberflδche
  7
Vcadd_SIMP
100
AcDbText
  0
TEXT
  5
299
100
AcDbEntity
  8
4
370
    15
390
0
  6
Continuous
 62
     7
100
AcDbText
 10
28.645591
 20
23.124172
 30
0.0
 40
0.12
  1
(ungefrδίt)
  7
Vcadd_SIMP
100
AcDbText
  0
LINE
  5
29A
100
AcDbEntity
  8
4
370
    15
390
0
  6
Continuous
 62
     1
100
AcDbLine
 10
27.997373
 20
24.142207
 30
0.0
 11
27.822209
 21
24.142207
 31
0.0
  0
LINE
  5
29B
100
AcDbEntity
  8
4
370
    15
390
0
  6
Continuous
 62
     1
100
AcDbLine
 10
27.998775
 20
23.527903
 30
0.0
 11
27.82361
 21
23.527903
 31
0.0
  0
LINE
  5
29C
100
AcDbEntity
  8
3
370
    15
390
0
  6
Continuous
 62
     1
100
AcDbLine
 10
27.822209
 20
24.141459
 30
0.0
 11
27.822209
 21
21.817736
 31
0.0
  0
TEXT
  5
29D
100
AcDbEntity
  8
4
370
    15
390
0
  6
Continuous
 62
     7
100
AcDbText
 10
23.578322
 20
27.154124
 30
0.0
 40
0.14
  1
T-
  7
Vcadd_SIMP
100
AcDbText
  0
TEXT
  5
29E
100
AcDbEntity
  8
4
370
    15
390
0
  6
Continuous
 62
     7
100
AcDbText
 10
23.829173
 20
27.151416
 30
0.0
 40
0.14
  1
16A
  7
Vcadd_SIMP
100
AcDbText
  0
TEXT
  5
29F
100
AcDbEntity
  8
4
370
    15
390
0
  6
Continuous
 62
     7
100
AcDbText
 10
24.350853
 20
27.154124
 30
0.0
 40
0.14
  1
Einschraubventilbohrung
  7
Vcadd_SIMP
100
AcDbText
  0
TEXT
  5
2A0
100
AcDbEntity
  8
4
370
    15
390
0
  6
Continuous
 62
     7
100
AcDbText
 10
23.253675
 20
26.64273
 30
0.0
 40
0.14
  1
M
  7
Vcadd_SIMP
100
AcDbText
  0
TEXT
  5
2A1
100
AcDbEntity
  8
4
370
    15
390
0
  6
Continuous
 62
     7
100
AcDbText
 10
23.418209
 20
26.64273
 30
0.0
 40
0.14
  1
36
  7
Vcadd_SIMP
100
AcDbText
  0
TEXT
  5
2A2
100
AcDbEntity
  8
4
370
    15
390
0
  6
Continuous
 62
     7
100
AcDbText
 10
23.697142
 20
26.64273
 30
0.0
 40
0.14
  1
x
  7
Vcadd_SIMP
100
AcDbText
  0
TEXT
  5
2A3
100
AcDbEntity
  8
4
370
    15
390
0
  6
Continuous
 62
     7
100
AcDbText
 10
23.911808
 20
26.64273
 30
0.0
 40
0.14
  1
2.0
  7
Vcadd_SIMP
100
AcDbText
  0
TEXT
  5
2A4
100
AcDbEntity
  8
4
370
    15
390
0
  6
Continuous
 62
     7
100
AcDbText
 10
24.379967
 20
26.64273
 30
0.0
 40
0.14
  1
-6H ISO (Metrisch) Gewinde
  7
Vcadd_SIMP
100
AcDbText
  0
TEXT
  5
2A5
100
AcDbEntity
  8
4
370
    15
390
0
  6
Continuous
 62
     7
100
AcDbText
 10
23.79411
 20
26.36532
 30
0.0
 40
0.14
  1
34,70/34,92 PITCH DIA.
  7
Vcadd_SIMP
 72
     1
 11
25.56511
 21
26.36532
 31
0.0
100
AcDbText
  0
LINE
  5
2A6
100
AcDbEntity
  8
3
370
    15
390
0
  6
Continuous
 62
     1
100
AcDbLine
 10
23.619979
 20
27.125777
 30
0.0
 11
27.561891
 21
27.125777
 31
0.0
  0
TEXT
  5
2A7
100
AcDbEntity
  8
4
370
    15
390
0
  6
Continuous
 62
     7
100
AcDbText
 10
23.35709
 20
26.88566
 30
0.0
 40
0.14
  1
(alle Abmessungen in Millimeter)
  7
Vcadd_SIMP
100
AcDbText
  0
TEXT
  5
2A8
100
AcDbEntity
  8
4
370
    15
390
0
  6
Continuous
 62
     7
100
AcDbText
 10
22.578279
 20
21.137747
 30
0.0
 40
0.12
  1
Min. Abstand fόr Bereich mit
  7
Vcadd_SIMP
100
AcDbText
  0
TEXT
  5
2A9
100
AcDbEntity
  8
4
370
    15
390
0
  6
Continuous
 62
     7
100
AcDbText
 10
22.578279
 20
20.957747
 30
0.0
 40
0.12
  1
vollstδndigen Gewindegδngen
  7
Vcadd_SIMP
100
AcDbText
  0
TEXT
  5
2AA
100
AcDbEntity
  8
4
370
    15
390
0
  6
Continuous
 62
     7
100
AcDbText
 10
21.825109
 20
21.039469
 30
0.0
 40
0.142
  1
17,48
  7
Vcadd_SIMP
100
AcDbText
  0
TEXT
  5
2AB
100
AcDbEntity
  8
4
370
    15
390
0
  6
Continuous
 62
     7
100
AcDbText
 10
21.97133
 20
21.248183
 30
0.0
 40
0.142
  1
4,78
  7
Vcadd_SIMP
100
AcDbText
  0
LINE
  5
2AC
100
AcDbEntity
  8
3
370
    15
390
0
  6
Continuous
 62
     1
100
AcDbLine
 10
24.690535
 20
21.301115
 30
0.0
 11
22.555517
 21
21.301115
 31
0.0
  0
LINE
  5
2AD
100
AcDbEntity
  8
3
370
    15
390
0
  6
Continuous
 62
     1
100
AcDbLine
 10
25.088179
 20
21.098734
 30
0.0
 11
22.555517
 21
21.098734
 31
0.0
  0
TEXT
  5
2AE
100
AcDbEntity
  8
0
370
    15
390
0
  6
Continuous
 62
     7
100
AcDbText
 10
20.896741
 20
13.0659
 30
0.0
 40
0.13
  1
T-16A Metrisch
 50
270.0
  7
Vcadd_SIMP
 72
     1
 11
21.588507
 21
13.0659
 31
0.0
100
AcDbText
  0
TEXT
  5
2AF
100
AcDbEntity
  8
0
370
    15
390
0
  6
Continuous
 62
     7
100
AcDbText
 10
20.773389
 20
13.0659
 30
0.0
 40
0.13
  1
Blatt 3 von 3
 50
270.0
  7
Vcadd_SIMP
 72
     1
 11
21.419507
 21
13.0659
 31
0.0
100
AcDbText
  0
TEXT
  5
2B0
100
AcDbEntity
  8
4
370
    15
390
0
  6
Continuous
 62
     7
100
AcDbText
 10
21.398267
 20
17.830079
 30
0.0
 40
0.13
  1
Abmessungen,Werkzeuge,Anschlόsse
 50
270.0
  7
Vcadd_SIMP
100
AcDbText
  0
TEXT
  5
2B1
100
AcDbEntity
  8
4
370
    15
390
0
  6
Continuous
 62
     7
100
AcDbText
 10
21.591111
 20
17.217325
 30
0.0
 40
0.13
  1
T-16A Einschraubbohrung
 50
270.0
  7
Vcadd_SIMP
100
AcDbText
  0
CIRCLE
  5
2B2
100
AcDbEntity
  8
0
370
    15
390
0
  6
Continuous
 62
     7
100
AcDbCircle
 10
21.121854
 20
12.477305
 30
0.0
 40
0.054385
  0
CIRCLE
  5
2B3
100
AcDbEntity
  8
0
370
    15
390
0
  6
Continuous
 62
     2
100
AcDbCircle
 10
20.943613
 20
14.273024
 30
0.0
 40
0.312
  0
LINE
  5
2B4
100
AcDbEntity
  8
0
370
    15
390
0
  6
Continuous
 62
     7
100
AcDbLine
 10
21.008619
 20
14.39081
 30
0.0
 11
21.063085
 21
14.39081
 31
0.0
  0
LINE
  5
2B5
100
AcDbEntity
  8
0
370
    15
390
0
  6
Continuous
 62
     7
100
AcDbLine
 10
21.008619
 20
14.483961
 30
0.0
 11
21.008619
 21
14.39081
 31
0.0
  0
LINE
  5
2B6
100
AcDbEntity
  8
0
370
    15
390
0
  6
Continuous
 62
     7
100
AcDbLine
 10
20.971113
 20
14.483961
 30
0.0
 11
21.008619
 21
14.483961
 31
0.0
  0
LINE
  5
2B7
100
AcDbEntity
  8
0
370
    15
390
0
  6
Continuous
 62
     7
100
AcDbLine
 10
20.971113
 20
14.39081
 30
0.0
 11
20.971113
 21
14.483961
 31
0.0
  0
LINE
  5
2B8
100
AcDbEntity
  8
0
370
    15
390
0
  6
Continuous
 62
     7
100
AcDbLine
 10
20.824136
 20
14.39081
 30
0.0
 11
20.971113
 21
14.39081
 31
0.0
  0
LINE
  5
2B9
100
AcDbEntity
  8
0
370
    15
390
0
  6
Continuous
 62
     7
100
AcDbLine
 10
20.824136
 20
14.538962
 30
0.0
 11
20.824136
 21
14.39081
 31
0.0
  0
LINE
  5
2BA
100
AcDbEntity
  8
0
370
    15
390
0
  6
Continuous
 62
     7
100
AcDbLine
 10
20.879178
 20
14.538962
 30
0.0
 11
20.824136
 21
14.538962
 31
0.0
  0
LINE
  5
2BB
100
AcDbEntity
  8
0
370
    15
390
0
  6
Continuous
 62
     7
100
AcDbLine
 10
20.879178
 20
14.445811
 30
0.0
 11
20.879178
 21
14.538962
 31
0.0
  0
LINE
  5
2BC
100
AcDbEntity
  8
0
370
    15
390
0
  6
Continuous
 62
     7
100
AcDbLine
 10
20.915729
 20
14.445811
 30
0.0
 11
20.879178
 21
14.445811
 31
0.0
  0
LINE
  5
2BD
100
AcDbEntity
  8
0
370
    15
390
0
  6
Continuous
 62
     7
100
AcDbLine
 10
20.915729
 20
14.538962
 30
0.0
 11
20.915729
 21
14.445811
 31
0.0
  0
LINE
  5
2BE
100
AcDbEntity
  8
0
370
    15
390
0
  6
Continuous
 62
     7
100
AcDbLine
 10
21.063085
 20
14.538962
 30
0.0
 11
20.915729
 21
14.538962
 31
0.0
  0
LINE
  5
2BF
100
AcDbEntity
  8
0
370
    15
390
0
  6
Continuous
 62
     7
100
AcDbLine
 10
21.063085
 20
14.538962
 30
0.0
 11
21.063085
 21
14.39081
 31
0.0
  0
LINE
  5
2C0
100
AcDbEntity
  8
0
370
    15
390
0
  6
Continuous
 62
     7
100
AcDbLine
 10
21.063085
 20
14.19895
 30
0.0
 11
21.063085
 21
14.254656
 31
0.0
  0
LINE
  5
2C1
100
AcDbEntity
  8
0
370
    15
390
0
  6
Continuous
 62
     7
100
AcDbLine
 10
20.824136
 20
14.19895
 30
0.0
 11
21.063085
 21
14.19895
 31
0.0
  0
LINE
  5
2C2
100
AcDbEntity
  8
0
370
    15
390
0
  6
Continuous
 62
     7
100
AcDbLine
 10
20.824136
 20
14.347102
 30
0.0
 11
20.824136
 21
14.19895
 31
0.0
  0
LINE
  5
2C3
100
AcDbEntity
  8
0
370
    15
390
0
  6
Continuous
 62
     7
100
AcDbLine
 10
21.063085
 20
14.347102
 30
0.0
 11
20.824136
 21
14.347102
 31
0.0
  0
LINE
  5
2C4
100
AcDbEntity
  8
0
370
    15
390
0
  6
Continuous
 62
     7
100
AcDbLine
 10
21.063085
 20
14.292181
 30
0.0
 11
21.063085
 21
14.347102
 31
0.0
  0
LINE
  5
2C5
100
AcDbEntity
  8
0
370
    15
390
0
  6
Continuous
 62
     7
100
AcDbLine
 10
20.879137
 20
14.292181
 30
0.0
 11
21.063085
 21
14.292181
 31
0.0
  0
LINE
  5
2C6
100
AcDbEntity
  8
0
370
    15
390
0
  6
Continuous
 62
     7
100
AcDbLine
 10
20.879137
 20
14.254656
 30
0.0
 11
20.879137
 21
14.292181
 31
0.0
  0
LINE
  5
2C7
100
AcDbEntity
  8
0
370
    15
390
0
  6
Continuous
 62
     7
100
AcDbLine
 10
20.879137
 20
14.254656
 30
0.0
 11
21.063085
 21
14.254656
 31
0.0
  0
LINE
  5
2C8
100
AcDbEntity
  8
0
370
    15
390
0
  6
Continuous
 62
     7
100
AcDbLine
 10
20.824136
 20
14.097372
 30
0.0
 11
20.824136
 21
14.153078
 31
0.0
  0
LINE
  5
2C9
100
AcDbEntity
  8
0
370
    15
390
0
  6
Continuous
 62
     7
100
AcDbLine
 10
21.008085
 20
14.097372
 30
0.0
 11
20.824136
 21
14.097372
 31
0.0
  0
LINE
  5
2CA
100
AcDbEntity
  8
0
370
    15
390
0
  6
Continuous
 62
     7
100
AcDbLine
 10
21.008085
 20
14.059847
 30
0.0
 11
21.008085
 21
14.097372
 31
0.0
  0
LINE
  5
2CB
100
AcDbEntity
  8
0
370
    15
390
0
  6
Continuous
 62
     7
100
AcDbLine
 10
20.824136
 20
14.059847
 30
0.0
 11
21.008085
 21
14.059847
 31
0.0
  0
LINE
  5
2CC
100
AcDbEntity
  8
0
370
    15
390
0
  6
Continuous
 62
     7
100
AcDbLine
 10
20.824136
 20
14.004927
 30
0.0
 11
20.824136
 21
14.059847
 31
0.0
  0
LINE
  5
2CD
100
AcDbEntity
  8
0
370
    15
390
0
  6
Continuous
 62
     7
100
AcDbLine
 10
21.063085
 20
14.004927
 30
0.0
 11
20.824136
 21
14.004927
 31
0.0
  0
LINE
  5
2CE
100
AcDbEntity
  8
0
370
    15
390
0
  6
Continuous
 62
     7
100
AcDbLine
 10
21.063085
 20
14.153078
 30
0.0
 11
21.063085
 21
14.004927
 31
0.0
  0
LINE
  5
2CF
100
AcDbEntity
  8
0
370
    15
390
0
  6
Continuous
 62
     7
100
AcDbLine
 10
21.063085
 20
14.153078
 30
0.0
 11
20.824136
 21
14.153078
 31
0.0
  0
LINE
  5
2D0
100
AcDbEntity
  8
0
370
    15
390
0
  6
Continuous
 62
     7
100
AcDbLine
 10
21.039611
 20
13.788767
 30
0.0
 11
21.106294
 21
13.788767
 31
0.0
  0
LINE
  5
2D1
100
AcDbEntity
  8
0
370
    15
390
0
  6
Continuous
 62
     7
100
AcDbLine
 10
21.039611
 20
13.708407
 30
0.0
 11
21.039611
 21
13.788767
 31
0.0
  0
LINE
  5
2D2
100
AcDbEntity
  8
0
370
    15
390
0
  6
Continuous
 62
     7
100
AcDbLine
 10
20.84361
 20
13.708407
 30
0.0
 11
21.039611
 21
13.708407
 31
0.0
  0
LINE
  5
2D3
100
AcDbEntity
  8
0
370
    15
390
0
  6
Continuous
 62
     7
100
AcDbLine
 10
20.84361
 20
13.748587
 30
0.0
 11
20.84361
 21
13.708407
 31
0.0
  0
LINE
  5
2D4
100
AcDbEntity
  8
0
370
    15
390
0
  6
Continuous
 62
     7
100
AcDbLine
 10
20.999431
 20
13.748587
 30
0.0
 11
20.84361
 21
13.748587
 31
0.0
  0
LINE
  5
2D5
100
AcDbEntity
  8
0
370
    15
390
0
  6
Continuous
 62
     7
100
AcDbLine
 10
20.999431
 20
13.788767
 30
0.0
 11
20.999431
 21
13.748587
 31
0.0
  0
LINE
  5
2D6
100
AcDbEntity
  8
0
370
    15
390
0
  6
Continuous
 62
     7
100
AcDbLine
 10
20.84361
 20
13.788767
 30
0.0
 11
20.999431
 21
13.788767
 31
0.0
  0
LINE
  5
2D7
100
AcDbEntity
  8
0
370
    15
390
0
  6
Continuous
 62
     7
100
AcDbLine
 10
20.84361
 20
13.828947
 30
0.0
 11
20.84361
 21
13.788767
 31
0.0
  0
LINE
  5
2D8
100
AcDbEntity
  8
0
370
    15
390
0
  6
Continuous
 62
     7
100
AcDbLine
 10
21.106294
 20
13.828947
 30
0.0
 11
20.84361
 21
13.828947
 31
0.0
  0
LINE
  5
2D9
100
AcDbEntity
  8
0
370
    15
390
0
  6
Continuous
 62
     7
100
AcDbLine
 10
21.106294
 20
13.828947
 30
0.0
 11
21.106294
 21
13.788767
 31
0.0
  0
LINE
  5
2DA
100
AcDbEntity
  8
0
370
    15
390
0
  6
Continuous
 62
     7
100
AcDbLine
 10
20.88379
 20
13.628046
 30
0.0
 11
21.039611
 21
13.628046
 31
0.0
  0
LINE
  5
2DB
100
AcDbEntity
  8
0
370
    15
390
0
  6
Continuous
 62
     7
100
AcDbLine
 10
20.88379
 20
13.587866
 30
0.0
 11
20.88379
 21
13.628046
 31
0.0
  0
LINE
  5
2DC
100
AcDbEntity
  8
0
370
    15
390
0
  6
Continuous
 62
     7
100
AcDbLine
 10
21.039611
 20
13.587866
 30
0.0
 11
20.88379
 21
13.587866
 31
0.0
  0
LINE
  5
2DD
100
AcDbEntity
  8
0
370
    15
390
0
  6
Continuous
 62
     7
100
AcDbLine
 10
21.039611
 20
13.547686
 30
0.0
 11
21.039611
 21
13.587866
 31
0.0
  0
LINE
  5
2DE
100
AcDbEntity
  8
0
370
    15
390
0
  6
Continuous
 62
     7
100
AcDbLine
 10
20.763952
 20
13.547686
 30
0.0
 11
21.039611
 21
13.547686
 31
0.0
  0
LINE
  5
2DF
100
AcDbEntity
  8
0
370
    15
390
0
  6
Continuous
 62
     7
100
AcDbLine
 10
20.76325
 20
13.625605
 30
0.0
 11
20.763952
 21
13.547686
 31
0.0
  0
LINE
  5
2E0
100
AcDbEntity
  8
0
370
    15
390
0
  6
Continuous
 62
     7
100
AcDbLine
 10
20.80343
 20
13.625605
 30
0.0
 11
20.76325
 21
13.625605
 31
0.0
  0
LINE
  5
2E1
100
AcDbEntity
  8
0
370
    15
390
0
  6
Continuous
 62
     7
100
AcDbLine
 10
20.80343
 20
13.587866
 30
0.0
 11
20.80343
 21
13.625605
 31
0.0
  0
LINE
  5
2E2
100
AcDbEntity
  8
0
370
    15
390
0
  6
Continuous
 62
     7
100
AcDbLine
 10
20.84361
 20
13.587866
 30
0.0
 11
20.80343
 21
13.587866
 31
0.0
  0
LINE
  5
2E3
100
AcDbEntity
  8
0
370
    15
390
0
  6
Continuous
 62
     7
100
AcDbLine
 10
20.84361
 20
13.668227
 30
0.0
 11
20.84361
 21
13.587866
 31
0.0
  0
LINE
  5
2E4
100
AcDbEntity
  8
0
370
    15
390
0
  6
Continuous
 62
     7
100
AcDbLine
 10
21.039611
 20
13.668227
 30
0.0
 11
20.84361
 21
13.668227
 31
0.0
  0
LINE
  5
2E5
100
AcDbEntity
  8
0
370
    15
390
0
  6
Continuous
 62
     7
100
AcDbLine
 10
21.039611
 20
13.668227
 30
0.0
 11
21.039611
 21
13.628046
 31
0.0
  0
LINE
  5
2E6
100
AcDbEntity
  8
0
370
    15
390
0
  6
Continuous
 62
     7
100
AcDbLine
 10
21.106294
 20
13.425631
 30
0.0
 11
21.039611
 21
13.425631
 31
0.0
  0
LINE
  5
2E7
100
AcDbEntity
  8
0
370
    15
390
0
  6
Continuous
 62
     7
100
AcDbLine
 10
21.106294
 20
13.385447
 30
0.0
 11
21.106294
 21
13.425631
 31
0.0
  0
LINE
  5
2E8
100
AcDbEntity
  8
0
370
    15
390
0
  6
Continuous
 62
     7
100
AcDbLine
 10
20.84361
 20
13.385447
 30
0.0
 11
21.106294
 21
13.385447
 31
0.0
  0
LINE
  5
2E9
100
AcDbEntity
  8
0
370
    15
390
0
  6
Continuous
 62
     7
100
AcDbLine
 10
20.84361
 20
13.505991
 30
0.0
 11
20.84361
 21
13.385447
 31
0.0
  0
LINE
  5
2EA
100
AcDbEntity
  8
0
370
    15
390
0
  6
Continuous
 62
     7
100
AcDbLine
 10
21.039611
 20
13.505991
 30
0.0
 11
20.84361
 21
13.505991
 31
0.0
  0
LINE
  5
2EB
100
AcDbEntity
  8
0
370
    15
390
0
  6
Continuous
 62
     7
100
AcDbLine
 10
21.039611
 20
13.505991
 30
0.0
 11
21.039611
 21
13.425631
 31
0.0
  0
LINE
  5
2EC
100
AcDbEntity
  8
0
370
    15
390
0
  6
Continuous
 62
     7
100
AcDbLine
 10
20.999431
 20
13.425631
 30
0.0
 11
20.88379
 21
13.425631
 31
0.0
  0
LINE
  5
2ED
100
AcDbEntity
  8
0
370
    15
390
0
  6
Continuous
 62
     7
100
AcDbLine
 10
20.88379
 20
13.465807
 30
0.0
 11
20.88379
 21
13.425631
 31
0.0
  0
LINE
  5
2EE
100
AcDbEntity
  8
0
370
    15
390
0
  6
Continuous
 62
     7
100
AcDbLine
 10
20.999431
 20
13.465807
 30
0.0
 11
20.88379
 21
13.465807
 31
0.0
  0
LINE
  5
2EF
100
AcDbEntity
  8
0
370
    15
390
0
  6
Continuous
 62
     7
100
AcDbLine
 10
20.999431
 20
13.465807
 30
0.0
 11
20.999431
 21
13.425631
 31
0.0
  0
LINE
  5
2F0
100
AcDbEntity
  8
0
370
    15
390
0
  6
Continuous
 62
     7
100
AcDbLine
 10
20.999431
 20
13.26491
 30
0.0
 11
21.039611
 21
13.26491
 31
0.0
  0
LINE
  5
2F1
100
AcDbEntity
  8
0
370
    15
390
0
  6
Continuous
 62
     7
100
AcDbLine
 10
20.999431
 20
13.30509
 30
0.0
 11
20.999431
 21
13.26491
 31
0.0
  0
LINE
  5
2F2
100
AcDbEntity
  8
0
370
    15
390
0
  6
Continuous
 62
     7
100
AcDbLine
 10
20.84361
 20
13.30509
 30
0.0
 11
20.999431
 21
13.30509
 31
0.0
  0
LINE
  5
2F3
100
AcDbEntity
  8
0
370
    15
390
0
  6
Continuous
 62
     7
100
AcDbLine
 10
20.84361
 20
13.34527
 30
0.0
 11
20.84361
 21
13.30509
 31
0.0
  0
LINE
  5
2F4
100
AcDbEntity
  8
0
370
    15
390
0
  6
Continuous
 62
     7
100
AcDbLine
 10
21.039611
 20
13.34527
 30
0.0
 11
20.84361
 21
13.34527
 31
0.0
  0
LINE
  5
2F5
100
AcDbEntity
  8
0
370
    15
390
0
  6
Continuous
 62
     7
100
AcDbLine
 10
21.039611
 20
13.34527
 30
0.0
 11
21.039611
 21
13.26491
 31
0.0
  0
LINE
  5
2F6
100
AcDbEntity
  8
0
370
    15
390
0
  6
Continuous
 62
     7
100
AcDbLine
 10
20.88379
 20
13.023829
 30
0.0
 11
21.039611
 21
13.023829
 31
0.0
  0
LINE
  5
2F7
100
AcDbEntity
  8
0
370
    15
390
0
  6
Continuous
 62
     7
100
AcDbLine
 10
20.88379
 20
12.983649
 30
0.0
 11
20.88379
 21
13.023829
 31
0.0
  0
LINE
  5
2F8
100
AcDbEntity
  8
0
370
    15
390
0
  6
Continuous
 62
     7
100
AcDbLine
 10
21.039611
 20
12.983649
 30
0.0
 11
20.88379
 21
12.983649
 31
0.0
  0
LINE
  5
2F9
100
AcDbEntity
  8
0
370
    15
390
0
  6
Continuous
 62
     7
100
AcDbLine
 10
21.039611
 20
12.943468
 30
0.0
 11
21.039611
 21
12.983649
 31
0.0
  0
LINE
  5
2FA
100
AcDbEntity
  8
0
370
    15
390
0
  6
Continuous
 62
     7
100
AcDbLine
 10
20.84361
 20
12.943468
 30
0.0
 11
21.039611
 21
12.943468
 31
0.0
  0
LINE
  5
2FB
100
AcDbEntity
  8
0
370
    15
390
0
  6
Continuous
 62
     7
100
AcDbLine
 10
20.84361
 20
13.064009
 30
0.0
 11
20.84361
 21
12.943468
 31
0.0
  0
LINE
  5
2FC
100
AcDbEntity
  8
0
370
    15
390
0
  6
Continuous
 62
     7
100
AcDbLine
 10
21.039611
 20
13.064009
 30
0.0
 11
20.84361
 21
13.064009
 31
0.0
  0
LINE
  5
2FD
100
AcDbEntity
  8
0
370
    15
390
0
  6
Continuous
 62
     7
100
AcDbLine
 10
21.039611
 20
13.064009
 30
0.0
 11
21.039611
 21
13.023829
 31
0.0
  0
LINE
  5
2FE
100
AcDbEntity
  8
0
370
    15
390
0
  6
Continuous
 62
     7
100
AcDbLine
 10
20.84361
 20
12.863108
 30
0.0
 11
21.106294
 21
12.863108
 31
0.0
  0
LINE
  5
2FF
100
AcDbEntity
  8
0
370
    15
390
0
  6
Continuous
 62
     7
100
AcDbLine
 10
20.84361
 20
12.903288
 30
0.0
 11
20.84361
 21
12.863108
 31
0.0
  0
LINE
  5
300
100
AcDbEntity
  8
0
370
    15
390
0
  6
Continuous
 62
     7
100
AcDbLine
 10
21.106294
 20
12.903288
 30
0.0
 11
20.84361
 21
12.903288
 31
0.0
  0
LINE
  5
301
100
AcDbEntity
  8
0
370
    15
390
0
  6
Continuous
 62
     7
100
AcDbLine
 10
21.106294
 20
12.903288
 30
0.0
 11
21.106294
 21
12.863108
 31
0.0
  0
LINE
  5
302
100
AcDbEntity
  8
0
370
    15
390
0
  6
Continuous
 62
     7
100
AcDbLine
 10
21.066114
 20
12.782748
 30
0.0
 11
21.106294
 21
12.782748
 31
0.0
  0
LINE
  5
303
100
AcDbEntity
  8
0
370
    15
390
0
  6
Continuous
 62
     7
100
AcDbLine
 10
21.066114
 20
12.822928
 30
0.0
 11
21.066114
 21
12.782748
 31
0.0
  0
LINE
  5
304
100
AcDbEntity
  8
0
370
    15
390
0
  6
Continuous
 62
     7
100
AcDbLine
 10
21.106294
 20
12.822928
 30
0.0
 11
21.066114
 21
12.822928
 31
0.0
  0
LINE
  5
305
100
AcDbEntity
  8
0
370
    15
390
0
  6
Continuous
 62
     7
100
AcDbLine
 10
21.106294
 20
12.822928
 30
0.0
 11
21.106294
 21
12.782748
 31
0.0
  0
LINE
  5
306
100
AcDbEntity
  8
0
370
    15
390
0
  6
Continuous
 62
     7
100
AcDbLine
 10
20.84361
 20
12.782748
 30
0.0
 11
21.039611
 21
12.782748
 31
0.0
  0
LINE
  5
307
100
AcDbEntity
  8
0
370
    15
390
0
  6
Continuous
 62
     7
100
AcDbLine
 10
20.84361
 20
12.822928
 30
0.0
 11
20.84361
 21
12.782748
 31
0.0
  0
LINE
  5
308
100
AcDbEntity
  8
0
370
    15
390
0
  6
Continuous
 62
     7
100
AcDbLine
 10
21.039611
 20
12.822928
 30
0.0
 11
20.84361
 21
12.822928
 31
0.0
  0
LINE
  5
309
100
AcDbEntity
  8
0
370
    15
390
0
  6
Continuous
 62
     7
100
AcDbLine
 10
21.039611
 20
12.822928
 30
0.0
 11
21.039611
 21
12.782748
 31
0.0
  0
LINE
  5
30A
100
AcDbEntity
  8
0
370
    15
390
0
  6
Continuous
 62
     7
100
AcDbLine
 10
20.999431
 20
12.626826
 30
0.0
 11
21.039611
 21
12.626826
 31
0.0
  0
LINE
  5
30B
100
AcDbEntity
  8
0
370
    15
390
0
  6
Continuous
 62
     7
100
AcDbLine
 10
20.999431
 20
12.702387
 30
0.0
 11
20.999431
 21
12.626826
 31
0.0
  0
LINE
  5
30C
100
AcDbEntity
  8
0
370
    15
390
0
  6
Continuous
 62
     7
100
AcDbLine
 10
20.88379
 20
12.702387
 30
0.0
 11
20.999431
 21
12.702387
 31
0.0
  0
LINE
  5
30D
100
AcDbEntity
  8
0
370
    15
390
0
  6
Continuous
 62
     7
100
AcDbLine
 10
20.88379
 20
12.626826
 30
0.0
 11
20.88379
 21
12.702387
 31
0.0
  0
LINE
  5
30E
100
AcDbEntity
  8
0
370
    15
390
0
  6
Continuous
 62
     7
100
AcDbLine
 10
20.84361
 20
12.626826
 30
0.0
 11
20.88379
 21
12.626826
 31
0.0
  0
LINE
  5
30F
100
AcDbEntity
  8
0
370
    15
390
0
  6
Continuous
 62
     7
100
AcDbLine
 10
20.84361
 20
12.742567
 30
0.0
 11
20.84361
 21
12.626826
 31
0.0
  0
LINE
  5
310
100
AcDbEntity
  8
0
370
    15
390
0
  6
Continuous
 62
     7
100
AcDbLine
 10
21.039611
 20
12.742567
 30
0.0
 11
20.84361
 21
12.742567
 31
0.0
  0
LINE
  5
311
100
AcDbEntity
  8
0
370
    15
390
0
  6
Continuous
 62
     7
100
AcDbLine
 10
21.039611
 20
12.742567
 30
0.0
 11
21.039611
 21
12.626826
 31
0.0
  0
LINE
  5
312
100
AcDbEntity
  8
0
370
    15
390
0
  6
Continuous
 62
     7
100
AcDbLine
 10
20.999431
 20
12.459364
 30
0.0
 11
21.039611
 21
12.459364
 31
0.0
  0
LINE
  5
313
100
AcDbEntity
  8
0
370
    15
390
0
  6
Continuous
 62
     7
100
AcDbLine
 10
20.999431
 20
12.546465
 30
0.0
 11
20.999431
 21
12.459364
 31
0.0
  0
LINE
  5
314
100
AcDbEntity
  8
0
370
    15
390
0
  6
Continuous
 62
     7
100
AcDbLine
 10
20.961702
 20
12.546465
 30
0.0
 11
20.999431
 21
12.546465
 31
0.0
  0
LINE
  5
315
100
AcDbEntity
  8
0
370
    15
390
0
  6
Continuous
 62
     7
100
AcDbLine
 10
20.961702
 20
12.459364
 30
0.0
 11
20.961702
 21
12.546465
 31
0.0
  0
LINE
  5
316
100
AcDbEntity
  8
0
370
    15
390
0
  6
Continuous
 62
     7
100
AcDbLine
 10
20.84361
 20
12.459364
 30
0.0
 11
20.961702
 21
12.459364
 31
0.0
  0
LINE
  5
317
100
AcDbEntity
  8
0
370
    15
390
0
  6
Continuous
 62
     7
100
AcDbLine
 10
20.84361
 20
12.586645
 30
0.0
 11
20.84361
 21
12.459364
 31
0.0
  0
LINE
  5
318
100
AcDbEntity
  8
0
370
    15
390
0
  6
Continuous
 62
     7
100
AcDbLine
 10
20.88379
 20
12.586645
 30
0.0
 11
20.84361
 21
12.586645
 31
0.0
  0
LINE
  5
319
100
AcDbEntity
  8
0
370
    15
390
0
  6
Continuous
 62
     7
100
AcDbLine
 10
20.88379
 20
12.499544
 30
0.0
 11
20.88379
 21
12.586645
 31
0.0
  0
LINE
  5
31A
100
AcDbEntity
  8
0
370
    15
390
0
  6
Continuous
 62
     7
100
AcDbLine
 10
20.921522
 20
12.499544
 30
0.0
 11
20.88379
 21
12.499544
 31
0.0
  0
LINE
  5
31B
100
AcDbEntity
  8
0
370
    15
390
0
  6
Continuous
 62
     7
100
AcDbLine
 10
20.921522
 20
12.586645
 30
0.0
 11
20.921522
 21
12.499544
 31
0.0
  0
LINE
  5
31C
100
AcDbEntity
  8
0
370
    15
390
0
  6
Continuous
 62
     7
100
AcDbLine
 10
21.039611
 20
12.586645
 30
0.0
 11
20.921522
 21
12.586645
 31
0.0
  0
LINE
  5
31D
100
AcDbEntity
  8
0
370
    15
390
0
  6
Continuous
 62
     7
100
AcDbLine
 10
21.039611
 20
12.586645
 30
0.0
 11
21.039611
 21
12.459364
 31
0.0
  0
LINE
  5
31E
100
AcDbEntity
  8
0
370
    15
390
0
  6
Continuous
 62
     7
100
AcDbLine
 10
20.84361
 20
13.104189
 30
0.0
 11
21.039611
 21
13.104189
 31
0.0
  0
LINE
  5
31F
100
AcDbEntity
  8
0
370
    15
390
0
  6
Continuous
 62
     7
100
AcDbLine
 10
20.84361
 20
13.22473
 30
0.0
 11
20.84361
 21
13.104189
 31
0.0
  0
LINE
  5
320
100
AcDbEntity
  8
0
370
    15
390
0
  6
Continuous
 62
     7
100
AcDbLine
 10
20.964151
 20
13.22473
 30
0.0
 11
20.84361
 21
13.22473
 31
0.0
  0
LINE
  5
321
100
AcDbEntity
  8
0
370
    15
390
0
  6
Continuous
 62
     7
100
AcDbLine
 10
20.964151
 20
13.144369
 30
0.0
 11
20.964151
 21
13.22473
 31
0.0
  0
LINE
  5
322
100
AcDbEntity
  8
0
370
    15
390
0
  6
Continuous
 62
     7
100
AcDbLine
 10
20.999431
 20
13.144369
 30
0.0
 11
20.964151
 21
13.144369
 31
0.0
  0
LINE
  5
323
100
AcDbEntity
  8
0
370
    15
390
0
  6
Continuous
 62
     7
100
AcDbLine
 10
20.999431
 20
13.206953
 30
0.0
 11
20.999431
 21
13.144369
 31
0.0
  0
LINE
  5
324
100
AcDbEntity
  8
0
370
    15
390
0
  6
Continuous
 62
     7
100
AcDbLine
 10
21.039611
 20
13.206953
 30
0.0
 11
20.999431
 21
13.206953
 31
0.0
  0
LINE
  5
325
100
AcDbEntity
  8
0
370
    15
390
0
  6
Continuous
 62
     7
100
AcDbLine
 10
21.039611
 20
13.206953
 30
0.0
 11
21.039611
 21
13.104189
 31
0.0
  0
LINE
  5
326
100
AcDbEntity
  8
0
370
    15
390
0
  6
Continuous
 62
     7
100
AcDbLine
 10
20.88379
 20
13.144369
 30
0.0
 11
20.923971
 21
13.144369
 31
0.0
  0
LINE
  5
327
100
AcDbEntity
  8
0
370
    15
390
0
  6
Continuous
 62
     7
100
AcDbLine
 10
20.88379
 20
13.18455
 30
0.0
 11
20.88379
 21
13.144369
 31
0.0
  0
LINE
  5
328
100
AcDbEntity
  8
0
370
    15
390
0
  6
Continuous
 62
     7
100
AcDbLine
 10
20.923971
 20
13.18455
 30
0.0
 11
20.88379
 21
13.18455
 31
0.0
  0
LINE
  5
329
100
AcDbEntity
  8
0
370
    15
390
0
  6
Continuous
 62
     7
100
AcDbLine
 10
20.923971
 20
13.18455
 30
0.0
 11
20.923971
 21
13.144369
 31
0.0
  0
HATCH
  5
32A
100
AcDbEntity
  8
0
370
    15
390
0
  6
Continuous
 62
   174
100
AcDbHatch
 10
0.0
 20
0.0
 30
0.0
210
0.0
220
0.0
230
1.0
  2
SOLID
 70
     1
 71
     0
 91
        4
 92
        1
 93
        1
 72
     2
 10
20.943612535215451
 20
14.273023928750806
 40
0.3120002746582031
 50
0.0
 51
359.999994
 73
     1
 97
        0
 92
        1
 93
       12
 72
     1
 10
21.008618791318966
 20
14.390810336221509
 11
21.06308503887756
 21
14.390810336221509
 72
     1
 10
21.06308503887756
 20
14.390810336221509
 11
21.06308503887756
 21
14.538961733926588
 72
     1
 10
21.06308503887756
 20
14.538961733926588
 11
20.915729005552365
 21
14.538961733926588
 72
     1
 10
20.915729005552365
 20
14.538961733926588
 11
20.915729005552365
 21
14.445810641397291
 72
     1
 10
20.915729005552365
 20
14.445810641397291
 11
20.879178483701779
 21
14.445810641397291
 72
     1
 10
20.879178483701779
 20
14.445810641397291
 11
20.879178483701779
 21
14.538961733926588
 72
     1
 10
20.879178483701779
 20
14.538961733926588
 11
20.824136216856076
 21
14.538961733926588
 72
     1
 10
20.824136216856076
 20
14.538961733926588
 11
20.824136216856076
 21
14.390810336221509
 72
     1
 10
20.824136216856076
 20
14.390810336221509
 11
20.971112687803341
 21
14.390810336221509
 72
     1
 10
20.971112687803341
 20
14.390810336221509
 11
20.971112687803341
 21
14.483961428750806
 72
     1
 10
20.971112687803341
 20
14.483961428750806
 11
21.008618791318966
 21
14.483961428750806
 72
     1
 10
21.008618791318966
 20
14.483961428750806
 11
21.008618791318966
 21
14.390810336221509
 97
        0
 92
        1
 93
        8
 72
     1
 10
21.06308503887756
 20
14.1989501372469
 11
21.06308503887756
 21
14.254656161416822
 72
     1
 10
21.06308503887756
 20
14.254656161416822
 11
20.879136522031857
 21
14.254656161416822
 72
     1
 10
20.879136522031857
 20
14.254656161416822
 11
20.879136522031857
 21
14.292181338418775
 72
     1
 10
20.879136522031857
 20
14.292181338418775
 11
21.06308503887756
 21
14.292181338418775
 72
     1
 10
21.06308503887756
 20
14.292181338418775
 11
21.06308503887756
 21
14.347101534951978
 72
     1
 10
21.06308503887756
 20
14.347101534951978
 11
20.824136216856076
 21
14.347101534951978
 72
     1
 10
20.824136216856076
 20
14.347101534951978
 11
20.824136216856076
 21
14.1989501372469
 72
     1
 10
20.824136216856076
 20
14.1989501372469
 11
21.06308503887756
 21
14.1989501372469
 97
        0
 92
        1
 93
        8
 72
     1
 10
20.824136216856076
 20
14.097372378457838
 11
20.824136216856076
 21
14.153078402627759
 72
     1
 10
20.824136216856076
 20
14.153078402627759
 11
21.06308503887756
 21
14.153078402627759
 72
     1
 10
21.06308503887756
 20
14.153078402627759
 11
21.06308503887756
 21
14.004927004922681
 72
     1
 10
21.06308503887756
 20
14.004927004922681
 11
20.824136216856076
 21
14.004927004922681
 72
     1
 10
20.824136216856076
 20
14.004927004922681
 11
20.824136216856076
 21
14.059847201455884
 72
     1
 10
20.824136216856076
 20
14.059847201455884
 11
21.008084733701779
 21
14.059847201455884
 72
     1
 10
21.008084733701779
 20
14.059847201455884
 11
21.008084733701779
 21
14.097372378457838
 72
     1
 10
21.008084733701779
 20
14.097372378457838
 11
20.824136216856076
 21
14.097372378457838
 97
        0
 75
     0
 76
     1
 98
        1
 10
0.0
 20
0.0
  0
HATCH
  5
32B
100
AcDbEntity
  8
0
370
    15
390
0
  6
Continuous
 62
   174
100
AcDbHatch
 10
0.0
 20
0.0
 30
0.0
210
0.0
220
0.0
230
1.0
  2
SOLID
 70
     1
 71
     0
 91
        4
 92
        1
 93
       10
 72
     1
 10
21.039611299253536
 20
13.788767184366041
 11
21.106294114805294
 21
13.788767184366041
 72
     1
 10
21.106294114805294
 20
13.788767184366041
 11
21.106294114805294
 21
13.828947390664869
 72
     1
 10
21.106294114805294
 20
13.828947390664869
 11
20.843610246397091
 21
13.828947390664869
 72
     1
 10
20.843610246397091
 20
13.828947390664869
 11
20.843610246397091
 21
13.788767184366041
 72
     1
 10
20.843610246397091
 20
13.788767184366041
 11
20.999431092954708
 21
13.788767184366041
 72
     1
 10
20.999431092954708
 20
13.788767184366041
 11
20.999431092954708
 21
13.748586978067213
 72
     1
 10
20.999431092954708
 20
13.748586978067213
 11
20.843610246397091
 21
13.748586978067213
 72
     1
 10
20.843610246397091
 20
13.748586978067213
 11
20.843610246397091
 21
13.708406771768384
 72
     1
 10
20.843610246397091
 20
13.708406771768384
 11
21.039611299253536
 21
13.708406771768384
 72
     1
 10
21.039611299253536
 20
13.708406771768384
 11
21.039611299253536
 21
13.788767184366041
 97
        0
 92
        1
 93
       12
 72
     1
 10
20.883790452695919
 20
13.628046359170728
 11
21.039611299253536
 21
13.628046359170728
 72
     1
 10
21.039611299253536
 20
13.628046359170728
 11
21.039611299253536
 21
13.668226565469556
 72
     1
 10
21.039611299253536
 20
13.668226565469556
 11
20.843610246397091
 21
13.668226565469556
 72
     1
 10
20.843610246397091
 20
13.668226565469556
 11
20.843610246397091
 21
13.5878661528719
 72
     1
 10
20.843610246397091
 20
13.5878661528719
 11
20.803430040098263
 21
13.5878661528719
 72
     1
 10
20.803430040098263
 20
13.5878661528719
 11
20.803430040098263
 21
13.625604952920728
 72
     1
 10
20.803430040098263
 20
13.625604952920728
 11
20.763249833799435
 21
13.625604952920728
 72
     1
 10
20.763249833799435
 20
13.625604952920728
 11
20.76395173809631
 21
13.547685946573072
 72
     1
 10
20.76395173809631
 20
13.547685946573072
 11
21.039611299253536
 21
13.547685946573072
 72
     1
 10
21.039611299253536
 20
13.547685946573072
 11
21.039611299253536
 21
13.5878661528719
 72
     1
 10
21.039611299253536
 20
13.5878661528719
 11
20.883790452695919
 21
13.5878661528719
 72
     1
 10
20.883790452695919
 20
13.5878661528719
 11
20.883790452695919
 21
13.628046359170728
 97
        0
 92
        1
 93
        6
 72
     1
 10
21.106294114805294
 20
13.425630892862134
 11
21.039611299253536
 21
13.425630892862134
 72
     1
 10
21.039611299253536
 20
13.425630892862134
 11
21.039611299253536
 21
13.505991305459791
 72
     1
 10
21.039611299253536
 20
13.505991305459791
 11
20.843610246397091
 21
13.505991305459791
 72
     1
 10
20.843610246397091
 20
13.505991305459791
 11
20.843610246397091
 21
13.385446871866041
 72
     1
 10
20.843610246397091
 20
13.385446871866041
 11
21.106294114805294
 21
13.385446871866041
 72
     1
 10
21.106294114805294
 20
13.385446871866041
 11
21.106294114805294
 21
13.425630892862134
 97
        0
 92
        1
 93
        4
 72
     1
 10
20.999431092954708
 20
13.425630892862134
 11
20.883790452695919
 21
13.425630892862134
 72
     1
 10
20.883790452695919
 20
13.425630892862134
 11
20.883790452695919
 21
13.465807284463697
 72
     1
 10
20.883790452695919
 20
13.465807284463697
 11
20.999431092954708
 21
13.465807284463697
 72
     1
 10
20.999431092954708
 20
13.465807284463697
 11
20.999431092954708
 21
13.425630892862134
 97
        0
 75
     0
 76
     1
 98
        1
 10
0.0
 20
0.0
  0
HATCH
  5
32C
100
AcDbEntity
  8
0
370
    15
390
0
  6
Continuous
 62
   174
100
AcDbHatch
 10
0.0
 20
0.0
 30
0.0
210
0.0
220
0.0
230
1.0
  2
SOLID
 70
     1
 71
     0
 91
        8
 92
        1
 93
        6
 72
     1
 10
20.999431092954708
 20
13.264910067666822
 11
21.039611299253536
 21
13.264910067666822
 72
     1
 10
21.039611299253536
 20
13.264910067666822
 11
21.039611299253536
 21
13.345270480264478
 72
     1
 10
21.039611299253536
 20
13.345270480264478
 11
20.843610246397091
 21
13.345270480264478
 72
     1
 10
20.843610246397091
 20
13.345270480264478
 11
20.843610246397091
 21
13.30509027396565
 72
     1
 10
20.843610246397091
 20
13.30509027396565
 11
20.999431092954708
 21
13.30509027396565
 72
     1
 10
20.999431092954708
 20
13.30509027396565
 11
20.999431092954708
 21
13.264910067666822
 97
        0
 92
        1
 93
        8
 72
     1
 10
20.883790452695919
 20
13.023828829873853
 11
21.039611299253536
 21
13.023828829873853
 72
     1
 10
21.039611299253536
 20
13.023828829873853
 11
21.039611299253536
 21
13.064009036172681
 72
     1
 10
21.039611299253536
 20
13.064009036172681
 11
20.843610246397091
 21
13.064009036172681
 72
     1
 10
20.843610246397091
 20
13.064009036172681
 11
20.843610246397091
 21
12.943468417276197
 72
     1
 10
20.843610246397091
 20
12.943468417276197
 11
21.039611299253536
 21
12.943468417276197
 72
     1
 10
21.039611299253536
 20
12.943468417276197
 11
21.039611299253536
 21
12.983648623575025
 72
     1
 10
21.039611299253536
 20
12.983648623575025
 11
20.883790452695919
 21
12.983648623575025
 72
     1
 10
20.883790452695919
 20
12.983648623575025
 11
20.883790452695919
 21
13.023828829873853
 97
        0
 92
        1
 93
        4
 72
     1
 10
20.843610246397091
 20
12.863108004678541
 11
21.106294114805294
 21
12.863108004678541
 72
     1
 10
21.106294114805294
 20
12.863108004678541
 11
21.106294114805294
 21
12.903288210977369
 72
     1
 10
21.106294114805294
 20
12.903288210977369
 11
20.843610246397091
 21
12.903288210977369
 72
     1
 10
20.843610246397091
 20
12.903288210977369
 11
20.843610246397091
 21
12.863108004678541
 97
        0
 92
        1
 93
        4
 72
     1
 10
21.066113908506466
 20
12.782747592080884
 11
21.106294114805294
 21
12.782747592080884
 72
     1
 10
21.106294114805294
 20
12.782747592080884
 11
21.106294114805294
 21
12.822927798379713
 72
     1
 10
21.106294114805294
 20
12.822927798379713
 11
21.066113908506466
 21
12.822927798379713
 72
     1
 10
21.066113908506466
 20
12.822927798379713
 11
21.066113908506466
 21
12.782747592080884
 97
        0
 92
        1
 93
        4
 72
     1
 10
20.843610246397091
 20
12.782747592080884
 11
21.039611299253536
 21
12.782747592080884
 72
     1
 10
21.039611299253536
 20
12.782747592080884
 11
21.039611299253536
 21
12.822927798379713
 72
     1
 10
21.039611299253536
 20
12.822927798379713
 11
20.843610246397091
 21
12.822927798379713
 72
     1
 10
20.843610246397091
 20
12.822927798379713
 11
20.843610246397091
 21
12.782747592080884
 97
        0
 92
        1
 93
        8
 72
     1
 10
20.999431092954708
 20
12.626825656045728
 11
21.039611299253536
 21
12.626825656045728
 72
     1
 10
21.039611299253536
 20
12.626825656045728
 11
21.039611299253536
 21
12.742567385782056
 72
     1
 10
21.039611299253536
 20
12.742567385782056
 11
20.843610246397091
 21
12.742567385782056
 72
     1
 10
20.843610246397091
 20
12.742567385782056
 11
20.843610246397091
 21
12.626825656045728
 72
     1
 10
20.843610246397091
 20
12.626825656045728
 11
20.883790452695919
 21
12.626825656045728
 72
     1
 10
20.883790452695919
 20
12.626825656045728
 11
20.883790452695919
 21
12.702387179483228
 72
     1
 10
20.883790452695919
 20
12.702387179483228
 11
20.999431092954708
 21
12.702387179483228
 72
     1
 10
20.999431092954708
 20
12.702387179483228
 11
20.999431092954708
 21
12.626825656045728
 97
        0
 92
        1
 93
        8
 72
     1
 10
20.843610246397091
 20
13.104189242471509
 11
21.039611299253536
 21
13.104189242471509
 72
     1
 10
21.039611299253536
 20
13.104189242471509
 11
21.039611299253536
 21
13.206953372110181
 72
     1
 10
21.039611299253536
 20
13.206953372110181
 11
20.999431092954708
 21
13.206953372110181
 72
     1
 10
20.999431092954708
 20
13.206953372110181
 11
20.999431092954708
 21
13.144369448770338
 72
     1
 10
20.999431092954708
 20
13.144369448770338
 11
20.964150865293576
 21
13.144369448770338
 72
     1
 10
20.964150865293576
 20
13.144369448770338
 11
20.964150865293576
 21
13.224729861367994
 72
     1
 10
20.964150865293576
 20
13.224729861367994
 11
20.843610246397091
 21
13.224729861367994
 72
     1
 10
20.843610246397091
 20
13.224729861367994
 11
20.843610246397091
 21
13.104189242471509
 97
        0
 92
        1
 93
        4
 72
     1
 10
20.883790452695919
 20
13.144369448770338
 11
20.923970658994747
 21
13.144369448770338
 72
     1
 10
20.923970658994747
 20
13.144369448770338
 11
20.923970658994747
 21
13.184549655069166
 72
     1
 10
20.923970658994747
 20
13.184549655069166
 11
20.883790452695919
 21
13.184549655069166
 72
     1
 10
20.883790452695919
 20
13.184549655069166
 11
20.883790452695919
 21
13.144369448770338
 97
        0
 75
     0
 76
     1
 98
        1
 10
0.0
 20
0.0
  0
HATCH
  5
32D
100
AcDbEntity
  8
0
370
    15
390
0
  6
Continuous
 62
   174
100
AcDbHatch
 10
0.0
 20
0.0
 30
0.0
210
0.0
220
0.0
230
1.0
  2
SOLID
 70
     1
 71
     0
 91
        1
 92
        1
 93
       12
 72
     1
 10
20.999431092954708
 20
12.459364260782056
 11
21.039611299253536
 21
12.459364260782056
 72
     1
 10
21.039611299253536
 20
12.459364260782056
 11
21.039611299253536
 21
12.5866454497469
 72
     1
 10
21.039611299253536
 20
12.5866454497469
 11
20.921521623350216
 21
12.5866454497469
 72
     1
 10
20.921521623350216
 20
12.5866454497469
 11
20.921521623350216
 21
12.499544467080884
 72
     1
 10
20.921521623350216
 20
12.499544467080884
 11
20.883790452695919
 21
12.499544467080884
 72
     1
 10
20.883790452695919
 20
12.499544467080884
 11
20.883790452695919
 21
12.5866454497469
 72
     1
 10
20.883790452695919
 20
12.5866454497469
 11
20.843610246397091
 21
12.5866454497469
 72
     1
 10
20.843610246397091
 20
12.5866454497469
 11
20.843610246397091
 21
12.459364260782056
 72
     1
 10
20.843610246397091
 20
12.459364260782056
 11
20.961701829649044
 21
12.459364260782056
 72
     1
 10
20.961701829649044
 20
12.459364260782056
 11
20.961701829649044
 21
12.546465243448072
 72
     1
 10
20.961701829649044
 20
12.546465243448072
 11
20.999431092954708
 21
12.546465243448072
 72
     1
 10
20.999431092954708
 20
12.546465243448072
 11
20.999431092954708
 21
12.459364260782056
 97
        0
 75
     0
 76
     1
 98
        1
 10
0.0
 20
0.0
  0
TEXT
  5
32E
100
AcDbEntity
  8
0
370
    15
390
0
  6
Continuous
 62
     7
100
AcDbText
 10
21.098514
 20
12.495249
 30
0.0
 40
0.04606
  1
R
 50
270.0
 41
1.125
  7
Vcadd_SIMP
100
AcDbText
  0
TEXT
  5
32F
100
AcDbEntity
  8
0
370
    15
390
0
  6
Continuous
 62
     7
100
AcDbText
 10
20.745196
 20
13.135996
 30
0.0
 40
0.062
  1
CORPORATION
 50
270.0
  7
Vcadd_SIMP
100
AcDbText
  0
TEXT
  5
330
100
AcDbEntity
  8
0
370
    15
390
0
  6
Continuous
 62
     7
100
AcDbText
 10
20.653548
 20
13.904314
 30
0.0
 40
0.062
  1
1500 WEST UNIVERSITY PKWY
 50
270.0
  7
Vcadd_SIMP
100
AcDbText
  0
TEXT
  5
331
100
AcDbEntity
  8
0
370
    15
390
0
  6
Continuous
 62
     7
100
AcDbText
 10
20.560548
 20
13.904314
 30
0.0
 40
0.062
  1
SARASOTA, FLORIDA 34243, USA
 50
270.0
  7
Vcadd_SIMP
100
AcDbText
  0
TEXT
  5
332
100
AcDbEntity
  8
0
370
    15
390
0
  6
Continuous
 62
     7
100
AcDbText
 10
20.467548
 20
13.904314
 30
0.0
 40
0.062
  1
TELEPHONE (941) 355-2983
 50
270.0
  7
Vcadd_SIMP
100
AcDbText
  0
LINE
  5
333
100
AcDbEntity
  8
4
370
    15
390
0
  6
Continuous
 62
     7
100
AcDbLine
 10
24.839521
 20
20.95155
 30
0.0
 11
24.912091
 21
21.077244
 31
0.0
  0
LINE
  5
334
100
AcDbEntity
  8
4
370
    15
390
0
  6
Continuous
 62
     7
100
AcDbLine
 10
24.98466
 20
20.95155
 30
0.0
 11
24.912091
 21
21.077244
 31
0.0
  0
LINE
  5
335
100
AcDbEntity
  8
4
370
    15
390
0
  6
Continuous
 62
     7
100
AcDbLine
 10
24.839521
 20
20.95155
 30
0.0
 11
24.98466
 21
20.95155
 31
0.0
  0
LINE
  5
336
100
AcDbEntity
  8
4
370
    15
390
0
  6
Continuous
 62
     7
100
AcDbLine
 10
23.044401
 20
26.639909
 30
0.0
 11
23.116971
 21
26.765603
 31
0.0
  0
LINE
  5
337
100
AcDbEntity
  8
4
370
    15
390
0
  6
Continuous
 62
     7
100
AcDbLine
 10
23.18954
 20
26.639909
 30
0.0
 11
23.116971
 21
26.765603
 31
0.0
  0
LINE
  5
338
100
AcDbEntity
  8
4
370
    15
390
0
  6
Continuous
 62
     7
100
AcDbLine
 10
23.044401
 20
26.639909
 30
0.0
 11
23.18954
 21
26.639909
 31
0.0
  0
TEXT
  5
339
100
AcDbEntity
  8
4
370
    15
390
0
  6
Continuous
 62
     7
100
AcDbText
 10
26.528365
 20
23.208768
 30
0.0
 40
0.12
  1
SW 31,80
  7
Vcadd_SIMP
100
AcDbText
  0
CIRCLE
  5
33A
100
AcDbEntity
  8
4
370
    15
390
0
  6
Continuous
 62
     1
100
AcDbCircle
 10
22.185522
 20
12.70484
 30
0.0
 40
0.058579
  0
TEXT
  5
33B
100
AcDbEntity
  8
4
370
    15
390
0
  6
Continuous
 62
     7
100
AcDbText
 10
25.34219
 20
14.792999
 30
0.0
 40
0.133
  1
Freiraum fόr Sechskant-Steckschlόssel
  7
Vcadd_SIMP
100
AcDbText
  0
TEXT
  5
33C
100
AcDbEntity
  8
4
370
    15
390
0
  6
Continuous
 62
     7
100
AcDbText
 10
25.378753
 20
12.803928
 30
0.0
 40
0.133
  1
Alle O-Ring-Einfόhrungsschrδgen mόssen
  7
Vcadd_SIMP
100
AcDbText
  0
TEXT
  5
33D
100
AcDbEntity
  8
4
370
    15
390
0
  6
Continuous
 62
     7
100
AcDbText
 10
25.378753
 20
12.604428
 30
0.0
 40
0.133
  1
glatt und frei von Kerben und Kanten sein.
  7
Vcadd_SIMP
100
AcDbText
  0
TEXT
  5
33E
100
AcDbEntity
  8
4
370
    15
390
0
  6
Continuous
 62
     7
100
AcDbText
 10
25.093661
 20
14.787184
 30
0.0
 40
0.133
  1
*
  7
Vcadd_SIMP
100
AcDbText
  0
TEXT
  5
33F
100
AcDbEntity
  8
4
370
    15
390
0
  6
Continuous
 62
     7
100
AcDbText
 10
25.020989
 20
12.800399
 30
0.0
 40
0.133
  1
**
  7
Vcadd_SIMP
100
AcDbText
  0
TEXT
  5
340
100
AcDbEntity
  8
4
370
    15
390
0
  6
Continuous
 62
     7
100
AcDbText
 10
28.900554
 20
18.67018
 30
0.0
 40
0.12
  1
Min. Tiefe von
  7
Vcadd_SIMP
100
AcDbText
  0
TEXT
  5
341
100
AcDbEntity
  8
4
370
    15
390
0
  6
Continuous
 62
     7
100
AcDbText
 10
28.900554
 20
18.49018
 30
0.0
 40
0.12
  1
25,40 %%c (Ventil
  7
Vcadd_SIMP
100
AcDbText
  0
TEXT
  5
342
100
AcDbEntity
  8
4
370
    15
390
0
  6
Continuous
 62
     7
100
AcDbText
 10
28.900554
 20
18.31018
 30
0.0
 40
0.12
  1
arbeitsbereich)
  7
Vcadd_SIMP
100
AcDbText
  0
TEXT
  5
343
100
AcDbEntity
  8
4
370
    15
390
0
  6
Continuous
 62
     7
100
AcDbText
 10
26.595567
 20
20.568832
 30
0.0
 40
0.13
  1
Anschluss #2
  7
Vcadd_SIMP
100
AcDbText
  0
LINE
  5
344
100
AcDbEntity
  8
3
370
    15
390
0
  6
Continuous
 62
     1
100
AcDbLine
 10
26.775858
 20
19.719235
 30
0.0
 11
27.882078
 21
19.719235
 31
0.0
  0
LINE
  5
345
100
AcDbEntity
  8
3
370
    15
390
0
  6
Continuous
 62
     1
100
AcDbLine
 10
26.827754
 20
21.22423
 30
0.0
 11
27.882078
 21
21.22423
 31
0.0
  0
LINE
  5
346
100
AcDbEntity
  8
3
370
    15
390
0
  6
Continuous
 62
     1
100
AcDbLine
 10
27.771185
 20
19.581908
 30
0.0
 11
28.023122
 21
19.581908
 31
0.0
  0
LINE
  5
347
100
AcDbEntity
  8
3
370
    15
390
0
  6
Continuous
 62
     1
100
AcDbLine
 10
27.771185
 20
21.22423
 30
0.0
 11
27.771185
 21
19.581908
 31
0.0
  0
TEXT
  5
348
100
AcDbEntity
  8
4
370
    15
390
0
  6
Continuous
 62
     7
100
AcDbText
 10
28.065435
 20
19.520693
 30
0.0
 40
0.142
  1
38,10
  7
Vcadd_SIMP
100
AcDbText
  0
INSERT
  5
349
100
AcDbEntity
  8
3
370
    15
390
0
  6
Continuous
 62
     7
100
AcDbBlockReference
  2
ARROW
 10
27.771185
 20
21.22423
 30
0.0
 50
90.0
  0
INSERT
  5
34A
100
AcDbEntity
  8
3
370
    15
390
0
  6
Continuous
 62
     7
100
AcDbBlockReference
  2
ARROW
 10
27.771185
 20
19.719235
 30
0.0
 50
270.0
  0
TEXT
  5
34B
100
AcDbEntity
  8
0
370
    15
390
0
  6
Continuous
 62
     7
100
AcDbText
 10
21.428469
 20
14.663786
 30
0.0
 40
0.125
  1
K
 50
270.0
  7
Vcadd_SIMP
100
AcDbText
  0
TEXT
  5
34C
100
AcDbEntity
  8
0
370
    15
390
0
  6
Continuous
 62
     7
100
AcDbText
 10
30.116671
 20
14.645506
 30
0.0
 40
0.125
  1
K
 50
270.0
  7
Vcadd_SIMP
100
AcDbText
  0
TEXT
  5
34D
100
AcDbEntity
  8
4
370
    15
390
0
  6
Continuous
 62
     7
100
AcDbText
 10
25.934493
 20
24.149534
 30
0.0
 40
0.12
  1
Formbohrer
  7
Vcadd_SIMP
100
AcDbText
  0
TEXT
  5
34E
100
AcDbEntity
  8
4
370
    15
390
0
  6
Continuous
 62
     7
100
AcDbText
 10
25.934493
 20
23.969534
 30
0.0
 40
0.12
  1
994-016-***
  7
Vcadd_SIMP
100
AcDbText
  0
TEXT
  5
34F
100
AcDbEntity
  8
4
370
    15
390
0
  6
Continuous
 62
     7
100
AcDbText
 10
25.934437
 20
23.700948
 30
0.0
 40
0.12
  1
Formreibahle
  7
Vcadd_SIMP
100
AcDbText
  0
TEXT
  5
350
100
AcDbEntity
  8
4
370
    15
390
0
  6
Continuous
 62
     7
100
AcDbText
 10
25.934437
 20
23.520948
 30
0.0
 40
0.12
  1
995-016-***
  7
Vcadd_SIMP
100
AcDbText
  0
LINE
  5
351
100
AcDbEntity
  8
0
370
     0
390
0
  6
Continuous
 62
     7
100
AcDbLine
 10
20.932694
 20
18.106502
 30
0.0
 11
20.932694
 21
18.053927
 31
0.0
  0
LINE
  5
352
100
AcDbEntity
  8
0
370
     0
390
0
  6
Continuous
 62
     7
100
AcDbLine
 10
20.967869
 20
18.106502
 30
0.0
 11
20.967869
 21
18.053927
 31
0.0
  0
LINE
  5
353
100
AcDbEntity
  8
0
370
     0
390
0
  6
Continuous
 62
     7
100
AcDbLine
 10
20.983504
 20
18.080214
 30
0.0
 11
20.952237
 21
18.080214
 31
0.0
  0
LINE
  5
354
100
AcDbEntity
  8
0
370
     0
390
0
  6
Continuous
 62
     7
100
AcDbLine
 10
20.999137
 20
17.960044
 30
0.0
 11
20.932694
 21
18.005109
 31
0.0
  0
LINE
  5
355
100
AcDbEntity
  8
0
370
    15
390
0
  6
Continuous
 62
     7
100
AcDbLine
 10
20.864894
 20
18.07943
 30
0.0
 11
20.870719
 21
18.068857
 31
0.0
  0
LINE
  5
356
100
AcDbEntity
  8
0
370
    15
390
0
  6
Continuous
 62
     7
100
AcDbLine
 10
20.870719
 20
18.068857
 30
0.0
 11
20.829293
 21
18.035895
 31
0.0
  0
LINE
  5
357
100
AcDbEntity
  8
0
370
    15
390
0
  6
Continuous
 62
     7
100
AcDbLine
 10
20.829293
 20
18.035895
 30
0.0
 11
20.890138
 21
17.96997
 31
0.0
  0
TEXT
  5
358
100
AcDbEntity
  8
0
370
     0
390
0
  6
Continuous
 62
     7
100
AcDbText
 10
20.538829
 20
18.748655
 30
0.0
 40
0.062
  1
REMOVE ALL
 50
270.0
 41
1.25
  7
Vcadd_SIMP
100
AcDbText
  0
TEXT
  5
359
100
AcDbEntity
  8
0
370
     0
390
0
  6
Continuous
 62
     7
100
AcDbText
 10
20.434381
 20
18.584747
 30
0.0
 40
0.062
  1
BURRS
 50
270.0
 41
1.25
  7
Vcadd_SIMP
100
AcDbText
  0
TEXT
  5
35A
100
AcDbEntity
  8
0
370
     0
390
0
  6
Continuous
 62
     7
100
AcDbText
 10
20.772034
 20
18.388925
 30
0.0
 40
0.055
  1
DIM. TOLERANCE
 50
270.0
 41
1.1725
  7
Vcadd_SIMP
 72
     1
 11
21.291158
 21
18.388925
 31
0.0
100
AcDbText
  0
TEXT
  5
35B
100
AcDbEntity
  8
0
370
     0
390
0
  6
Continuous
 62
     7
100
AcDbText
 10
20.811775
 20
18.388925
 30
0.0
 40
0.055
  1
+\- 0,13 mm
 50
270.0
 41
1.1725
  7
Vcadd_SIMP
 72
     1
 11
21.219658
 21
18.388925
 31
0.0
100
AcDbText
  0
TEXT
  5
35C
100
AcDbEntity
  8
0
370
     0
390
0
  6
Continuous
 62
     7
100
AcDbText
 10
20.925676
 20
18.388925
 30
0.0
 40
0.055
  1
UNLESS
 50
270.0
 41
1.1725
  7
Vcadd_SIMP
 72
     1
 11
21.148158
 21
18.388925
 31
0.0
100
AcDbText
  0
TEXT
  5
35D
100
AcDbEntity
  8
0
370
     0
390
0
  6
Continuous
 62
     7
100
AcDbText
 10
20.742935
 20
18.388925
 30
0.0
 40
0.055
  1
SPECIFIED
 50
270.0
 41
1.1725
  7
Vcadd_SIMP
 72
     1
 11
21.076658
 21
18.388925
 31
0.0
100
AcDbText
  0
TEXT
  5
35E
100
AcDbEntity
  8
0
370
     0
390
0
  6
Continuous
 62
     7
100
AcDbText
 10
20.932227
 20
18.821504
 30
0.0
 40
0.062
  1
ANGLE TOL
 50
270.0
 41
1.25
  7
Vcadd_SIMP
100
AcDbText
  0
TEXT
  5
35F
100
AcDbEntity
  8
0
370
     0
390
0
  6
Continuous
 62
     7
100
AcDbText
 10
20.967869
 20
18.016373
 30
0.0
 40
0.031961
  1
1 
 50
270.0
 41
1.25
  7
Vcadd_SIMP
100
AcDbText
  0
TEXT
  5
360
100
AcDbEntity
  8
0
370
     0
390
0
  6
Continuous
 62
     7
100
AcDbText
 10
20.927918
 20
17.976422
 30
0.0
 40
0.031961
  1
2
 50
270.0
 41
1.25
  7
Vcadd_SIMP
100
AcDbText
  0
TEXT
  5
361
100
AcDbEntity
  8
0
370
     0
390
0
  6
Continuous
 62
     7
100
AcDbText
 10
20.828113
 20
18.788723
 30
0.0
 40
0.062
  1
FINISH
 50
270.0
 41
1.25
  7
Vcadd_SIMP
100
AcDbText
  0
TEXT
  5
362
100
AcDbEntity
  8
0
370
     0
390
0
  6
Continuous
 62
     7
100
AcDbText
 10
20.473273
 20
18.385514
 30
0.0
 40
0.062
  1
UNLESS
 50
270.0
 41
1.25
  7
Vcadd_SIMP
 72
     1
 11
20.740648
 21
18.385514
 31
0.0
100
AcDbText
  0
TEXT
  5
363
100
AcDbEntity
  8
0
370
     0
390
0
  6
Continuous
 62
     7
100
AcDbText
 10
20.258985
 20
18.385514
 30
0.0
 40
0.062
  1
SPECIFIED
 50
270.0
 41
1.25
  7
Vcadd_SIMP
 72
     1
 11
20.660048
 21
18.385514
 31
0.0
100
AcDbText
  0
TEXT
  5
364
100
AcDbEntity
  8
0
370
     0
390
0
  6
Continuous
 62
     7
100
AcDbText
 10
20.828113
 20
18.260546
 30
0.0
 40
0.062
  1
2,0
 50
270.0
 41
1.25
  7
Vcadd_SIMP
100
AcDbText
  0
TEXT
  5
365
100
AcDbEntity
  8
0
370
     0
390
0
  6
Continuous
 62
     7
100
AcDbText
 10
21.379031
 20
22.47611
 30
0.0
 40
0.065844
  1
REVISED TOOLING P/N. REVISED DIMS FOR
 50
270.0
 41
0.9
  7
Vcadd_SIMP
100
AcDbText
  0
TEXT
  5
366
100
AcDbEntity
  8
0
370
     0
390
0
  6
Continuous
 62
     7
100
AcDbText
 10
21.223025
 20
22.47611
 30
0.0
 40
0.065844
  1
CAVITY/TOOLING CONSISTENCY.
 50
270.0
 41
0.9
  7
Vcadd_SIMP
100
AcDbText
  0
TEXT
  5
367
100
AcDbEntity
  8
0
370
     0
390
0
  6
Continuous
 62
     7
100
AcDbText
 10
21.341155
 20
22.638289
 30
0.0
 40
0.065844
  1
K
 50
270.0
  7
Vcadd_SIMP
 72
     1
 11
21.379015
 21
22.638289
 31
0.0
100
AcDbText
  0
TEXT
  5
368
100
AcDbEntity
  8
0
370
     0
390
0
  6
Continuous
 62
     7
100
AcDbText
 10
21.111994
 20
19.88829
 30
0.0
 40
0.065844
  1
05MAY11
 50
270.0
  7
Vcadd_SIMP
 72
     1
 11
21.377017
 21
19.88829
 31
0.0
100
AcDbText
  0
TEXT
  5
369
100
AcDbEntity
  8
0
370
     0
390
0
  6
Continuous
 62
     7
100
AcDbText
 10
21.263588
 20
19.513291
 30
0.0
 40
0.065844
  1
JRS
 50
270.0
  7
Vcadd_SIMP
 72
     1
 11
21.377169
 21
19.513291
 31
0.0
100
AcDbText
  0
TEXT
  5
36A
100
AcDbEntity
  8
0
370
     0
390
0
  6
Continuous
 62
     7
100
AcDbText
 10
21.244658
 20
19.013293
 30
0.0
 40
0.065844
  1
10164
 50
270.0
 41
0.7
  7
Vcadd_SIMP
 72
     1
 11
21.377169
 21
19.013293
 31
0.0
100
AcDbText
  0
TEXT
  5
36B
100
AcDbEntity
  8
0
370
     0
390
0
  6
Continuous
 62
     7
100
AcDbText
 10
21.067019
 20
22.47611
 30
0.0
 40
0.065844
  1
ADDED METRIC TOL. BLOCK TO SHEETS 2 & 3.
 50
270.0
 41
0.9
  7
Vcadd_SIMP
100
AcDbText
  0
INSERT
  5
373
100
AcDbEntity
  8
4
370
     0
390
0
  6
Continuous
 62
     1
100
AcDbBlockReference
  2
REV
 10
20.864764
 20
22.763289
 30
0.0
 41
2.0
 42
2.0
 50
270.0
  0
LINE
  5
374
100
AcDbEntity
  8
0
370
    15
390
0
  6
Continuous
 62
     7
100
AcDbLine
 10
21.020754
 20
18.888293
 30
0.0
 11
21.020754
 21
22.763289
 31
0.0
  0
LINE
  5
375
100
AcDbEntity
  8
0
370
    15
390
0
  6
Continuous
 62
     7
100
AcDbLine
 10
21.488757
 20
18.888293
 30
0.0
 11
21.488757
 21
22.763289
 31
0.0
  0
TEXT
  5
376
100
AcDbEntity
  8
0
370
     0
390
0
  6
Continuous
 62
     7
100
AcDbText
 10
21.263268
 20
19.263292
 30
0.0
 40
0.065844
  1
RCL
 50
270.0
  7
Vcadd_SIMP
 72
     1
 11
21.376849
 21
19.263292
 31
0.0
100
AcDbText
  0
LINE
  5
377
100
AcDbEntity
  8
3
370
    30
390
0
  6
Continuous
 62
     1
100
AcDbLine
 10
25.01528
 20
21.78673
 30
0.0
 11
22.699184
 21
21.78673
 31
0.0
  0
LINE
  5
378
100
AcDbEntity
  8
3
370
    30
390
0
  6
Continuous
 62
     1
100
AcDbLine
 10
26.653239
 20
21.78673
 30
0.0
 11
29.716302
 21
21.78673
 31
0.0
  0
TEXT
  5
379
100
AcDbEntity
  8
4
370
    15
390
0
  6
Continuous
 62
     7
100
AcDbText
 10
23.534291
 20
22.308968
 30
0.0
 40
0.142
  1
39,68
  7
Vcadd_SIMP
100
AcDbText
  0
TEXT
  5
37A
100
AcDbEntity
  8
4
370
    15
390
0
  6
Continuous
 62
     7
100
AcDbText
 10
25.911003
 20
24.687656
 30
0.0
 40
0.12
  1
Formreibahle 1,19 mm tiefer
  7
Vcadd_SIMP
100
AcDbText
  0
TEXT
  5
37B
100
AcDbEntity
  8
4
370
    15
390
0
  6
Continuous
 62
     7
100
AcDbText
 10
25.911003
 20
24.537656
 30
0.0
 40
0.12
  1
einfόhren als Formbohrer
  7
Vcadd_SIMP
100
AcDbText
  0
TEXT
  5
37C
100
AcDbEntity
  8
4
370
    15
390
0
  6
Continuous
 62
     7
100
AcDbText
 10
21.962529
 20
19.48967
 30
0.0
 40
0.142
  1
52,38
  7
Vcadd_SIMP
100
AcDbText
  0
TEXT
  5
37D
100
AcDbEntity
  8
4
370
    15
390
0
  6
Continuous
 62
     7
100
AcDbText
 10
21.973808
 20
19.211292
 30
0.0
 40
0.142
  1
62,13
  7
Vcadd_SIMP
100
AcDbText
  0
TEXT
  5
37E
100
AcDbEntity
  8
4
370
    15
390
0
  6
Continuous
 62
     7
100
AcDbText
 10
21.973808
 20
19.033792
 30
0.0
 40
0.142
  1
62,23
  7
Vcadd_SIMP
100
AcDbText
  0
LINE
  5
37F
100
AcDbEntity
  8
3
370
    15
390
0
  6
Continuous
 62
     1
100
AcDbLine
 10
24.527823
 20
19.179921
 30
0.0
 11
22.825539
 21
19.179921
 31
0.0
  0
LINE
  5
380
100
AcDbEntity
  8
3
370
    15
390
0
  6
Continuous
 62
     1
100
AcDbLine
 10
22.664951
 20
19.179921
 30
0.0
 11
21.978366
 21
19.179921
 31
0.0
  0
ENDSEC
  0
SECTION
  2
OBJECTS
  0
DICTIONARY
  5
19
100
AcDbDictionary
280
     0
281
     1
  3
ACAD_GROUP
350
1A
  3
ACAD_MLINESTYLE
350
1B
  3
ACAD_LAYOUT
350
1E
  3
ACAD_PLOTSETTINGS
350
22
  3
ACAD_PLOTSTYLENAME
350
1F
  3
ACAD_WIPEOUT_VARS
350
23
  0
DICTIONARY
  5
1A
102
{ACAD_REACTORS
330
19
102
}
100
AcDbDictionary
280
     0
281
     1
  0
DICTIONARY
  5
1B
102
{ACAD_REACTORS
330
19
102
}
100
AcDbDictionary
280
     0
281
     1
  3
Standard
350
1C
  0
MLINESTYLE
  5
1C
102
{ACAD_REACTORS
330
1B
102
}
100
AcDbMlineStyle
  2
Standard
 70
     0
  3

 62
     0
 51
90.0
 52
90.0
 71
     2
 49
0.5
 62
   256
  6
ByLayer
 49
-0.5
 62
   256
  6
ByLayer
  0
ACDBDICTIONARYWDFLT
  5
1F
102
{ACAD_REACTORS
330
19
102
}
100
AcDbDictionary
281
     1
  3
Normal
350
1D
100
AcDbDictionaryWithDefault
340
1D
  0
ACDBPLACEHOLDER
  5
1D
102
{ACAD_REACTORS
330
1F
102
}
  0
LAYOUT
  5
20
102
{ACAD_REACTORS
330
1E
102
}
100
AcDbPlotSettings
  1

  2

  4

  6

 40
0.0
 41
0.0
 42
0.0
 43
0.0
 44
0.0
 45
0.0
 46
0.0
 47
0.0
 48
0.0
 49
0.0
140
0.0
141
0.0
142
1.0
143
1.0
 70
  1024
 72
     0
 73
     0
 74
     0
  7

 75
     0
147
1.0
148
0.0
149
0.0
100
AcDbLayout
  1
Model
 70
     0
 71
     0
 10
0.0
 20
0.0
 11
0.0
 21
0.0
 12
0.0
 22
0.0
 32
0.0
 14
0.0
 24
0.0
 34
0.0
 15
0.0
 25
0.0
 35
0.0
146
0.0
 13
0.0
 23
0.0
 33
0.0
 16
0.0
 26
0.0
 36
0.0
 17
0.0
 27
0.0
 37
0.0
 76
     0
330
A
331
0
345
0
346
0
  0
LAYOUT
  5
21
102
{ACAD_REACTORS
330
1E
102
}
100
AcDbPlotSettings
  1

  2

  4

  6

 40
0.0
 41
0.0
 42
0.0
 43
0.0
 44
0.0
 45
0.0
 46
0.0
 47
0.0
 48
0.0
 49
0.0
140
0.0
141
0.0
142
1.0
143
1.0
 70
     0
 72
     0
 73
     0
 74
     0
  7

 75
     0
147
1.0
148
0.0
149
0.0
100
AcDbLayout
  1
Layout1
 70
     0
 71
     0
 10
0.0
 20
0.0
 11
0.0
 21
0.0
 12
0.0
 22
0.0
 32
0.0
 14
0.0
 24
0.0
 34
0.0
 15
0.0
 25
0.0
 35
0.0
146
0.0
 13
0.0
 23
0.0
 33
0.0
 16
0.0
 26
0.0
 36
0.0
 17
0.0
 27
0.0
 37
0.0
 76
     0
330
B
331
0
345
0
346
0
  0
DICTIONARY
  5
1E
102
{ACAD_REACTORS
330
19
102
}
100
AcDbDictionary
280
     0
281
     1
  3
Layout1
350
21
  3
Model
350
20
  0
DICTIONARY
  5
22
102
{ACAD_REACTORS
330
19
102
}
100
AcDbDictionary
280
     0
281
     1
  0
WIPEOUTVARIABLES
  5
23
100
AcDbWipeoutVariables
 70
     1
  0
ENDSEC
  0
EOF
